  0
SECTION
  2
HEADER
  0
ENDSEC
  0
SECTION
  2
TABLES
  0
TABLE
  2
LTYPE
 70
    22
  0
LTYPE
  2
CONTINUOUS
 70
    64
  3
Solid line
 72
    65
 73
     0
 40
0.000000
  0
LTYPE
  2
DASHED
 70
    64
  3
__ __ __ __ __ __ __ __ __ __ __ __ __ __ __
 72
    65
 73
     2
 40
3.500000
 49
2.000000
 49
-1.500000
  0
LTYPE
  2
CENTER
 70
    64
  3
____ _ ____ _ ____ _ ____ _ ____ _ ____ _ ____
 72
    65
 73
     4
 40
17.500000
 49
13.000000
 49
-1.500000
 49
1.500000
 49
-1.500000
  0
LTYPE
  2
PHANTOM
 70
    64
  3
_____ _ _ _____ _ _ _____ _ _ _____ _ _ ____  
 72
    65
 73
     6
 40
15.500000
 49
8.000000
 49
-1.500000
 49
1.500000
 49
-1.500000
 49
1.500000
 49
-1.500000
  0
LTYPE
  2
DOT
 70
    64
  3
. . . . . . . . . . . . . . . . . . . . . . . .
 72
    65
 73
     2
 40
0.25
 49
0.0
 49
-0.25
  0
ENDTAB
  0
TABLE
  2
LAYER
 70
     1
  0
LAYER
  2
0
 70
     0
 62
     7
  6
CONTINUOUS
  0
ENDTAB
  0
TABLE
  2
STYLE
 70
     1
  0
STYLE
  2
STANDARD
 70
     0
 40
0.000000
 41
1.000000
 50
0.000000
 71
     0
 42
0.200000
  3
txt
  0
ENDTAB
  0
TABLE
  2
VIEW
 70
     0
  0
ENDTAB
  0
ENDSEC
  0
SECTION
  2
BLOCKS
  0
ENDSEC
  0
SECTION
  2
ENTITIES
  0
LINE
  8
0
  6
CONTINUOUS
 62
     7
 10
179.7423706054688
 20
16.5
 11
220.2423706054688
 21
16.5
  0
LINE
  8
0
  6
CONTINUOUS
 62
     7
 10
179.7423706054688
 20
14.79339599609375
 11
220.2423706054688
 21
14.79339599609375
  0
LINE
  8
0
  6
CONTINUOUS
 62
     7
 10
179.7423706054688
 20
12.91361522674561
 11
220.2423706054688
 21
12.91361522674561
  0
LINE
  8
0
  6
CONTINUOUS
 62
     7
 10
179.7423706054688
 20
10.50002002716065
 11
220.2423706054688
 21
10.50002002716065
  0
LINE
  8
0
  6
CONTINUOUS
 62
     7
 10
179.7423706054688
 20
6.000020503997803
 11
220.2423706054688
 21
6.000020503997803
  0
LINE
  8
0
  6
DASHED
 62
     7
 10
83.24237060546875
 20
7.999979496002197
 11
83.24237060546875
 21
0
  0
LINE
  8
0
  6
DASHED
 62
     7
 10
84.99234771728516
 20
16.5
 11
84.99234771728516
 21
7.999979496002197
  0
LINE
  8
0
  6
DASHED
 62
     7
 10
84.99234771728516
 20
7.999979496002197
 11
75.49234771728516
 21
7.999979496002197
  0
LINE
  8
0
  6
DASHED
 62
     7
 10
75.49234771728516
 20
16.5
 11
75.49234771728516
 21
7.999979496002197
  0
LINE
  8
0
  6
CENTER
 62
     7
 10
80.24237060546875
 20
18.38594627380371
 11
80.24237060546875
 21
-1.688822388648987
  0
LINE
  8
0
  6
DASHED
 62
     7
 10
77.24237060546875
 20
7.999979496002197
 11
77.24237060546875
 21
0
  0
LINE
  8
0
  6
CONTINUOUS
 62
     7
 10
60.24237060546875
 20
3.999979734420776
 11
220.2423706054688
 21
3.999979734420776
  0
LINE
  8
0
  6
CONTINUOUS
 62
     7
 10
60.24237060546875
 20
0
 11
220.2423706054688
 21
0
  0
LINE
  8
0
  6
CONTINUOUS
 62
     7
 10
179.7423706054688
 20
29.50002098083496
 11
179.7423706054688
 21
4.599996089935303
  0
LINE
  8
0
  6
CONTINUOUS
 62
     7
 10
179.7423706054688
 20
4.599996089935303
 11
169.7423706054688
 21
4.599996089935303
  0
LINE
  8
0
  6
CONTINUOUS
 62
     7
 10
179.7423706054688
 20
29.50002098083496
 11
169.7423706054688
 21
29.50002098083496
  0
LINE
  8
0
  6
CONTINUOUS
 62
     7
 10
169.7423706054688
 20
29.54998397827148
 11
169.7423706054688
 21
4.599996089935303
  0
LINE
  8
0
  6
CONTINUOUS
 62
     7
 10
99.74237060546875
 20
23.5000057220459
 11
98.24237060546875
 21
27.00002098083496
  0
LINE
  8
0
  6
CONTINUOUS
 62
     7
 10
110.7423782348633
 20
29.55000114440918
 11
110.7423706054688
 21
4.599959373474121
  0
LINE
  8
0
  6
CENTER
 62
     7
 10
88.94235992431641
 20
23.50002098083496
 11
104.870964050293
 21
23.50002098083496
  0
LINE
  8
0
  6
CONTINUOUS
 62
     7
 10
100.7423706054688
 20
29.49997901916504
 11
110.7423706054688
 21
29.49997901916504
  0
LINE
  8
0
  6
CONTINUOUS
 62
     7
 10
100.7423706054688
 20
4.599955081939697
 11
110.7423706054688
 21
4.599955081939697
  0
LINE
  8
0
  6
CONTINUOUS
 62
     7
 10
99.74239349365234
 20
23.50003051757813
 11
98.24240112304688
 21
20.00004005432129
  0
LINE
  8
0
  6
CONTINUOUS
 62
     7
 10
100.7423706054688
 20
18.88002586364746
 11
100.6423721313477
 21
18.88002586364746
  0
LINE
  8
0
  6
CONTINUOUS
 62
     7
 10
100.7423706054688
 20
25.81001853942871
 11
100.6423950195313
 21
25.81001853942871
  0
LINE
  8
0
  6
CONTINUOUS
 62
     7
 10
97.14237213134766
 20
19.50002098083496
 11
100.1423721313477
 21
19.50002098083496
  0
LINE
  8
0
  6
CONTINUOUS
 62
     7
 10
98.24234771728516
 20
20.00002098083496
 11
93.0423583984375
 21
20.00002098083496
  0
LINE
  8
0
  6
CONTINUOUS
 62
     7
 10
100.1423645019531
 20
27.62000274658203
 11
100.6423568725586
 21
28.11999130249023
  0
LINE
  8
0
  6
CONTINUOUS
 62
     7
 10
98.84243011474609
 20
23.50003051757813
 11
97.242431640625
 21
20.00004768371582
  0
LINE
  8
0
  6
CONTINUOUS
 62
     7
 10
93.04234313964844
 20
26.99998283386231
 11
92.64234924316406
 21
26.41997718811035
  0
LINE
  8
0
  6
CONTINUOUS
 62
     7
 10
100.1423721313477
 20
19.38002586364746
 11
100.1423721313477
 21
27.6199951171875
  0
LINE
  8
0
  6
CONTINUOUS
 62
     7
 10
97.14237213134766
 20
27.50002098083496
 11
100.1423721313477
 21
27.50002098083496
  0
LINE
  8
0
  6
CONTINUOUS
 62
     7
 10
100.7423706054688
 20
28.12001609802246
 11
100.6423721313477
 21
28.12001609802246
  0
LINE
  8
0
  6
CONTINUOUS
 62
     7
 10
98.24234771728516
 20
27.00002098083496
 11
93.0423583984375
 21
27.00002098083496
  0
LINE
  8
0
  6
CONTINUOUS
 62
     7
 10
93.0423583984375
 20
20.00000762939453
 11
92.64235687255859
 21
20.58002281188965
  0
LINE
  8
0
  6
CONTINUOUS
 62
     7
 10
100.6423645019531
 20
18.8800163269043
 11
100.1423568725586
 21
19.3800220489502
  0
LINE
  8
0
  6
CONTINUOUS
 62
     7
 10
98.24234771728516
 20
19.96001243591309
 11
98.24234771728516
 21
20.00002098083496
  0
LINE
  8
0
  6
CONTINUOUS
 62
     7
 10
169.7423858642578
 20
5.0999755859375
 11
140.2423706054688
 21
5.0999755859375
  0
LINE
  8
0
  6
CONTINUOUS
 62
     7
 10
169.2923583984375
 20
30
 11
111.1923599243164
 21
30
  0
LINE
  8
0
  6
CONTINUOUS
 62
     7
 10
110.7423629760742
 20
5.0999755859375
 11
140.2423706054688
 21
5.0999755859375
  0
LINE
  8
0
  6
CONTINUOUS
 62
     7
 10
169.2923583984375
 20
30
 11
169.7423706054688
 21
29.54998207092285
  0
LINE
  8
0
  6
CONTINUOUS
 62
     7
 10
111.1923599243164
 20
29.99999809265137
 11
110.7423553466797
 21
29.54999542236328
  0
LINE
  8
0
  6
CONTINUOUS
 62
     7
 10
98.84241485595703
 20
23.50005149841309
 11
97.24240875244141
 21
27.00004005432129
  0
LINE
  8
0
  6
CONTINUOUS
 62
     7
 10
100.7423706054688
 20
29.49997901916504
 11
100.7423706054688
 21
4.599955081939697
  0
LINE
  8
0
  6
CONTINUOUS
 62
     7
 10
100.7423706054688
 20
21.19002342224121
 11
100.6423721313477
 21
21.19002342224121
  0
LINE
  8
0
  6
CENTER
 62
     7
 10
0
 20
31.76655006408691
 11
0
 21
-0.7232564091682434
  0
LINE
  8
0
  6
DASHED
 62
     7
 10
-3
 20
7.999979496002197
 11
-3
 21
3.0517578125E-005
  0
LINE
  8
0
  6
DASHED
 62
     7
 10
-4.750040531158447
 20
16.49999046325684
 11
-4.750040531158447
 21
7.999979496002197
  0
LINE
  8
0
  6
CONTINUOUS
 62
     7
 10
-10.00002002716065
 20
3.899662256240845
 11
-10.00002002716065
 21
0.9999813437461853
  0
LINE
  8
0
  6
CONTINUOUS
 62
     7
 10
0
 20
16.49999046325684
 11
-8.1558837890625
 21
16.49999046325684
  0
LINE
  8
0
  6
CONTINUOUS
 62
     7
 10
-2.646482467651367
 20
0.3535571098327637
 11
-3.000036001205444
 21
3.708922577061458E-006
  0
LINE
  8
0
  6
DASHED
 62
     7
 10
4.749959468841553
 20
7.999979496002197
 11
-4.750040531158447
 21
7.999979496002197
  0
LINE
  8
0
  6
CONTINUOUS
 62
     7
 10
0
 20
0.4999796450138092
 11
-2.29290771484375
 21
0.4999796450138092
  0
LINE
  8
0
  6
CONTINUOUS
 62
     7
 10
-8.144783973693848
 20
5.855260848999023
 11
-9.926831245422363
 21
4.073213577270508
  0
LINE
  8
0
  6
CONTINUOUS
 62
     7
 10
-10.00002002716065
 20
0.999981164932251
 11
-9.000039100646973
 21
0
  0
LINE
  8
0
  6
CONTINUOUS
 62
     7
 10
-8
 20
10.29286670684815
 11
-8
 21
6.207102298736572
  0
LINE
  8
0
  6
CONTINUOUS
 62
     7
 10
-8.146483421325684
 20
10.64642429351807
 11
-8.286208152770996
 21
10.7861499786377
  0
LINE
  8
0
  6
CONTINUOUS
 62
     7
 10
-10.00002002716065
 20
14.61674022674561
 11
-10.00002002716065
 21
13.09025096893311
  0
LINE
  8
0
  6
CONTINUOUS
 62
     7
 10
10
 20
14.61674976348877
 11
10
 21
13.09026050567627
  0
LINE
  8
0
  6
CONTINUOUS
 62
     7
 10
10
 20
0.9999977350234985
 11
9.000001907348633
 21
0
  0
LINE
  8
0
  6
CONTINUOUS
 62
     7
 10
8.14349365234375
 20
5.856484889984131
 11
9.92674732208252
 21
4.07323169708252
  0
LINE
  8
0
  6
CONTINUOUS
 62
     7
 10
0
 20
0.4999796450138092
 11
2.297399044036865
 21
0.4999796450138092
  0
LINE
  8
0
  6
CONTINUOUS
 62
     7
 10
2.64377236366272
 20
0.3562019765377045
 11
2.999974250793457
 21
0
  0
LINE
  8
0
  6
CONTINUOUS
 62
     7
 10
0
 20
16.49999046325684
 11
8.155842781066895
 21
16.49999046325684
  0
LINE
  8
0
  6
CONTINUOUS
 62
     7
 10
10
 20
3.896443605422974
 11
10
 21
0.9999977350234985
  0
LINE
  8
0
  6
DASHED
 62
     7
 10
4.749959468841553
 20
16.5
 11
4.749959468841553
 21
7.999979496002197
  0
LINE
  8
0
  6
DASHED
 62
     7
 10
2.999979734420776
 20
7.999979496002197
 11
2.999979734420776
 21
0
  0
LINE
  8
0
  6
CONTINUOUS
 62
     7
 10
21.5
 20
5.59998083114624
 11
20.4999942779541
 21
4.599976062774658
  0
LINE
  8
0
  6
CONTINUOUS
 62
     7
 10
21.5
 20
28.49997329711914
 11
21.5
 21
5.599938869476318
  0
LINE
  8
0
  6
CONTINUOUS
 62
     7
 10
20.49997329711914
 20
29.5
 11
0
 21
29.5
  0
LINE
  8
0
  6
CONTINUOUS
 62
     7
 10
20.49997329711914
 20
29.5
 11
21.5
 21
28.49997329711914
  0
LINE
  8
0
  6
CONTINUOUS
 62
     7
 10
-9.400069236755371
 20
4.5999755859375
 11
-20.50000381469727
 21
4.5999755859375
  0
LINE
  8
0
  6
CONTINUOUS
 62
     7
 10
11.79998779296875
 20
15.431884765625
 11
11.79998779296875
 21
12.41302490234375
  0
LINE
  8
0
  6
CONTINUOUS
 62
     7
 10
8
 20
10.29927062988281
 11
8
 21
6.200698852539063
  0
LINE
  8
0
  6
CONTINUOUS
 62
     7
 10
8.144753456115723
 20
10.64476013183594
 11
8.285094261169434
 21
10.78510093688965
  0
LINE
  8
0
  6
CONTINUOUS
 62
     7
 10
9.820569038391113
 20
9.82536506652832
 11
11.79999732971191
 21
12.4130277633667
  0
LINE
  8
0
  6
CONTINUOUS
 62
     7
 10
0
 20
18.30000877380371
 11
8.99798583984375
 21
18.30000877380371
  0
LINE
  8
0
  6
CONTINUOUS
 62
     7
 10
9.400003433227539
 20
4.5999755859375
 11
20.4999942779541
 21
4.5999755859375
  0
LINE
  8
0
  6
CENTER
 62
     7
 10
15.29996776580811
 20
22.5
 11
12.29998779296875
 21
22.5
  0
LINE
  8
0
  6
CENTER
 62
     7
 10
13.79996776580811
 20
24
 11
13.79996776580811
 21
21
  0
LINE
  8
0
  6
CONTINUOUS
 62
     7
 10
8.997982978820801
 20
18.30000495910645
 11
11.7999792098999
 21
15.43189525604248
  0
LINE
  8
0
  6
CONTINUOUS
 62
     7
 10
9.799996376037598
 20
6.745577812194824
 11
11.94559860229492
 21
4.5999755859375
  0
LINE
  8
0
  6
CONTINUOUS
 62
     7
 10
9.79998779296875
 20
9.7984619140625
 11
9.79998779296875
 21
6.745574951171875
  0
LINE
  8
0
  6
CONTINUOUS
 62
     7
 10
-20.49996757507324
 20
29.5
 11
-21.5
 21
28.49996757507324
  0
LINE
  8
0
  6
CONTINUOUS
 62
     7
 10
-20.49996757507324
 20
29.5
 11
0
 21
29.5
  0
LINE
  8
0
  6
CONTINUOUS
 62
     7
 10
-21.5
 20
28.49996757507324
 11
-21.5
 21
5.599972724914551
  0
LINE
  8
0
  6
CONTINUOUS
 62
     7
 10
-21.5
 20
5.599972724914551
 11
-20.50000381469727
 21
4.599976062774658
  0
LINE
  8
0
  6
CENTER
 62
     7
 10
-6.3695068359375
 20
23.5
 11
13.31046581268311
 21
23.5
  0
LINE
  8
0
  6
CONTINUOUS
 62
     7
 10
1.780497193336487
 20
27
 11
5.8604736328125
 21
27
  0
LINE
  8
0
  6
CONTINUOUS
 62
     7
 10
1.780497193336487
 20
20
 11
5.8604736328125
 21
20
  0
LINE
  8
0
  6
CONTINUOUS
 62
     7
 10
1.130492091178894
 20
23.49993896484375
 11
1.780483841896057
 21
19.99995040893555
  0
LINE
  8
0
  6
CONTINUOUS
 62
     7
 10
1.130467057228088
 20
23.4999942779541
 11
1.780457019805908
 21
26.99997520446777
  0
LINE
  8
0
  6
CONTINUOUS
 62
     7
 10
3.44049859046936
 20
23.49995422363281
 11
4.090512752532959
 21
19.99992752075195
  0
LINE
  8
0
  6
CONTINUOUS
 62
     7
 10
3.440476417541504
 20
23.49997711181641
 11
4.090488433837891
 21
26.99999237060547
  0
LINE
  8
0
  6
CONTINUOUS
 62
     7
 10
5.950496673583984
 20
20.4699764251709
 11
5.860484600067139
 21
19.99997138977051
  0
LINE
  8
0
  6
CONTINUOUS
 62
     7
 10
5.950530529022217
 20
26.51999855041504
 11
5.860522270202637
 21
26.99999237060547
  0
LINE
  8
0
  6
CONTINUOUS
 62
     7
 10
7.766441345214844
 20
20.25429153442383
 11
10.52048778533936
 21
20.99997138977051
  0
LINE
  8
0
  6
CONTINUOUS
 62
     7
 10
7.750483512878418
 20
26.75
 11
10.52049541473389
 21
25.99999809265137
  0
LINE
  8
0
  6
CONTINUOUS
 62
     7
 10
0.0009909938089549542
 20
18.88089752197266
 11
1.948220729827881
 21
20.00000953674316
  0
LINE
  8
0
  6
CONTINUOUS
 62
     7
 10
0.001006777863949537
 20
18.88091087341309
 11
-4.000009059906006
 21
21.19089889526367
  0
LINE
  8
0
  6
CONTINUOUS
 62
     7
 10
-3.999986171722412
 20
21.19089698791504
 11
-4.000502586364746
 21
25.80999755859375
  0
LINE
  8
0
  6
CONTINUOUS
 62
     7
 10
-4.000508785247803
 20
25.80999755859375
 11
1.61674488481367E-005
 21
28.11910438537598
  0
LINE
  8
0
  6
CONTINUOUS
 62
     7
 10
-1.041053656081203E-005
 20
28.11910057067871
 11
1.938309669494629
 21
27.0000114440918
  0
LINE
  8
0
  6
CONTINUOUS
 62
     7
 10
2.999974250793457
 20
0
 11
9.000001907348633
 21
0
  0
LINE
  8
0
  6
CONTINUOUS
 62
     7
 10
-3
 20
0
 11
-5.400044918060303
 21
0
  0
LINE
  8
0
  6
CONTINUOUS
 62
     7
 10
-6.599996089935303
 20
0
 11
-9.000039100646973
 21
0
  0
LINE
  8
0
  6
CENTER
 62
     7
 10
106.4423599243164
 20
27.20000076293945
 11
106.4423599243164
 21
22.20000076293945
  0
LINE
  8
0
  6
CENTER
 62
     7
 10
103.9423599243164
 20
24.70000076293945
 11
108.9423599243164
 21
24.70000076293945
  0
LINE
  8
0
  6
CONTINUOUS
 62
     7
 10
100.7423706054688
 20
10.50002002716065
 11
60.24237060546875
 21
10.50002002716065
  0
LINE
  8
0
  6
CONTINUOUS
 62
     7
 10
100.7423706054688
 20
6.000020503997803
 11
60.24237060546875
 21
6.000020503997803
  0
LINE
  8
0
  6
CONTINUOUS
 62
     7
 10
100.7423706054688
 20
14.79339599609375
 11
60.24237060546875
 21
14.79339599609375
  0
LINE
  8
0
  6
CONTINUOUS
 62
     7
 10
100.7423706054688
 20
12.91361522674561
 11
60.24237060546875
 21
12.91361522674561
  0
LINE
  8
0
  6
DASHED
 62
     7
 10
179.7423706054688
 20
16.5
 11
100.7423706054688
 21
16.5
  0
LINE
  8
0
  6
CONTINUOUS
 62
     7
 10
60.24237060546875
 20
16.5
 11
60.24237060546875
 21
0
  0
LINE
  8
0
  6
CENTER
 62
     7
 10
140.2423706054688
 20
5.0999755859375
 11
140.2423706054688
 21
-1.688822388648987
  0
LINE
  8
0
  6
CENTER
 62
     7
 10
200.2423706054688
 20
18.38594627380371
 11
200.2423706054688
 21
-1.688822388648987
  0
LINE
  8
0
  6
CONTINUOUS
 62
     7
 10
220.2423706054688
 20
16.5
 11
220.2423706054688
 21
0
  0
LINE
  8
0
  6
CENTER
 62
     7
 10
-15.29998779296875
 20
22.5
 11
-12.29998779296875
 21
22.5
  0
LINE
  8
0
  6
CENTER
 62
     7
 10
-13.79998779296875
 20
24
 11
-13.79998779296875
 21
21
  0
LINE
  8
0
  6
CONTINUOUS
 62
     7
 10
-11.79998779296875
 20
15.431884765625
 11
-11.79998779296875
 21
12.41302490234375
  0
LINE
  8
0
  6
CONTINUOUS
 62
     7
 10
-9.820594787597656
 20
9.82536506652832
 11
-11.80002403259277
 21
12.41302967071533
  0
LINE
  8
0
  6
CONTINUOUS
 62
     7
 10
0
 20
18.30000877380371
 11
-8.99798583984375
 21
18.30000877380371
  0
LINE
  8
0
  6
CONTINUOUS
 62
     7
 10
-8.997995376586914
 20
18.29999732971191
 11
-11.79999256134033
 21
15.43188667297363
  0
LINE
  8
0
  6
CONTINUOUS
 62
     7
 10
-9.80001163482666
 20
6.745571136474609
 11
-11.94561576843262
 21
4.599966526031494
  0
LINE
  8
0
  6
CONTINUOUS
 62
     7
 10
-9.79998779296875
 20
9.7984619140625
 11
-9.79998779296875
 21
6.745574951171875
  0
LINE
  8
0
  6
CONTINUOUS
 62
     7
 10
60.24237060546875
 20
101.6464309692383
 11
60.24237060546875
 21
81.64643096923828
  0
LINE
  8
0
  6
CONTINUOUS
 62
     7
 10
220.2423706054688
 20
101.6464309692383
 11
220.2423706054688
 21
81.64643096923828
  0
LINE
  8
0
  6
CONTINUOUS
 62
     7
 10
60.24237060546875
 20
81.64643096923828
 11
91.78022003173828
 21
81.64643096923828
  0
LINE
  8
0
  6
CONTINUOUS
 62
     7
 10
60.24237060546875
 20
101.6464309692383
 11
100.7423706054688
 21
101.6464309692383
  0
LINE
  8
0
  6
CONTINUOUS
 62
     7
 10
179.7423706054688
 20
81.64643096923828
 11
220.2423706054688
 21
81.64643096923828
  0
LINE
  8
0
  6
CONTINUOUS
 62
     7
 10
179.7423706054688
 20
101.6464309692383
 11
220.2423706054688
 21
101.6464309692383
  0
LINE
  8
0
  6
CENTER
 62
     7
 10
176.5423736572266
 20
24.70000076293945
 11
171.5423736572266
 21
24.70000076293945
  0
LINE
  8
0
  6
CENTER
 62
     7
 10
174.0423736572266
 20
27.20000076293945
 11
174.0423736572266
 21
22.20000076293945
  0
LINE
  8
0
  6
CONTINUOUS
 62
     7
 10
100.7423706054688
 20
113.1464157104492
 11
100.7423706054688
 21
70.14643096923828
  0
LINE
  8
0
  6
CONTINUOUS
 62
     7
 10
110.7423706054688
 20
113.6464233398438
 11
110.7423706054688
 21
69.64643096923828
  0
LINE
  8
0
  6
CONTINUOUS
 62
     7
 10
169.7423706054688
 20
113.6464233398438
 11
169.7423706054688
 21
69.64643096923828
  0
LINE
  8
0
  6
CONTINUOUS
 62
     7
 10
100.7423706054688
 20
70.14643096923828
 11
110.7423706054688
 21
70.14643096923828
  0
LINE
  8
0
  6
CONTINUOUS
 62
     7
 10
100.7423706054688
 20
113.1464157104492
 11
110.7423706054688
 21
113.1464157104492
  0
LINE
  8
0
  6
CONTINUOUS
 62
     7
 10
179.7423706054688
 20
113.1464157104492
 11
169.7423706054688
 21
113.1464157104492
  0
LINE
  8
0
  6
CONTINUOUS
 62
     7
 10
179.7423706054688
 20
70.14643096923828
 11
169.7423706054688
 21
70.14643096923828
  0
LINE
  8
0
  6
CONTINUOUS
 62
     7
 10
179.7423706054688
 20
113.1464157104492
 11
179.7423706054688
 21
70.14643096923828
  0
LINE
  8
0
  6
CENTER
 62
     7
 10
58.26881408691406
 20
91.64643096923828
 11
222.1776428222656
 21
91.64643096923828
  0
LINE
  8
0
  6
CONTINUOUS
 62
     7
 10
60.24237060546875
 20
99.80229949951172
 11
100.7423706054688
 21
99.80229949951172
  0
LINE
  8
0
  6
CONTINUOUS
 62
     7
 10
60.24237060546875
 20
83.49057006835938
 11
90.72222137451172
 21
83.49057006835938
  0
LINE
  8
0
  6
CONTINUOUS
 62
     7
 10
179.7423706054688
 20
99.80229949951172
 11
220.2423706054688
 21
99.80229949951172
  0
LINE
  8
0
  6
CONTINUOUS
 62
     7
 10
179.7423706054688
 20
83.49057006835938
 11
220.2423706054688
 21
83.49057006835938
  0
LINE
  8
0
  6
CENTER
 62
     7
 10
80.24237060546875
 20
98.93641662597656
 11
80.24237060546875
 21
84.35645294189453
  0
LINE
  8
0
  6
CENTER
 62
     7
 10
140.2423706054688
 20
98.93641662597656
 11
140.2423706054688
 21
84.35645294189453
  0
LINE
  8
0
  6
CENTER
 62
     7
 10
200.2423706054688
 20
98.93641662597656
 11
200.2423706054688
 21
84.35645294189453
  0
LINE
  8
0
  6
CONTINUOUS
 62
     7
 10
100.1423873901367
 20
87.64641571044922
 11
100.1423873901367
 21
95.64641571044922
  0
LINE
  8
0
  6
CONTINUOUS
 62
     7
 10
96.84247589111328
 20
95.64643096923828
 11
100.1423873901367
 21
95.64643096923828
  0
LINE
  8
0
  6
CONTINUOUS
 62
     7
 10
98.46250152587891
 20
87.64643096923828
 11
100.1423873901367
 21
87.64643096923828
  0
LINE
  8
0
  6
CONTINUOUS
 62
     7
 10
92.84247589111328
 20
91.64643096923828
 11
92.84247589111328
 21
89.97431182861328
  0
LINE
  8
0
  6
CONTINUOUS
 62
     7
 10
100.1423721313477
 20
95.64643096923828
 11
100.7423706054688
 21
95.64643096923828
  0
LINE
  8
0
  6
CONTINUOUS
 62
     7
 10
100.1423721313477
 20
87.64643096923828
 11
100.7423706054688
 21
87.64643096923828
  0
LINE
  8
0
  6
CENTER
 62
     7
 10
92.39423370361328
 20
80.12431335449219
 11
97.25953674316406
 21
91.87020111083984
  0
LINE
  8
0
  6
CONTINUOUS
 62
     7
 10
90.62516021728516
 20
82.1248779296875
 11
95.05978393554688
 21
80.28799438476563
  0
LINE
  8
0
  6
CONTINUOUS
 62
     7
 10
90.82691955566406
 20
84.96377563476563
 11
96.92451477050781
 21
82.43806457519531
  0
LINE
  8
0
  6
CONTINUOUS
 62
     7
 10
90.62516021728516
 20
82.12488555908203
 11
90.82691955566406
 21
84.96377563476563
  0
LINE
  8
0
  6
CONTINUOUS
 62
     7
 10
95.05978393554688
 20
80.28799438476563
 11
96.92453002929688
 21
82.43806457519531
  0
LINE
  8
0
  6
CONTINUOUS
 62
     7
 10
91.56563568115234
 20
88.68461608886719
 11
91.98030853271484
 21
89.68569183349609
  0
LINE
  8
0
  6
CONTINUOUS
 62
     7
 10
99.03322601318359
 20
85.59144592285156
 11
99.44788360595703
 21
86.59250640869141
  0
LINE
  8
0
  6
CONTINUOUS
 62
     7
 10
92.75972747802734
 20
90.00852203369141
 11
91.98029327392578
 21
89.6856689453125
  0
LINE
  8
0
  6
CONTINUOUS
 62
     7
 10
93.43253326416016
 20
87.91133117675781
 11
93.84719085693359
 21
88.91240692138672
  0
LINE
  8
0
  6
CONTINUOUS
 62
     7
 10
97.16630554199219
 20
86.36474609375
 11
97.58096313476563
 21
87.36582183837891
  0
LINE
  8
0
  6
CONTINUOUS
 62
     7
 10
92.75975036621094
 20
90.00859069824219
 11
99.12505340576172
 21
87.37200164794922
  0
LINE
  8
0
  6
CONTINUOUS
 62
     7
 10
99.44789123535156
 20
86.59249114990234
 11
99.12502288818359
 21
87.3719482421875
  0
LINE
  8
0
  6
CONTINUOUS
 62
     7
 10
91.95719146728516
 20
86.38591766357422
 11
97.13090515136719
 21
84.24288177490234
  0
LINE
  8
0
  6
CONTINUOUS
 62
     7
 10
97.16901397705078
 20
83.49057006835938
 11
100.7423706054688
 21
83.49057006835938
  0
LINE
  8
0
  6
CONTINUOUS
 62
     7
 10
96.23795318603516
 20
81.64643096923828
 11
100.7423706054688
 21
81.64643096923828
  0
LINE
  8
0
  6
CONTINUOUS
 62
     7
 10
-21.70000267028809
 20
16.44998359680176
 11
-21.70000267028809
 21
12.6070556640625
  0
LINE
  8
0
  6
CONTINUOUS
 62
     7
 10
-8.999979019165039
 20
29.99999809265137
 11
-8.846421241760254
 21
29.8464412689209
  0
LINE
  8
0
  6
CONTINUOUS
 62
     7
 10
-21.99999046325684
 20
6.099970817565918
 11
-21.5
 21
5.59998083114624
  0
LINE
  8
0
  6
CONTINUOUS
 62
     7
 10
22.00000190734863
 20
6.099940299987793
 11
21.5
 21
5.59993839263916
  0
LINE
  8
0
  6
CONTINUOUS
 62
     7
 10
-21.99999046325684
 20
22.0000057220459
 11
-21.8464469909668
 21
21.84646224975586
  0
LINE
  8
0
  6
CONTINUOUS
 62
     7
 10
-21.99999046325684
 20
29
 11
-21.99999046325684
 21
22
  0
LINE
  8
0
  6
CONTINUOUS
 62
     7
 10
-9
 20
30
 11
-20.99999046325684
 21
30
  0
LINE
  8
0
  6
CONTINUOUS
 62
     7
 10
22.00000190734863
 20
22.0000057220459
 11
21.84394645690918
 21
21.84395027160645
  0
LINE
  8
0
  6
CONTINUOUS
 62
     7
 10
21.69999122619629
 20
21.49290466308594
 11
21.69999122619629
 21
12.6070556640625
  0
LINE
  8
0
  6
CONTINUOUS
 62
     7
 10
-21.70000267028809
 20
21.49290466308594
 11
-21.70000267028809
 21
17.64999198913574
  0
LINE
  8
0
  6
CONTINUOUS
 62
     7
 10
9
 20
30
 11
21.0000057220459
 21
30
  0
LINE
  8
0
  6
CONTINUOUS
 62
     7
 10
-21.99999046325684
 20
12.09995746612549
 11
-21.99999046325684
 21
6.099971294403076
  0
LINE
  8
0
  6
CONTINUOUS
 62
     7
 10
-21.99999046325684
 20
12.09995841979981
 11
-21.8464469909668
 21
12.25350093841553
  0
LINE
  8
0
  6
CONTINUOUS
 62
     7
 10
8.492869377136231
 20
29.69999694824219
 11
0
 21
29.69999694824219
  0
LINE
  8
0
  6
CONTINUOUS
 62
     7
 10
8.999995231628418
 20
29.99999618530273
 11
8.846431732177734
 21
29.84643363952637
  0
LINE
  8
0
  6
CONTINUOUS
 62
     7
 10
-20.99999046325684
 20
30
 11
-21.99999046325684
 21
29
  0
LINE
  8
0
  6
CONTINUOUS
 62
     7
 10
-8.492878913879395
 20
29.69999694824219
 11
0
 21
29.69999694824219
  0
LINE
  8
0
  6
CONTINUOUS
 62
     7
 10
21.0000057220459
 20
30
 11
22.00000190734863
 21
29.00000381469727
  0
LINE
  8
0
  6
CONTINUOUS
 62
     7
 10
17
 20
30
 11
17
 21
30
  0
LINE
  8
0
  6
CONTINUOUS
 62
     7
 10
22.00000190734863
 20
12.09996032714844
 11
21.84367942810059
 21
12.25628185272217
  0
LINE
  8
0
  6
DASHED
 62
     7
 10
-13.49998092651367
 20
24.99999237060547
 11
-13.93297958374023
 21
24.2500171661377
  0
LINE
  8
0
  6
DASHED
 62
     7
 10
-18.5
 20
25
 11
-13.5
 21
25
  0
LINE
  8
0
  6
DASHED
 62
     7
 10
-15.99998188018799
 20
22.20660591125488
 11
-18.06699371337891
 21
23.39999580383301
  0
LINE
  8
0
  6
DASHED
 62
     7
 10
-18.06700706481934
 20
24.25004005432129
 11
-18.49999046325684
 21
24.9999885559082
  0
LINE
  8
0
  6
DASHED
 62
     7
 10
-13.93299579620361
 20
23.40000152587891
 11
-15.9999942779541
 21
22.20661926269531
  0
LINE
  8
0
  6
DASHED
 62
     7
 10
-18.06699371337891
 20
23.39999389648438
 11
-13.93299865722656
 21
23.39999389648438
  0
LINE
  8
0
  6
DASHED
 62
     7
 10
-13.5
 20
30
 11
-13.5
 21
25
  0
LINE
  8
0
  6
DASHED
 62
     7
 10
-18.06699371337891
 20
30
 11
-18.06699371337891
 21
23.39999389648438
  0
LINE
  8
0
  6
CENTER
 62
     7
 10
-16
 20
31.5013427734375
 11
-16
 21
21.1561164855957
  0
LINE
  8
0
  6
DASHED
 62
     7
 10
-18.5
 20
30
 11
-18.5
 21
25
  0
LINE
  8
0
  6
DASHED
 62
     7
 10
-13.93299865722656
 20
30
 11
-13.93299865722656
 21
23.39999389648438
  0
LINE
  8
0
  6
CENTER
 62
     7
 10
16
 20
31.5013427734375
 11
16
 21
21.1561164855957
  0
LINE
  8
0
  6
CENTER
 62
     7
 10
158.2423706054688
 20
31.5013427734375
 11
158.2423706054688
 21
21.1561164855957
  0
LINE
  8
0
  6
DASHED
 62
     7
 10
124.7423934936523
 20
24.9999942779541
 11
124.3093948364258
 21
24.25001907348633
  0
LINE
  8
0
  6
DASHED
 62
     7
 10
119.7423706054688
 20
25
 11
124.7423706054688
 21
25
  0
LINE
  8
0
  6
DASHED
 62
     7
 10
122.2423934936523
 20
22.20660972595215
 11
120.1753768920898
 21
23.39999961853027
  0
LINE
  8
0
  6
DASHED
 62
     7
 10
120.1753616333008
 20
24.25003814697266
 11
119.7423782348633
 21
24.9999885559082
  0
LINE
  8
0
  6
DASHED
 62
     7
 10
124.3093795776367
 20
23.40000152587891
 11
122.2423782348633
 21
22.20661926269531
  0
LINE
  8
0
  6
DASHED
 62
     7
 10
120.1753768920898
 20
23.39999389648438
 11
124.3093719482422
 21
23.39999389648438
  0
LINE
  8
0
  6
DASHED
 62
     7
 10
124.7423706054688
 20
30
 11
124.7423706054688
 21
25
  0
LINE
  8
0
  6
DASHED
 62
     7
 10
120.1753768920898
 20
30
 11
120.1753768920898
 21
23.39999389648438
  0
LINE
  8
0
  6
CENTER
 62
     7
 10
122.2423706054688
 20
31.5013427734375
 11
122.2423706054688
 21
21.1561164855957
  0
LINE
  8
0
  6
DASHED
 62
     7
 10
119.7423706054688
 20
30
 11
119.7423706054688
 21
25
  0
LINE
  8
0
  6
DASHED
 62
     7
 10
124.3093719482422
 20
30
 11
124.3093719482422
 21
23.39999389648438
  0
LINE
  8
0
  6
CONTINUOUS
 62
     7
 10
110.7423706054688
 20
11.94998168945313
 11
169.7423706054688
 21
11.94998168945313
  0
LINE
  8
0
  6
CONTINUOUS
 62
     7
 10
110.7423706054688
 20
22.14997482299805
 11
169.7423706054688
 21
22.14997482299805
  0
LINE
  8
0
  6
CONTINUOUS
 62
     7
 10
110.7423706054688
 20
113.6464233398438
 11
169.7423706054688
 21
113.6464233398438
  0
LINE
  8
0
  6
CONTINUOUS
 62
     7
 10
110.7423706054688
 20
100.6464309692383
 11
169.7423706054688
 21
100.6464309692383
  0
LINE
  8
0
  6
CONTINUOUS
 62
     7
 10
110.7423706054688
 20
82.64643096923828
 11
169.7423706054688
 21
82.64643096923828
  0
LINE
  8
0
  6
CENTER
 62
     7
 10
122.2423706054688
 20
80.68643188476563
 11
122.2423706054688
 21
70.60643005371094
  0
LINE
  8
0
  6
CENTER
 62
     7
 10
117.2023696899414
 20
75.64643096923828
 11
127.2823715209961
 21
75.64643096923828
  0
LINE
  8
0
  6
CENTER
 62
     7
 10
158.2423706054688
 20
80.68643188476563
 11
158.2423706054688
 21
70.60643005371094
  0
LINE
  8
0
  6
CENTER
 62
     7
 10
153.2023773193359
 20
75.64643096923828
 11
163.2823638916016
 21
75.64643096923828
  0
LINE
  8
0
  6
CENTER
 62
     7
 10
158.2423706054688
 20
112.6864318847656
 11
158.2423706054688
 21
102.6064300537109
  0
LINE
  8
0
  6
CENTER
 62
     7
 10
153.2023773193359
 20
107.6464309692383
 11
163.2823638916016
 21
107.6464309692383
  0
LINE
  8
0
  6
CENTER
 62
     7
 10
122.2423706054688
 20
112.6864318847656
 11
122.2423706054688
 21
102.6064300537109
  0
LINE
  8
0
  6
CENTER
 62
     7
 10
117.2023696899414
 20
107.6464309692383
 11
127.2823715209961
 21
107.6464309692383
  0
LINE
  8
0
  6
CONTINUOUS
 62
     7
 10
22.00000190734863
 20
29.00000381469727
 11
22.00000190734863
 21
22.00000381469727
  0
LINE
  8
0
  6
CONTINUOUS
 62
     7
 10
22.00000190734863
 20
12.09996032714844
 11
22.00000190734863
 21
6.099940776824951
  0
LINE
  8
0
  6
CONTINUOUS
 62
     7
 10
100.7423706054688
 20
16.5
 11
60.24237060546875
 21
16.5
  0
LINE
  8
0
  6
CONTINUOUS
 62
     7
 10
110.7423706054688
 20
69.64643096923828
 11
169.7423706054688
 21
69.64643096923828
  0
CIRCLE
  8
0
  6
CONTINUOUS
 62
     7
 10
106.4423599243164
 20
24.70000076293945
 40
1.5
  0
ARC
  8
0
  6
CONTINUOUS
 62
     7
 10
97.1424560546875
 20
23.50008201599121
 40
3.982465744018556
 50
241.5040862782025
 51
269.9999087030625
  0
ARC
  8
0
  6
CONTINUOUS
 62
     7
 10
102.0423202514648
 20
27.09007835388184
 40
1.900939941406243
 50
181.8086700643981
 51
222.4362198515213
  0
ARC
  8
0
  6
CONTINUOUS
 62
     7
 10
103.4424362182617
 20
22.97008323669434
 40
3.318496704101556
 50
186.054315652478
 51
212.4448005675733
  0
ARC
  8
0
  6
CONTINUOUS
 62
     7
 10
103.4424362182617
 20
24.03008079528809
 40
3.317879676818853
 50
147.5550901494001
 51
173.9458482720621
  0
ARC
  8
0
  6
CONTINUOUS
 62
     7
 10
102.0424423217773
 20
19.91008567810059
 40
1.896939277648931
 50
137.5635615824253
 51
178.1912206525752
  0
ARC
  8
0
  6
CONTINUOUS
 62
     7
 10
97.1424560546875
 20
23.50008201599121
 40
3.999999999999998
 50
89.99998201391055
 51
118.4958044387706
  0
CIRCLE
  8
0
  6
CONTINUOUS
 62
     7
 10
106.4423599243164
 20
24.70000076293945
 40
0.5
  0
ARC
  8
0
  6
CONTINUOUS
 62
     7
 10
-10.1371660232544
 20
11.1163330078125
 40
1.802499890327453
 50
354.4510258253478
 51
80.30704199669209
  0
ARC
  8
0
  6
CONTINUOUS
 62
     7
 10
-8.1558837890625
 20
16.29998779296875
 40
0.1999999880790712
 50
90.00000250447833
 51
171.653896333794
  0
ARC
  8
0
  6
CONTINUOUS
 62
     7
 10
-10.1371660232544
 20
16.59065818786621
 40
1.802499890327454
 50
279.6926301542277
 51
351.6538947399325
  0
ARC
  8
0
  6
CONTINUOUS
 62
     7
 10
-8.500041007995606
 20
6.207102298736572
 40
0.5000000000000003
 50
314.7232668033487
 51
0
  0
ARC
  8
0
  6
CONTINUOUS
 62
     7
 10
2.292887449264526
 20
0
 40
0.5
 50
44.56915974958385
 51
90.51700001332391
  0
ARC
  8
0
  6
CONTINUOUS
 62
     7
 10
-2.29290771484375
 20
0
 40
0.4999999999999999
 50
90.00000250447816
 51
135.0000003416227
  0
ARC
  8
0
  6
CONTINUOUS
 62
     7
 10
-8.500041007995606
 20
10.29286670684815
 40
0.5
 50
0
 51
45.00000125223906
  0
ARC
  8
0
  6
CONTINUOUS
 62
     7
 10
-9.800007820129395
 20
14.61674022674561
 40
0.1999999880790713
 50
99.69262833299504
 51
180.0000050089561
  0
ARC
  8
0
  6
CONTINUOUS
 62
     7
 10
-8.143717765808106
 20
10.92649364471436
 40
0.1999999880790715
 50
173.5775508116365
 51
225.4348878207446
  0
ARC
  8
0
  6
CONTINUOUS
 62
     7
 10
-9.800007820129395
 20
13.09025096893311
 40
0.1999999880790715
 50
179.9999913485778
 51
260.30703334527
  0
ARC
  8
0
  6
CONTINUOUS
 62
     7
 10
10.13712596893311
 20
11.1163330078125
 40
1.802499890327453
 50
99.69234146504972
 51
185.4396632866029
  0
ARC
  8
0
  6
CONTINUOUS
 62
     7
 10
8.155842781066895
 20
16.29998779296875
 40
0.199999988079071
 50
7.84969564892763
 51
90.00000250447833
  0
ARC
  8
0
  6
CONTINUOUS
 62
     7
 10
9.79998779296875
 20
14.61674976348877
 40
0.199999988079071
 50
0
 51
79.84383905774932
  0
ARC
  8
0
  6
CONTINUOUS
 62
     7
 10
9.79998779296875
 20
13.09026050567627
 40
0.1999999880790716
 50
279.6923432862824
 51
0
  0
ARC
  8
0
  6
CONTINUOUS
 62
     7
 10
8.143635749816895
 20
10.926513671875
 40
0.1999999880790701
 50
314.9999987477609
 51
5.439281763468503
  0
ARC
  8
0
  6
CONTINUOUS
 62
     7
 10
8.499958992004395
 20
6.207102298736572
 40
0.4999999999999998
 50
180.7338168550915
 51
224.5261894356536
  0
ARC
  8
0
  6
CONTINUOUS
 62
     7
 10
10.13712596893311
 20
16.59065818786621
 40
1.802499890327453
 50
188.2911206433872
 51
260.3590147273196
  0
ARC
  8
0
  6
CONTINUOUS
 62
     7
 10
9.749958992004395
 20
3.896443605422974
 40
0.25
 50
0
 51
45.0000012522392
  0
ARC
  8
0
  6
CONTINUOUS
 62
     7
 10
-9.750041007995606
 20
3.89642333984375
 40
0.2500000000000001
 50
135.0000003416226
 51
180.7423099679533
  0
ARC
  8
0
  6
CONTINUOUS
 62
     7
 10
8.499958992004395
 20
10.29286670684815
 40
0.4999999999999995
 50
135.2683038325992
 51
179.2661831449084
  0
ARC
  8
0
  6
CONTINUOUS
 62
     7
 10
7.610494136810303
 20
21.20999145507813
 40
0.9683421254158027
 50
215.3314570768741
 51
278.2972225067941
  0
ARC
  8
0
  6
CONTINUOUS
 62
     7
 10
6.620503902435303
 20
19.41999244689941
 40
1.246148109436035
 50
80.76452806729958
 51
142.1250351177266
  0
ARC
  8
0
  6
CONTINUOUS
 62
     7
 10
6.620503902435303
 20
27.58000755310059
 40
1.254199028015136
 50
217.8749648822735
 51
279.2353626496737
  0
ARC
  8
0
  6
CONTINUOUS
 62
     7
 10
7.610494136810303
 20
25.78998756408691
 40
0.9701611399650563
 50
81.7028867762326
 51
144.668542923126
  0
ARC
  8
0
  6
CONTINUOUS
 62
     7
 10
0.00048828125
 20
23.5
 40
4
 50
240.0000239814524
 51
241.0449882829511
  0
ARC
  8
0
  6
CONTINUOUS
 62
     7
 10
0.00048828125
 20
23.5
 40
3.998106002807619
 50
61.09402038976974
 51
298.9059076658729
  0
ARC
  8
0
  6
CONTINUOUS
 62
     7
 10
9.987162590026856
 20
23.5
 40
1.133332252502441
 50
0
 51
61.92741275153797
  0
ARC
  8
0
  6
CONTINUOUS
 62
     7
 10
9.987162590026856
 20
23.5
 40
1.13333225250244
 50
298.072587248462
 51
359.9999826971572
  0
ARC
  8
0
  6
CONTINUOUS
 62
     7
 10
-6.000020503997803
 20
-0.800018310546875
 40
0.9999999999999998
 50
53.13185030823244
 51
126.8681547007239
  0
CIRCLE
  8
0
  6
CONTINUOUS
 62
     7
 10
-13.79998779296875
 20
22.5
 40
1.050000071525574
  0
CIRCLE
  8
0
  6
CONTINUOUS
 62
     7
 10
80.24237060546875
 20
91.64643096923828
 40
4.749979496002197
  0
CIRCLE
  8
0
  6
CONTINUOUS
 62
     7
 10
80.24237060546875
 20
91.64643096923828
 40
3
  0
ARC
  8
0
  6
CONTINUOUS
 62
     7
 10
104.3921279907227
 20
93.64643096923828
 40
4.249771118164061
 50
151.9258648030746
 51
208.0741178940814
  0
ARC
  8
0
  6
CONTINUOUS
 62
     7
 10
104.3922500610352
 20
89.64643096923828
 40
4.249885559082032
 50
151.9264658597216
 51
208.0735168374345
  0
ARC
  8
0
  6
CONTINUOUS
 62
     7
 10
93.87572479248047
 20
83.70090484619141
 40
3.299999237060547
 50
131.5803705110074
 51
157.4999548639652
  0
ARC
  8
0
  6
CONTINUOUS
 62
     7
 10
93.87572479248047
 20
83.70090484619141
 40
3.29999923706055
 50
337.5000181569006
 51
3.419602296415172
  0
ARC
  8
0
  6
CONTINUOUS
 62
     7
 10
85.95937347412109
 20
86.54700469970703
 40
5.999999999999996
 50
2.433650829345525
 51
20.87173987704918
  0
ARC
  8
0
  6
CONTINUOUS
 62
     7
 10
101.4859085083008
 20
80.11569976806641
 40
6.000000000000004
 50
114.1278165022774
 51
132.5663219780771
  0
ARC
  8
0
  6
CONTINUOUS
 62
     7
 10
91.15467071533203
 20
86.76779937744141
 40
0.7999999523162822
 50
311.5798327472963
 51
2.433049772698627
  0
ARC
  8
0
  6
CONTINUOUS
 62
     7
 10
97.96840667724609
 20
83.94545745849609
 40
0.7999999523162843
 50
132.566977676238
 51
183.4201402735703
  0
ARC
  8
0
  6
CONTINUOUS
 62
     7
 10
92.70983123779297
 20
88.80675506591797
 40
1.150684356689449
 50
186.0915811645896
 51
308.9083920836479
  0
ARC
  8
0
  6
CONTINUOUS
 62
     7
 10
96.48677825927734
 20
90.00455474853516
 40
3.702677726745608
 50
214.4243533135831
 51
280.5756643308837
  0
ARC
  8
0
  6
CONTINUOUS
 62
     7
 10
98.31053924560547
 20
86.48690032958984
 40
1.150711059570316
 50
186.0925647118298
 51
308.9074085364074
  0
ARC
  8
0
  6
CONTINUOUS
 62
     7
 10
92.70302581787109
 20
88.79032135009766
 40
1.150684356689458
 50
6.091623739586387
 51
128.9082912246719
  0
ARC
  8
0
  6
CONTINUOUS
 62
     7
 10
94.52675628662109
 20
85.27265167236328
 40
3.702677726745602
 50
34.42437881310695
 51
100.5756830002184
  0
ARC
  8
0
  6
CONTINUOUS
 62
     7
 10
98.30370330810547
 20
86.47040557861328
 40
1.150711059570315
 50
6.092607286826737
 51
128.9074169604579
  0
ARC
  8
0
  6
CONTINUOUS
 62
     7
 10
96.84247589111328
 20
91.64643096923828
 40
3.999999999999998
 50
89.99998201391055
 51
180.0000186693347
  0
ARC
  8
0
  6
CONTINUOUS
 62
     7
 10
93.42284393310547
 20
82.60762786865234
 40
1.81666183471679
 50
214.1000559317909
 51
280.9000163541893
  0
ARC
  8
0
  6
CONTINUOUS
 62
     7
 10
-22.5
 20
17.04998779296875
 40
0.999999999999999
 50
323.1298465583275
 51
36.87015344167252
  0
ARC
  8
0
  6
CONTINUOUS
 62
     7
 10
22.19999122619629
 20
12.6070556640625
 40
0.4999999999999986
 50
179.999991348578
 51
225.4487394443817
  0
ARC
  8
0
  6
CONTINUOUS
 62
     7
 10
-8.492878913879395
 20
30.19999694824219
 40
0.4999999999999991
 50
224.9999996583772
 51
269.9999974955217
  0
ARC
  8
0
  6
CONTINUOUS
 62
     7
 10
22.19999122619629
 20
21.49290466308594
 40
0.5000000000000006
 50
134.5949837842194
 51
180.0000050089561
  0
ARC
  8
0
  6
CONTINUOUS
 62
     7
 10
-22.20000267028809
 20
21.49290466308594
 40
0.5
 50
0
 51
45.0000012522392
  0
ARC
  8
0
  6
CONTINUOUS
 62
     7
 10
-22.20000267028809
 20
12.6070556640625
 40
0.4999999999999991
 50
314.9999987477608
 51
0
  0
ARC
  8
0
  6
CONTINUOUS
 62
     7
 10
8.492869377136231
 20
30.19999694824219
 40
0.5000000000000014
 50
270.0000043257109
 51
314.999998747761
  0
CIRCLE
  8
0
  6
CONTINUOUS
 62
     7
 10
122.2423706054688
 20
75.64643096923828
 40
2.5
  0
CIRCLE
  8
0
  6
CONTINUOUS
 62
     7
 10
122.2423706054688
 20
75.64643096923828
 40
2.066993713378906
  0
POLYLINE
  8
0
  6
CONTINUOUS
 62
     7
 66
     1
 10
0
 20
0
 70
     1
  0
VERTEX
  8
0
  6
CONTINUOUS
 62
     7
 10
92.84243011474609
 20
24.50008201599121
 42
0.11026417193874
  0
VERTEX
  8
0
  6
CONTINUOUS
 62
     7
 10
92.47792382654586
 20
24.41824284524937
 42
0.1025181464763356
  0
VERTEX
  8
0
  6
CONTINUOUS
 62
     7
 10
92.17889689648762
 20
24.19276711236641
 42
0.09329919481870057
  0
VERTEX
  8
0
  6
CONTINUOUS
 62
     7
 10
91.98773401335876
 20
23.87008441233764
 42
0.08791607442674718
  0
VERTEX
  8
0
  6
CONTINUOUS
 62
     7
 10
91.92244720458984
 20
23.50007057189941
 42
0.08777100996071863
  0
VERTEX
  8
0
  6
CONTINUOUS
 62
     7
 10
91.9875371795912
 20
23.13062465063268
 42
0.09326107186277981
  0
VERTEX
  8
0
  6
CONTINUOUS
 62
     7
 10
92.17845426746153
 20
22.80790295974974
 42
0.1026324647804799
  0
VERTEX
  8
0
  6
CONTINUOUS
 62
     7
 10
92.47773580662904
 20
22.58201161585482
 42
0.1103308935301701
  0
VERTEX
  8
0
  6
CONTINUOUS
 62
     7
 10
92.84244537353516
 20
22.50008201599121
 42
0.1102650192820636
  0
VERTEX
  8
0
  6
CONTINUOUS
 62
     7
 10
93.20695139887472
 20
22.58192178503853
 42
0.1025179069403271
  0
VERTEX
  8
0
  6
CONTINUOUS
 62
     7
 10
93.50597769184253
 20
22.80739837594766
 42
0.09329837098722708
  0
VERTEX
  8
0
  6
CONTINUOUS
 62
     7
 10
93.6971404044056
 20
23.13008121816077
 42
0.0879144267461323
  0
VERTEX
  8
0
  6
CONTINUOUS
 62
     7
 10
93.76242828369141
 20
23.50009155273438
 42
0.08776985524176108
  0
VERTEX
  8
0
  6
CONTINUOUS
 62
     7
 10
93.6973362174051
 20
23.86953715895204
 42
0.09325960106378557
  0
VERTEX
  8
0
  6
CONTINUOUS
 62
     7
 10
93.50641903595144
 20
24.19225887987587
 42
0.1026319189642829
  0
VERTEX
  8
0
  6
CONTINUOUS
 62
     7
 10
93.20713837672754
 20
24.41815151965819
 42
0.1103320414096099
  0
SEQEND
  8
0
  0
POLYLINE
  8
0
  6
CONTINUOUS
 62
     7
 66
     1
 10
0
 20
0
  0
VERTEX
  8
0
  6
CONTINUOUS
 62
     7
 10
93.94244384765625
 20
26.75008201599121
 42
0.01434916522613454
  0
VERTEX
  8
0
  6
CONTINUOUS
 62
     7
 10
93.78356276526846
 20
26.74552103876837
 42
0.01426051712693211
  0
VERTEX
  8
0
  6
CONTINUOUS
 62
     7
 10
93.62595165596592
 20
26.73194573657839
 42
0.01417564288798287
  0
VERTEX
  8
0
  6
CONTINUOUS
 62
     7
 10
93.46985252113898
 20
26.70950313667861
 42
0.01415084163363084
  0
VERTEX
  8
0
  6
CONTINUOUS
 62
     7
 10
93.31489027952178
 20
26.67817995548914
 42
0.01410156072241843
  0
VERTEX
  8
0
  6
CONTINUOUS
 62
     7
 10
93.16162819947495
 20
26.63807247083544
 42
0.01402956434868982
  0
VERTEX
  8
0
  6
CONTINUOUS
 62
     7
 10
93.01061126632415
 20
26.58932849992873
 42
0.01393699154147845
  0
VERTEX
  8
0
  6
CONTINUOUS
 62
     7
 10
92.86236070271977
 20
26.53214318635331
 42
0.01382627909997061
  0
VERTEX
  8
0
  6
CONTINUOUS
 62
     7
 10
92.717369348826
 20
26.46675401006683
 42
0.01370007684573547
  0
VERTEX
  8
0
  6
CONTINUOUS
 62
     7
 10
92.57609801967148
 20
26.39343523793277
 42
0.01356116105675857
  0
VERTEX
  8
0
  6
CONTINUOUS
 62
     7
 10
92.43897290362223
 20
26.3124920489873
 42
0.01332240669648599
  0
VERTEX
  8
0
  6
CONTINUOUS
 62
     7
 10
92.30726272261065
 20
26.22487367928441
 42
0.01328784039899327
  0
VERTEX
  8
0
  6
CONTINUOUS
 62
     7
 10
92.17924166812441
 20
26.12951051798655
 42
0.01315490948723674
  0
VERTEX
  8
0
  6
CONTINUOUS
 62
     7
 10
92.05618922547519
 20
26.02730510416804
 42
0.01293837558198414
  0
VERTEX
  8
0
  6
CONTINUOUS
 62
     7
 10
91.93914480762065
 20
25.91929066759852
 42
0.01278038768853233
  0
VERTEX
  8
0
  6
CONTINUOUS
 62
     7
 10
91.82780827144097
 20
25.80540155882585
 42
0.01262538015692955
  0
VERTEX
  8
0
  6
CONTINUOUS
 62
     7
 10
91.7223987408091
 20
25.68600434885037
 42
0
  0
SEQEND
  8
0
  0
POLYLINE
  8
0
  6
CONTINUOUS
 62
     7
 66
     1
 10
0
 20
0
 70
     1
  0
VERTEX
  8
0
  6
CONTINUOUS
 62
     7
 10
92.84243011474609
 20
26.00008201599121
 42
0.110377368185741
  0
VERTEX
  8
0
  6
CONTINUOUS
 62
     7
 10
91.9302717513326
 20
25.79506659944311
 42
0.1025064706849921
  0
VERTEX
  8
0
  6
CONTINUOUS
 62
     7
 10
91.18293592483568
 20
25.23105957407517
 42
0.09329061082123218
  0
VERTEX
  8
0
  6
CONTINUOUS
 62
     7
 10
90.70533046298789
 20
24.42416666012944
 42
0.08782102730670424
  0
VERTEX
  8
0
  6
CONTINUOUS
 62
     7
 10
90.54244232177734
 20
23.50007057189941
 42
0.08777179112094925
  0
VERTEX
  8
0
  6
CONTINUOUS
 62
     7
 10
90.70516564556732
 20
22.57645086126435
 42
0.09326095255111157
  0
VERTEX
  8
0
  6
CONTINUOUS
 62
     7
 10
91.18245957727082
 20
21.76964192198524
 42
0.1026322136027495
  0
VERTEX
  8
0
  6
CONTINUOUS
 62
     7
 10
91.93066583180583
 20
21.20490891696417
 42
0.1103315904550718
  0
VERTEX
  8
0
  6
CONTINUOUS
 62
     7
 10
92.84244537353516
 20
21.00008201599121
 42
0.1103764740046754
  0
VERTEX
  8
0
  6
CONTINUOUS
 62
     7
 10
93.75460404567143
 20
21.2050964736921
 42
0.1025047623846763
  0
VERTEX
  8
0
  6
CONTINUOUS
 62
     7
 10
94.50194397343239
 20
21.76909843164339
 42
0.0932901750413478
  0
VERTEX
  8
0
  6
CONTINUOUS
 62
     7
 10
94.97955873588725
 20
22.57598593266059
 42
0.08782324145654315
  0
VERTEX
  8
0
  6
CONTINUOUS
 62
     7
 10
95.1424560546875
 20
23.50009155273438
 42
0.0877727882399415
  0
VERTEX
  8
0
  6
CONTINUOUS
 62
     7
 10
94.97972760022826
 20
24.42371020862218
 42
0.09326014070064376
  0
VERTEX
  8
0
  6
CONTINUOUS
 62
     7
 10
94.50242883516361
 20
25.23051634511558
 42
0.1026302338970725
  0
VERTEX
  8
0
  6
CONTINUOUS
 62
     7
 10
93.75422228476624
 20
25.79524948756041
 42
0.1103324690780994
  0
SEQEND
  8
0
  0
POLYLINE
  8
0
  6
CONTINUOUS
 62
     7
 66
     1
 10
0
 20
0
  0
VERTEX
  8
0
  6
CONTINUOUS
 62
     7
 10
91.71837233352647
 20
21.31896885300516
 42
0.06283213418277273
  0
VERTEX
  8
0
  6
CONTINUOUS
 62
     7
 10
92.28267137086633
 20
20.7927967566968
 42
0.0664969678226106
  0
VERTEX
  8
0
  6
CONTINUOUS
 62
     7
 10
92.96267201810385
 20
20.42829230794629
 42
0.06915530640422932
  0
VERTEX
  8
0
  6
CONTINUOUS
 62
     7
 10
93.71502681802897
 20
20.25943355550011
 42
0.06975292789619543
  0
VERTEX
  8
0
  6
CONTINUOUS
 62
     7
 10
94.48378190019514
 20
20.30343101050502
 42
0.06816351238712066
  0
VERTEX
  8
0
  6
CONTINUOUS
 62
     7
 10
95.21162564537157
 20
20.5552522740888
 42
0.06499588736601938
  0
VERTEX
  8
0
  6
CONTINUOUS
 62
     7
 10
95.84819169683239
 20
20.99008347873165
 42
0.0612908836393021
  0
VERTEX
  8
0
  6
CONTINUOUS
 62
     7
 10
96.3562495814268
 20
21.57018435006337
 42
0.05807958880154589
  0
VERTEX
  8
0
  6
CONTINUOUS
 62
     7
 10
96.71324714068931
 20
22.25417825885091
 42
0.05590536149074784
  0
VERTEX
  8
0
  6
CONTINUOUS
 62
     7
 10
96.90690632494366
 20
23.00132225080072
 42
0.05496376792832818
  0
VERTEX
  8
0
  6
CONTINUOUS
 62
     7
 10
96.93192165600881
 20
23.77204489413109
 42
0.05547385381157227
  0
VERTEX
  8
0
  6
CONTINUOUS
 62
     7
 10
96.78784305990044
 20
24.52993441768111
 42
0.05728039135599265
  0
VERTEX
  8
0
  6
CONTINUOUS
 62
     7
 10
96.47843383463147
 20
25.23637645476918
 42
0.0602682751498026
  0
VERTEX
  8
0
  6
CONTINUOUS
 62
     7
 10
96.01319521288863
 20
25.85168596017125
 42
0.06395242811345353
  0
VERTEX
  8
0
  6
CONTINUOUS
 62
     7
 10
95.41098899019802
 20
26.33406501194251
 42
0.06744494178848619
  0
VERTEX
  8
0
  6
CONTINUOUS
 62
     7
 10
94.70433174162511
 20
26.64352743293147
 42
0.06944155422168662
  0
VERTEX
  8
0
  6
CONTINUOUS
 62
     7
 10
93.94244384765625
 20
26.75008201599121
 42
0
  0
SEQEND
  8
0
  0
POLYLINE
  8
0
  6
CONTINUOUS
 62
     7
 66
     1
 10
0
 20
0
  0
VERTEX
  8
0
  6
CONTINUOUS
 62
     7
 10
7.750467777252197
 20
26.75
 42
0.1886527072677882
  0
VERTEX
  8
0
  6
CONTINUOUS
 62
     7
 10
7.335644649745307
 20
26.56581400368436
 42
0.07588945263168805
  0
VERTEX
  8
0
  6
CONTINUOUS
 62
     7
 10
7.054186176959756
 20
26.19909628509998
 42
0.03946211648214081
  0
VERTEX
  8
0
  6
CONTINUOUS
 62
     7
 10
6.858769948655189
 20
25.7775712443947
 42
0.02589531527188945
  0
VERTEX
  8
0
  6
CONTINUOUS
 62
     7
 10
6.718606945081919
 20
25.33431316750935
 42
0.01963282971969539
  0
VERTEX
  8
0
  6
CONTINUOUS
 62
     7
 10
6.618677586215709
 20
24.87951421257298
 42
0.01635584852726532
  0
VERTEX
  8
0
  6
CONTINUOUS
 62
     7
 10
6.551451477339738
 20
24.41857526042083
 42
0.01463199168775036
  0
VERTEX
  8
0
  6
CONTINUOUS
 62
     7
 10
6.512759195069457
 20
23.95430113589609
 42
0.01388363004363449
  0
VERTEX
  8
0
  6
CONTINUOUS
 62
     7
 10
6.500496027818583
 20
23.48858824654843
 42
0.01386107774073658
  0
VERTEX
  8
0
  6
CONTINUOUS
 62
     7
 10
6.513955183294578
 20
23.02425408162375
 42
0.01467194993383304
  0
VERTEX
  8
0
  6
CONTINUOUS
 62
     7
 10
6.553853603717422
 20
22.56055292628544
 42
0.01650640090013993
  0
VERTEX
  8
0
  6
CONTINUOUS
 62
     7
 10
6.622653517573125
 20
22.09871016328903
 42
0.01985520257076609
  0
VERTEX
  8
0
  6
CONTINUOUS
 62
     7
 10
6.724346976677078
 20
21.64410763601327
 42
0.02639132428571303
  0
VERTEX
  8
0
  6
CONTINUOUS
 62
     7
 10
6.867095650484647
 20
21.20065462699378
 42
0.04065101692520484
  0
VERTEX
  8
0
  6
CONTINUOUS
 62
     7
 10
7.066527915975663
 20
20.77969801653601
 42
0.07989336817254045
  0
VERTEX
  8
0
  6
CONTINUOUS
 62
     7
 10
7.355858633653604
 20
20.41622462821071
 42
0.1977487579295901
  0
VERTEX
  8
0
  6
CONTINUOUS
 62
     7
 10
7.778344274933074
 20
20.25080621843213
 42
0
  0
SEQEND
  8
0
  0
POLYLINE
  8
0
  6
CONTINUOUS
 62
     7
 66
     1
 10
0
 20
0
  0
VERTEX
  8
0
  6
CONTINUOUS
 62
     7
 10
6.820475101470947
 20
26.3499755859375
 42
0.1885764253821388
  0
VERTEX
  8
0
  6
CONTINUOUS
 62
     7
 10
6.460745679532661
 20
26.19028628599936
 42
0.07574503985523734
  0
VERTEX
  8
0
  6
CONTINUOUS
 62
     7
 10
6.216513806561892
 20
25.87244853131971
 42
0.03933580066408005
  0
VERTEX
  8
0
  6
CONTINUOUS
 62
     7
 10
6.046655140849023
 20
25.5071141586922
 42
0.02577098986953776
  0
VERTEX
  8
0
  6
CONTINUOUS
 62
     7
 10
5.92450346912758
 20
25.12296318578575
 42
0.01950490309964268
  0
VERTEX
  8
0
  6
CONTINUOUS
 62
     7
 10
5.837015144124499
 20
24.72875142880138
 42
0.0162142613262306
  0
VERTEX
  8
0
  6
CONTINUOUS
 62
     7
 10
5.7776569168028
 20
24.32916070766732
 42
0.01446614843487375
  0
VERTEX
  8
0
  6
CONTINUOUS
 62
     7
 10
5.742790611210431
 20
23.92663644240703
 42
0.01369082119891783
  0
VERTEX
  8
0
  6
CONTINUOUS
 62
     7
 10
5.730543198927437
 20
23.52249289279977
 42
0.01360467769781701
  0
VERTEX
  8
0
  6
CONTINUOUS
 62
     7
 10
5.740260131026513
 20
23.11964827103713
 42
0.01431512415214102
  0
VERTEX
  8
0
  6
CONTINUOUS
 62
     7
 10
5.772410317769785
 20
22.7173974562804
 42
0.01598173388165724
  0
VERTEX
  8
0
  6
CONTINUOUS
 62
     7
 10
5.828921588726653
 20
22.31658004346014
 42
0.01902664605406413
  0
VERTEX
  8
0
  6
CONTINUOUS
 62
     7
 10
5.912983384657613
 20
21.92142725922264
 42
0.02487968144159326
  0
VERTEX
  8
0
  6
CONTINUOUS
 62
     7
 10
6.030999025166193
 20
21.53503177241057
 42
0.03729608764776568
  0
VERTEX
  8
0
  6
CONTINUOUS
 62
     7
 10
6.195073800622823
 20
21.16584886729073
 42
0.06998290468824789
  0
VERTEX
  8
0
  6
CONTINUOUS
 62
     7
 10
6.430658998319999
 20
20.83851878765876
 42
0.1738211128651101
  0
VERTEX
  8
0
  6
CONTINUOUS
 62
     7
 10
6.780426121034904
 20
20.65192168574201
 42
0
  0
SEQEND
  8
0
  0
POLYLINE
  8
0
  6
CONTINUOUS
 62
     7
 66
     1
 10
0
 20
0
  0
VERTEX
  8
0
  6
CONTINUOUS
 62
     7
 10
10.52048778533936
 20
24.5
 42
0.1895160167544065
  0
VERTEX
  8
0
  6
CONTINUOUS
 62
     7
 10
10.39486201178935
 20
24.44377082187311
 42
0.07564847275948676
  0
VERTEX
  8
0
  6
CONTINUOUS
 62
     7
 10
10.30961503535018
 20
24.33188862912876
 42
0.03917019484780841
  0
VERTEX
  8
0
  6
CONTINUOUS
 62
     7
 10
10.2503539307064
 20
24.20329289851219
 42
0.02560142938570149
  0
VERTEX
  8
0
  6
CONTINUOUS
 62
     7
 10
10.20783013975741
 20
24.06831496099612
 42
0.0193454475215742
  0
VERTEX
  8
0
  6
CONTINUOUS
 62
     7
 10
10.17742728891036
 20
23.93001111250374
 42
0.01620453764733888
  0
VERTEX
  8
0
  6
CONTINUOUS
 62
     7
 10
10.15668791732209
 20
23.78874959421829
 42
0.01441775297772491
  0
VERTEX
  8
0
  6
CONTINUOUS
 62
     7
 10
10.14462295173046
 20
23.64686223662514
 42
0.01372719968956859
  0
VERTEX
  8
0
  6
CONTINUOUS
 62
     7
 10
10.14050545865534
 20
23.50364848661565
 42
0.01358519617251772
  0
VERTEX
  8
0
  6
CONTINUOUS
 62
     7
 10
10.14415445571457
 20
23.36169681579151
 42
0.01433001644518964
  0
VERTEX
  8
0
  6
CONTINUOUS
 62
     7
 10
10.15570943418367
 20
23.21993074717429
 42
0.01605156384724177
  0
VERTEX
  8
0
  6
CONTINUOUS
 62
     7
 10
10.17587520797207
 20
23.07867192491357
 42
0.01934021227018985
  0
VERTEX
  8
0
  6
CONTINUOUS
 62
     7
 10
10.20604497476966
 20
22.93854783296528
 42
0.02552088046752696
  0
VERTEX
  8
0
  6
CONTINUOUS
 62
     7
 10
10.24844935376214
 20
22.80181001989786
 42
0.03866409688299986
  0
VERTEX
  8
0
  6
CONTINUOUS
 62
     7
 10
10.3073243636408
 20
22.67216454647688
 42
0.07466971182322031
  0
VERTEX
  8
0
  6
CONTINUOUS
 62
     7
 10
10.3924916578181
 20
22.55843754279162
 42
0.1921204011314049
  0
VERTEX
  8
0
  6
CONTINUOUS
 62
     7
 10
10.52048778533936
 20
22.5
 42
0
  0
SEQEND
  8
0
  0
POLYLINE
  8
0
  6
CONTINUOUS
 62
     7
 66
     1
 10
0
 20
0
 70
     1
  0
VERTEX
  8
0
  6
CONTINUOUS
 62
     7
 10
10.52048778533936
 20
26
 42
0.2551599653870567
  0
VERTEX
  8
0
  6
CONTINUOUS
 62
     7
 10
9.99068027979405
 20
25.57510879277969
 42
0.06319061818503143
  0
VERTEX
  8
0
  6
CONTINUOUS
 62
     7
 10
9.736587496215741
 20
24.91222077736138
 42
0.03518584906140441
  0
VERTEX
  8
0
  6
CONTINUOUS
 62
     7
 10
9.609858550796105
 20
24.21217044739601
 42
0.0279846124343755
  0
VERTEX
  8
0
  6
CONTINUOUS
 62
     7
 10
9.57049560546875
 20
23.5
 42
0.02789895955852317
  0
VERTEX
  8
0
  6
CONTINUOUS
 62
     7
 10
9.609630502153969
 20
22.78985208774497
 42
0.03515973949227261
  0
VERTEX
  8
0
  6
CONTINUOUS
 62
     7
 10
9.736124402058536
 20
22.08956114306069
 42
0.06315538625747059
  0
VERTEX
  8
0
  6
CONTINUOUS
 62
     7
 10
9.990155402857999
 20
21.42582005198008
 42
0.2552852816141553
  0
VERTEX
  8
0
  6
CONTINUOUS
 62
     7
 10
10.52048778533936
 20
21
 42
0.255156919202238
  0
VERTEX
  8
0
  6
CONTINUOUS
 62
     7
 10
11.05030306510539
 20
21.42488307393822
 42
0.06319264366347048
  0
VERTEX
  8
0
  6
CONTINUOUS
 62
     7
 10
11.30440453785928
 20
22.08776762369399
 42
0.03518752534680229
  0
VERTEX
  8
0
  6
CONTINUOUS
 62
     7
 10
11.43113759351841
 20
22.78781714805118
 42
0.02798677910991954
  0
VERTEX
  8
0
  6
CONTINUOUS
 62
     7
 10
11.47049999237061
 20
23.5
 42
0.02790036895129069
  0
VERTEX
  8
0
  6
CONTINUOUS
 62
     7
 10
11.431365181034
 20
24.21014785740822
 42
0.03516088372838098
  0
VERTEX
  8
0
  6
CONTINUOUS
 62
     7
 10
11.30486781203885
 20
24.91043812673849
 42
0.06315593570478355
  0
VERTEX
  8
0
  6
CONTINUOUS
 62
     7
 10
11.05083111909394
 20
25.57417697123771
 42
0.2552814124294695
  0
SEQEND
  8
0
  0
TEXT
  8
0
  6
CONTINUOUS
 62
     7
 10
-10.54487097263336
 20
-13.19800162315369
 40
3.599999904632568
 41
1.039215751203318
  1
SHS20V
  0
ENDSEC
  0
EOF
