  0
SECTION
  2
HEADER
  0
ENDSEC
  0
SECTION
  2
TABLES
  0
TABLE
  2
LTYPE
 70
    22
  0
LTYPE
  2
CONTINUOUS
 70
    64
  3
Solid line
 72
    65
 73
     0
 40
0.000000
  0
LTYPE
  2
DASHED
 70
    64
  3
__ __ __ __ __ __ __ __ __ __ __ __ __ __ __
 72
    65
 73
     2
 40
3.500000
 49
2.000000
 49
-1.500000
  0
LTYPE
  2
CENTER
 70
    64
  3
____ _ ____ _ ____ _ ____ _ ____ _ ____ _ ____
 72
    65
 73
     4
 40
17.500000
 49
13.000000
 49
-1.500000
 49
1.500000
 49
-1.500000
  0
LTYPE
  2
PHANTOM
 70
    64
  3
_____ _ _ _____ _ _ _____ _ _ _____ _ _ ____  
 72
    65
 73
     6
 40
15.500000
 49
8.000000
 49
-1.500000
 49
1.500000
 49
-1.500000
 49
1.500000
 49
-1.500000
  0
LTYPE
  2
DOT
 70
    64
  3
. . . . . . . . . . . . . . . . . . . . . . . .
 72
    65
 73
     2
 40
0.25
 49
0.0
 49
-0.25
  0
ENDTAB
  0
TABLE
  2
LAYER
 70
     1
  0
LAYER
  2
0
 70
     0
 62
     7
  6
CONTINUOUS
  0
ENDTAB
  0
TABLE
  2
STYLE
 70
     1
  0
STYLE
  2
STANDARD
 70
     0
 40
0.000000
 41
1.000000
 50
0.000000
 71
     0
 42
0.200000
  3
txt
  0
ENDTAB
  0
TABLE
  2
VIEW
 70
     0
  0
ENDTAB
  0
ENDSEC
  0
SECTION
  2
BLOCKS
  0
ENDSEC
  0
SECTION
  2
ENTITIES
  0
LINE
  8
0
  6
CENTER
 62
     7
 10
18.99996948242188
 20
31.15000152587891
 11
18.99996948242188
 21
22.65000152587891
  0
LINE
  8
0
  6
CONTINUOUS
 62
     7
 10
-24.1500244140625
 20
10.44615936279297
 11
-24.1500244140625
 21
8.75
  0
LINE
  8
0
  6
CONTINUOUS
 62
     7
 10
24.0999755859375
 20
10.35955810546875
 11
24.0999755859375
 21
8.252415657043457
  0
LINE
  8
0
  6
CENTER
 62
     7
 10
28.5
 20
37
 11
28.5
 21
21.15671539306641
  0
LINE
  8
0
  6
CONTINUOUS
 62
     7
 10
34.5
 20
26.13580322265625
 11
34.5
 21
25
  0
LINE
  8
0
  6
CONTINUOUS
 62
     7
 10
33.5
 20
24
 11
32.6658935546875
 21
24
  0
LINE
  8
0
  6
CONTINUOUS
 62
     7
 10
34.79285049438477
 20
26.8428840637207
 11
34.95352935791016
 21
27.00356101989746
  0
LINE
  8
0
  6
CONTINUOUS
 62
     7
 10
30.93380355834961
 20
23.00002288818359
 11
24.50186538696289
 21
11.8595781326294
  0
LINE
  8
0
  6
CONTINUOUS
 62
     7
 10
-35
 20
35.00001525878906
 11
-35
 21
27
  0
LINE
  8
0
  6
DASHED
 62
     7
 10
-23
 20
24
 11
-23
 21
6.645851135253906
  0
LINE
  8
0
  6
DASHED
 62
     7
 10
-24.5
 20
36
 11
-24.5
 21
24
  0
LINE
  8
0
  6
CONTINUOUS
 62
     7
 10
-19.29290771484375
 20
35.5
 11
-7.70709228515625
 21
35.5
  0
LINE
  8
0
  6
DASHED
 62
     7
 10
-32.5
 20
36
 11
-32.5
 21
24
  0
LINE
  8
0
  6
DASHED
 62
     7
 10
-31.9000244140625
 20
36
 11
-31.9000244140625
 21
24
  0
LINE
  8
0
  6
CONTINUOUS
 62
     7
 10
-20.00002670288086
 20
35.99998474121094
 11
-19.6464729309082
 21
35.64643096923828
  0
LINE
  8
0
  6
CONTINUOUS
 62
     7
 10
-35.00002288818359
 20
27.00002288818359
 11
-34.79290390014648
 21
26.79290580749512
  0
LINE
  8
0
  6
CONTINUOUS
 62
     7
 10
-7.000012874603272
 20
36.00000762939453
 11
-7.35356616973877
 21
35.64645385742188
  0
LINE
  8
0
  6
CONTINUOUS
 62
     7
 10
-35.00001907348633
 20
35.00001907348633
 11
-34.00003814697266
 21
36
  0
LINE
  8
0
  6
CONTINUOUS
 62
     7
 10
-34.5
 20
26.08576965332031
 11
-34.5
 21
25
  0
LINE
  8
0
  6
CONTINUOUS
 62
     7
 10
-30.93389892578125
 20
22.99999046325684
 11
-24.55195426940918
 21
11.94613933563232
  0
LINE
  8
0
  6
DASHED
 62
     7
 10
-25.10003662109375
 20
36
 11
-25.10003662109375
 21
24
  0
LINE
  8
0
  6
CONTINUOUS
 62
     7
 10
-20.00003051757813
 20
36
 11
-34.00003051757813
 21
36
  0
LINE
  8
0
  6
CENTER
 62
     7
 10
-28.5
 20
37
 11
-28.5
 21
22.81447601318359
  0
LINE
  8
0
  6
CONTINUOUS
 62
     7
 10
23.69995880126953
 20
32.99996948242188
 11
21.69995498657227
 21
34.99996948242188
  0
LINE
  8
0
  6
CONTINUOUS
 62
     7
 10
23.69998168945313
 20
33
 11
23.69998168945313
 21
7.800003051757813
  0
LINE
  8
0
  6
CONTINUOUS
 62
     7
 10
21.69998168945313
 20
35
 11
-21.69998168945313
 21
35
  0
LINE
  8
0
  6
CONTINUOUS
 62
     7
 10
6.999980449676514
 20
35.99998474121094
 11
7.353533744812012
 21
35.64643096923828
  0
LINE
  8
0
  6
CONTINUOUS
 62
     7
 10
7
 20
36
 11
-7
 21
36
  0
LINE
  8
0
  6
CONTINUOUS
 62
     7
 10
19.9999942779541
 20
35.99996185302734
 11
19.64644050598145
 21
35.64640808105469
  0
LINE
  8
0
  6
CONTINUOUS
 62
     7
 10
19.29287719726563
 20
35.5
 11
7.70709228515625
 21
35.5
  0
LINE
  8
0
  6
CONTINUOUS
 62
     7
 10
33.99999237060547
 20
35.99999618530273
 11
34.95353698730469
 21
35.04645538330078
  0
LINE
  8
0
  6
CONTINUOUS
 62
     7
 10
34
 20
36
 11
20.00003051757813
 21
36
  0
LINE
  8
0
  6
CENTER
 62
     7
 10
14.74996948242188
 20
26.90000152587891
 11
23.24996948242188
 21
26.90000152587891
  0
LINE
  8
0
  6
CONTINUOUS
 62
     7
 10
23.69999694824219
 20
7.800003528594971
 11
21.69999504089356
 21
5.800001621246338
  0
LINE
  8
0
  6
CONTINUOUS
 62
     7
 10
15.32544612884522
 20
5.799999713897705
 11
11.79996871948242
 21
9.325477600097656
  0
LINE
  8
0
  6
CONTINUOUS
 62
     7
 10
11.79995727539063
 20
11.78400421142578
 11
11.79995727539063
 21
9.325477600097656
  0
LINE
  8
0
  6
CONTINUOUS
 62
     7
 10
14.35011672973633
 20
18.98054695129395
 11
10.60191440582275
 21
23.00000190734863
  0
LINE
  8
0
  6
CONTINUOUS
 62
     7
 10
10.60186767578125
 20
23
 11
0
 21
23
  0
LINE
  8
0
  6
CONTINUOUS
 62
     7
 10
14.35007858276367
 20
14.5186767578125
 11
11.79995250701904
 21
11.78400135040283
  0
LINE
  8
0
  6
CONTINUOUS
 62
     7
 10
14.35009765625
 20
18.98053741455078
 11
14.35009765625
 21
14.51868438720703
  0
LINE
  8
0
  6
CONTINUOUS
 62
     7
 10
22.49997901916504
 20
6.600028514862061
 11
21.69997406005859
 21
5.800023078918457
  0
LINE
  8
0
  6
CONTINUOUS
 62
     7
 10
21.69998168945313
 20
5.800003051757813
 11
10.79998779296875
 21
5.800003051757813
  0
LINE
  8
0
  6
CONTINUOUS
 62
     7
 10
10.2857666015625
 20
0
 11
3.76416015625
 21
0
  0
LINE
  8
0
  6
CONTINUOUS
 62
     7
 10
11.5001220703125
 20
15.759521484375
 11
11.5001220703125
 21
16.49964904785156
  0
LINE
  8
0
  6
CONTINUOUS
 62
     7
 10
9.3232421875
 20
20.00001525878906
 11
-9.3232421875
 21
20.00001525878906
  0
LINE
  8
0
  6
CONTINUOUS
 62
     7
 10
11.5001220703125
 20
17.73976135253906
 11
11.5001220703125
 21
16.49964904785156
  0
LINE
  8
0
  6
CONTINUOUS
 62
     7
 10
9.540497779846191
 20
13.62055587768555
 11
8.946379661560059
 21
13.02643775939941
  0
LINE
  8
0
  6
CONTINUOUS
 62
     7
 10
11.5
 20
4.892913818359375
 11
11.5
 21
1.214248657226563
  0
LINE
  8
0
  6
CONTINUOUS
 62
     7
 10
11.35353851318359
 20
5.246493816375732
 11
8.946423530578613
 21
7.653608798980713
  0
LINE
  8
0
  6
DASHED
 62
     7
 10
5.5
 20
11.00001525878906
 11
-5.5
 21
11.00001525878906
  0
LINE
  8
0
  6
DASHED
 62
     7
 10
3.5
 20
11.00001525878906
 11
3.5
 21
0.249928891658783
  0
LINE
  8
0
  6
DASHED
 62
     7
 10
5.5
 20
20.00001525878906
 11
5.5
 21
11.00001525878906
  0
LINE
  8
0
  6
CONTINUOUS
 62
     7
 10
10.39287376403809
 20
0.09289614111185074
 11
11.40709590911865
 21
1.107118248939514
  0
LINE
  8
0
  6
CONTINUOUS
 62
     7
 10
8.799957275390625
 20
12.67288208007813
 11
8.799957275390625
 21
8.007179260253906
  0
LINE
  8
0
  6
CONTINUOUS
 62
     7
 10
3.657041072845459
 20
0.09288777410984039
 11
3.396364450454712
 21
0.3535643517971039
  0
LINE
  8
0
  6
CONTINUOUS
 62
     7
 10
3.0428466796875
 20
0.5000152587890625
 11
-3.04290771484375
 21
0.5000152587890625
  0
LINE
  8
0
  6
CONTINUOUS
 62
     7
 10
-10.29997825622559
 20
0
 11
-3.749982357025147
 21
0
  0
LINE
  8
0
  6
CONTINUOUS
 62
     7
 10
-11.5001220703125
 20
17.73976135253906
 11
-11.5001220703125
 21
15.759521484375
  0
LINE
  8
0
  6
CONTINUOUS
 62
     7
 10
-9.540530204772949
 20
13.62053489685059
 11
-8.946455001831055
 21
13.02645969390869
  0
LINE
  8
0
  6
CONTINUOUS
 62
     7
 10
-11.5
 20
4.89288330078125
 11
-11.5
 21
1.214248657226563
  0
LINE
  8
0
  6
CONTINUOUS
 62
     7
 10
-11.35356998443604
 20
5.246472358703613
 11
-8.946455001831055
 21
7.653587341308594
  0
LINE
  8
0
  6
DASHED
 62
     7
 10
-5.5
 20
20.00001525878906
 11
-5.5
 21
11.00001525878906
  0
LINE
  8
0
  6
CONTINUOUS
 62
     7
 10
-8.79998779296875
 20
12.67291259765625
 11
-8.79998779296875
 21
8.007110595703125
  0
LINE
  8
0
  6
CONTINUOUS
 62
     7
 10
-3.749982357025147
 20
0
 11
-3.39641809463501
 21
0.3535643517971039
  0
LINE
  8
0
  6
CENTER
 62
     7
 10
0
 20
37
 11
0
 21
-1
  0
LINE
  8
0
  6
DASHED
 62
     7
 10
-3.5
 20
11.00001525878906
 11
-3.5
 21
0.2499823570251465
  0
LINE
  8
0
  6
CONTINUOUS
 62
     7
 10
205.800048828125
 20
11.16342163085938
 11
215.5
 21
11.16342163085938
  0
LINE
  8
0
  6
CONTINUOUS
 62
     7
 10
199.1999816894531
 20
11.16342163085938
 11
199.1999816894531
 21
7.678802490234375
  0
LINE
  8
0
  6
CONTINUOUS
 62
     7
 10
205.800048828125
 20
11.16342163085938
 11
205.800048828125
 21
7.678802490234375
  0
LINE
  8
0
  6
CONTINUOUS
 62
     7
 10
204.800048828125
 20
6.678802490234375
 11
200.1999816894531
 21
6.678802490234375
  0
LINE
  8
0
  6
CONTINUOUS
 62
     7
 10
196.9999694824219
 20
24
 11
196.9999694824219
 21
18.78448486328125
  0
LINE
  8
0
  6
CONTINUOUS
 62
     7
 10
208
 20
24
 11
208
 21
18.78448486328125
  0
LINE
  8
0
  6
CONTINUOUS
 62
     7
 10
160.800048828125
 20
11.16342163085938
 11
199.1999816894531
 21
11.16342163085938
  0
LINE
  8
0
  6
CONTINUOUS
 62
     7
 10
160.800048828125
 20
11.16342163085938
 11
160.800048828125
 21
7.678802490234375
  0
LINE
  8
0
  6
CONTINUOUS
 62
     7
 10
154.2000122070313
 20
11.16342163085938
 11
154.2000122070313
 21
7.678802490234375
  0
LINE
  8
0
  6
CONTINUOUS
 62
     7
 10
155.2000122070313
 20
6.678802490234375
 11
159.800048828125
 21
6.678802490234375
  0
LINE
  8
0
  6
CONTINUOUS
 62
     7
 10
163
 20
24
 11
163
 21
18.78448486328125
  0
LINE
  8
0
  6
CONTINUOUS
 62
     7
 10
152
 20
24.00003051757813
 11
152
 21
18.78448486328125
  0
LINE
  8
0
  6
CONTINUOUS
 62
     7
 10
144.5
 20
11.16342163085938
 11
154.2000122070313
 21
11.16342163085938
  0
LINE
  8
0
  6
CONTINUOUS
 62
     7
 10
214.6499786376953
 20
36.00003051757813
 11
215.4999847412109
 21
35.1500244140625
  0
LINE
  8
0
  6
CONTINUOUS
 62
     7
 10
145.3500366210938
 20
35.99999237060547
 11
144.5000305175781
 21
35.14998626708984
  0
LINE
  8
0
  6
CONTINUOUS
 62
     7
 10
144.5000305175781
 20
6.499991416931152
 11
144.7000274658203
 21
6.299995422363281
  0
LINE
  8
0
  6
CONTINUOUS
 62
     7
 10
215.5
 20
6.500041007995606
 11
215.3000030517578
 21
6.300045013427734
  0
LINE
  8
0
  6
DASHED
 62
     7
 10
153.5
 20
36.00003051757813
 11
153.5
 21
24.00003051757813
  0
LINE
  8
0
  6
DASHED
 62
     7
 10
154.1000366210938
 20
36.00003051757813
 11
154.1000366210938
 21
24.00003051757813
  0
LINE
  8
0
  6
DASHED
 62
     7
 10
160.9000244140625
 20
36.00003051757813
 11
160.9000244140625
 21
24.00003051757813
  0
LINE
  8
0
  6
CONTINUOUS
 62
     7
 10
215.3000030517578
 20
6.300041675567627
 11
215.5
 21
6.500037670135498
  0
LINE
  8
0
  6
CENTER
 62
     7
 10
157.5
 20
37.00003051757813
 11
157.5
 21
5.678802490234375
  0
LINE
  8
0
  6
DASHED
 62
     7
 10
161.5
 20
36.00003051757813
 11
161.5
 21
24.00003051757813
  0
LINE
  8
0
  6
CONTINUOUS
 62
     7
 10
145.3500366210938
 20
36.00003051757813
 11
214.6500244140625
 21
36.00003051757813
  0
LINE
  8
0
  6
CONTINUOUS
 62
     7
 10
215.5
 20
35.14996337890625
 11
215.5
 21
5.800018310546875
  0
LINE
  8
0
  6
CONTINUOUS
 62
     7
 10
226
 20
35.00003051757813
 11
215.5
 21
35.00003051757813
  0
LINE
  8
0
  6
CONTINUOUS
 62
     7
 10
226
 20
35.00003051757813
 11
226
 21
5.800018310546875
  0
LINE
  8
0
  6
CONTINUOUS
 62
     7
 10
226
 20
5.800018310546875
 11
215.5
 21
5.800018310546875
  0
LINE
  8
0
  6
CONTINUOUS
 62
     7
 10
130.800048828125
 20
24.50003051757813
 11
133.800048828125
 21
24.50003051757813
  0
LINE
  8
0
  6
CONTINUOUS
 62
     7
 10
133.4000244140625
 20
28.49998664855957
 11
131.9000244140625
 21
31.99999237060547
  0
LINE
  8
0
  6
CONTINUOUS
 62
     7
 10
132.5000610351563
 20
28.50007629394531
 11
130.9000701904297
 21
32.00005722045898
  0
LINE
  8
0
  6
CONTINUOUS
 62
     7
 10
131.9000244140625
 20
32.00003051757813
 11
126.7000198364258
 21
32.00003051757813
  0
LINE
  8
0
  6
CONTINUOUS
 62
     7
 10
126.7000350952148
 20
31.99995040893555
 11
126.3000411987305
 21
31.41994476318359
  0
LINE
  8
0
  6
CONTINUOUS
 62
     7
 10
126.7000045776367
 20
24.99996948242188
 11
126.3000030517578
 21
25.57997512817383
  0
LINE
  8
0
  6
CONTINUOUS
 62
     7
 10
132.5001220703125
 20
28.5
 11
130.9001312255859
 21
25.00001907348633
  0
LINE
  8
0
  6
CONTINUOUS
 62
     7
 10
133.4000244140625
 20
28.50002670288086
 11
131.9000244140625
 21
25.00003433227539
  0
LINE
  8
0
  6
CONTINUOUS
 62
     7
 10
131.9000244140625
 20
24.96002197265625
 11
131.9000244140625
 21
25.00003051757813
  0
LINE
  8
0
  6
CONTINUOUS
 62
     7
 10
131.9000244140625
 20
25.00003051757813
 11
126.7000198364258
 21
25.00003051757813
  0
LINE
  8
0
  6
CONTINUOUS
 62
     7
 10
133.800048828125
 20
32.61997604370117
 11
134.0000457763672
 21
32.81997299194336
  0
LINE
  8
0
  6
CONTINUOUS
 62
     7
 10
134.0000152587891
 20
24.17999076843262
 11
133.8000183105469
 21
24.37998771667481
  0
LINE
  8
0
  6
CONTINUOUS
 62
     7
 10
130.800048828125
 20
32.50003051757813
 11
133.800048828125
 21
32.50003051757813
  0
LINE
  8
0
  6
CONTINUOUS
 62
     7
 10
133.800048828125
 20
24.38003540039063
 11
133.800048828125
 21
32.6199951171875
  0
LINE
  8
0
  6
CENTER
 62
     7
 10
122.8378982543945
 20
28.50003051757813
 11
137.0391235351563
 21
28.50003051757813
  0
LINE
  8
0
  6
CENTER
 62
     7
 10
136
 20
30.50003051757813
 11
141
 21
30.50003051757813
  0
LINE
  8
0
  6
CENTER
 62
     7
 10
138.5
 20
33.00003051757813
 11
138.5
 21
28.00003051757813
  0
LINE
  8
0
  6
CONTINUOUS
 62
     7
 10
134
 20
5.800018310546875
 11
144.5
 21
5.800018310546875
  0
LINE
  8
0
  6
CONTINUOUS
 62
     7
 10
134
 20
35.00003051757813
 11
134
 21
5.800018310546875
  0
LINE
  8
0
  6
CONTINUOUS
 62
     7
 10
134
 20
35.00003051757813
 11
144.5
 21
35.00003051757813
  0
LINE
  8
0
  6
CONTINUOUS
 62
     7
 10
215.300048828125
 20
6.300018310546875
 11
144.6999969482422
 21
6.300018310546875
  0
LINE
  8
0
  6
CONTINUOUS
 62
     7
 10
215.2999725341797
 20
6.300063133239746
 11
215.4999694824219
 21
6.500059127807617
  0
LINE
  8
0
  6
CONTINUOUS
 62
     7
 10
144.5
 20
35.14996337890625
 11
144.5
 21
5.800018310546875
  0
LINE
  8
0
  6
CONTINUOUS
 62
     7
 10
226.0000305175781
 20
20
 11
290
 21
20
  0
LINE
  8
0
  6
CONTINUOUS
 62
     7
 10
70
 20
0
 11
290
 21
0
  0
LINE
  8
0
  6
CONTINUOUS
 62
     7
 10
70
 20
20
 11
134
 21
20
  0
LINE
  8
0
  6
CONTINUOUS
 62
     7
 10
144.5
 20
24.00003051757813
 11
215.5
 21
24.00003051757813
  0
LINE
  8
0
  6
CONTINUOUS
 62
     7
 10
-33.5
 20
24
 11
-32.66595458984375
 21
24
  0
LINE
  8
0
  6
DASHED
 62
     7
 10
-32.66595458984375
 20
24
 11
-23
 21
24
  0
LINE
  8
0
  6
CONTINUOUS
 62
     7
 10
-23.69995880126953
 20
32.99996948242188
 11
-21.69995498657227
 21
34.99996948242188
  0
LINE
  8
0
  6
CONTINUOUS
 62
     7
 10
-23.69998168945313
 20
33
 11
-23.69998168945313
 21
7.800003051757813
  0
LINE
  8
0
  6
CONTINUOUS
 62
     7
 10
-23.69999694824219
 20
7.800003528594971
 11
-21.69999504089356
 21
5.800001621246338
  0
LINE
  8
0
  6
CONTINUOUS
 62
     7
 10
-15.32544612884522
 20
5.799999713897705
 11
-11.79996871948242
 21
9.325477600097656
  0
LINE
  8
0
  6
CONTINUOUS
 62
     7
 10
-11.79995727539063
 20
11.78400421142578
 11
-11.79995727539063
 21
9.325477600097656
  0
LINE
  8
0
  6
CONTINUOUS
 62
     7
 10
-14.35011672973633
 20
18.98054695129395
 11
-10.60191440582275
 21
23.00000190734863
  0
LINE
  8
0
  6
CONTINUOUS
 62
     7
 10
-10.60186767578125
 20
23
 11
0
 21
23
  0
LINE
  8
0
  6
CONTINUOUS
 62
     7
 10
-14.35007858276367
 20
14.5186767578125
 11
-11.79995250701904
 21
11.78400135040283
  0
LINE
  8
0
  6
CONTINUOUS
 62
     7
 10
-14.35009765625
 20
18.98053741455078
 11
-14.35009765625
 21
14.51868438720703
  0
LINE
  8
0
  6
CONTINUOUS
 62
     7
 10
-21.69998168945313
 20
5.800003051757813
 11
-10.79998779296875
 21
5.800003051757813
  0
LINE
  8
0
  6
CENTER
 62
     7
 10
-18.99996948242188
 20
31.15000152587891
 11
-18.99996948242188
 21
22.65000152587891
  0
LINE
  8
0
  6
CENTER
 62
     7
 10
-14.74996948242188
 20
26.90000152587891
 11
-23.24996948242188
 21
26.90000152587891
  0
LINE
  8
0
  6
CENTER
 62
     7
 10
-6.3699951171875
 20
28.5
 11
13.30998229980469
 21
28.5
  0
LINE
  8
0
  6
CONTINUOUS
 62
     7
 10
1.779998779296875
 20
32
 11
5.8599853515625
 21
32
  0
LINE
  8
0
  6
CONTINUOUS
 62
     7
 10
1.779998779296875
 20
25
 11
5.8599853515625
 21
25
  0
LINE
  8
0
  6
CONTINUOUS
 62
     7
 10
1.129988789558411
 20
28.49996185302734
 11
1.779982686042786
 21
24.99996185302734
  0
LINE
  8
0
  6
CONTINUOUS
 62
     7
 10
1.129988551139832
 20
28.49997901916504
 11
1.779979586601257
 21
31.99996376037598
  0
LINE
  8
0
  6
CONTINUOUS
 62
     7
 10
3.440002918243408
 20
28.49995994567871
 11
4.090013980865479
 21
24.99994659423828
  0
LINE
  8
0
  6
CONTINUOUS
 62
     7
 10
3.439975500106812
 20
28.49997329711914
 11
4.089986801147461
 21
31.99998474121094
  0
LINE
  8
0
  6
CONTINUOUS
 62
     7
 10
5.950003623962402
 20
25.46998023986816
 11
5.859991550445557
 21
24.99997711181641
  0
LINE
  8
0
  6
CONTINUOUS
 62
     7
 10
5.950027942657471
 20
31.52000236511231
 11
5.860020160675049
 21
31.9999942779541
  0
LINE
  8
0
  6
CONTINUOUS
 62
     7
 10
7.765949249267578
 20
25.25428771972656
 11
10.51997947692871
 21
25.99996376037598
  0
LINE
  8
0
  6
CONTINUOUS
 62
     7
 10
7.749973773956299
 20
31.74999237060547
 11
10.51998615264893
 21
30.99999046325684
  0
LINE
  8
0
  6
CONTINUOUS
 62
     7
 10
0.0004943119129166007
 20
23.88089179992676
 11
1.947719097137451
 21
25
  0
LINE
  8
0
  6
CONTINUOUS
 62
     7
 10
0.0005125203169882298
 20
23.88090324401856
 11
-4.000514984130859
 21
26.19089889526367
  0
LINE
  8
0
  6
CONTINUOUS
 62
     7
 10
-4.000481605529785
 20
26.19089317321777
 11
-4.000998497009277
 21
30.80999183654785
  0
LINE
  8
0
  6
CONTINUOUS
 62
     7
 10
-4.001014709472656
 20
30.81000137329102
 11
-0.0004913969314657152
 21
33.11911010742188
  0
LINE
  8
0
  6
CONTINUOUS
 62
     7
 10
-0.0005162307643331587
 20
33.11909866333008
 11
1.937822103500366
 21
32
  0
LINE
  8
0
  6
CENTER
 62
     7
 10
90
 20
21
 11
90
 21
-1
  0
LINE
  8
0
  6
CONTINUOUS
 62
     7
 10
70
 20
20
 11
70
 21
0
  0
LINE
  8
0
  6
DASHED
 62
     7
 10
95.5
 20
11
 11
84.5
 21
11
  0
LINE
  8
0
  6
DASHED
 62
     7
 10
93.5
 20
11
 11
93.5
 21
0
  0
LINE
  8
0
  6
DASHED
 62
     7
 10
95.5
 20
20
 11
95.5
 21
11
  0
LINE
  8
0
  6
DASHED
 62
     7
 10
84.5
 20
20
 11
84.5
 21
11
  0
LINE
  8
0
  6
DASHED
 62
     7
 10
86.5
 20
11
 11
86.5
 21
0
  0
LINE
  8
0
  6
CENTER
 62
     7
 10
202.5
 20
37.00003051757813
 11
202.5
 21
5.678802490234375
  0
LINE
  8
0
  6
CONTINUOUS
 62
     7
 10
290
 20
20
 11
290
 21
0
  0
LINE
  8
0
  6
CENTER
 62
     7
 10
224
 20
30.50003051757813
 11
219
 21
30.50003051757813
  0
LINE
  8
0
  6
CENTER
 62
     7
 10
221.5
 20
33.00003051757813
 11
221.5
 21
28.00003051757813
  0
LINE
  8
0
  6
CONTINUOUS
 62
     7
 10
70
 20
5.100032329559326
 11
290
 21
5.100032329559326
  0
LINE
  8
0
  6
CONTINUOUS
 62
     7
 10
70
 20
7.800075054168701
 11
134
 21
7.800075054168701
  0
LINE
  8
0
  6
CONTINUOUS
 62
     7
 10
70
 20
12.88001441955566
 11
134
 21
12.88001441955566
  0
LINE
  8
0
  6
CONTINUOUS
 62
     7
 10
70
 20
18.00264167785645
 11
134
 21
18.00264167785645
  0
LINE
  8
0
  6
CONTINUOUS
 62
     7
 10
70
 20
15.4966402053833
 11
134
 21
15.4966402053833
  0
LINE
  8
0
  6
CONTINUOUS
 62
     7
 10
226
 20
18.00264167785645
 11
290
 21
18.00264167785645
  0
LINE
  8
0
  6
CONTINUOUS
 62
     7
 10
226
 20
15.4966402053833
 11
290
 21
15.4966402053833
  0
LINE
  8
0
  6
CONTINUOUS
 62
     7
 10
226
 20
12.88001441955566
 11
290
 21
12.88001441955566
  0
LINE
  8
0
  6
CONTINUOUS
 62
     7
 10
226
 20
7.800075054168701
 11
290
 21
7.800075054168701
  0
LINE
  8
0
  6
CENTER
 62
     7
 10
150
 20
7.300018310546875
 11
150
 21
-1
  0
LINE
  8
0
  6
CENTER
 62
     7
 10
210
 20
7.300018310546875
 11
210
 21
-1
  0
LINE
  8
0
  6
CENTER
 62
     7
 10
270
 20
21
 11
270
 21
-1
  0
LINE
  8
0
  6
CONTINUOUS
 62
     7
 10
35
 20
34.99286270141602
 11
35
 21
27.05714988708496
  0
LINE
  8
0
  6
CONTINUOUS
 62
     7
 10
134
 20
107.3000335693359
 11
144.5
 21
107.3000335693359
  0
LINE
  8
0
  6
CONTINUOUS
 62
     7
 10
70
 20
119.5000305175781
 11
134
 21
119.5000305175781
  0
LINE
  8
0
  6
CENTER
 62
     7
 10
157.5
 20
107.5000305175781
 11
157.5
 21
97.50003051757813
  0
LINE
  8
0
  6
CENTER
 62
     7
 10
152.5
 20
102.5000305175781
 11
162.5
 21
102.5000305175781
  0
LINE
  8
0
  6
CONTINUOUS
 62
     7
 10
70
 20
121.4014282226563
 11
124.4687728881836
 21
121.4014282226563
  0
LINE
  8
0
  6
CONTINUOUS
 62
     7
 10
70
 20
140.5986328125
 11
134
 21
140.5986328125
  0
LINE
  8
0
  6
CONTINUOUS
 62
     7
 10
70
 20
142.5000305175781
 11
134
 21
142.5000305175781
  0
LINE
  8
0
  6
CONTINUOUS
 62
     7
 10
134
 20
154.7000274658203
 11
144.5
 21
154.7000274658203
  0
LINE
  8
0
  6
CONTINUOUS
 62
     7
 10
144.5
 20
166.0000305175781
 11
215.5
 21
166.0000305175781
  0
LINE
  8
0
  6
CONTINUOUS
 62
     7
 10
70
 20
119.5000305175781
 11
70
 21
142.5000305175781
  0
LINE
  8
0
  6
CONTINUOUS
 62
     7
 10
134
 20
107.3000335693359
 11
134
 21
154.7000274658203
  0
LINE
  8
0
  6
CONTINUOUS
 62
     7
 10
144.5
 20
96.00003051757813
 11
144.5
 21
166.0000305175781
  0
LINE
  8
0
  6
CENTER
 62
     7
 10
157.5
 20
154.5000305175781
 11
157.5
 21
164.5000305175781
  0
LINE
  8
0
  6
CENTER
 62
     7
 10
152.5
 20
159.5000305175781
 11
162.5
 21
159.5000305175781
  0
LINE
  8
0
  6
CONTINUOUS
 62
     7
 10
290
 20
140.5986328125
 11
226
 21
140.5986328125
  0
LINE
  8
0
  6
CONTINUOUS
 62
     7
 10
290
 20
121.4014282226563
 11
226
 21
121.4014282226563
  0
LINE
  8
0
  6
CONTINUOUS
 62
     7
 10
215.5
 20
111.0000305175781
 11
144.5
 21
111.0000305175781
  0
LINE
  8
0
  6
CONTINUOUS
 62
     7
 10
215.5
 20
124.0000305175781
 11
144.5
 21
124.0000305175781
  0
LINE
  8
0
  6
CENTER
 62
     7
 10
202.5
 20
107.5000305175781
 11
202.5
 21
97.50003051757813
  0
LINE
  8
0
  6
CONTINUOUS
 62
     7
 10
290
 20
119.5000305175781
 11
226
 21
119.5000305175781
  0
LINE
  8
0
  6
CONTINUOUS
 62
     7
 10
226
 20
107.3000335693359
 11
215.5
 21
107.3000335693359
  0
LINE
  8
0
  6
CONTINUOUS
 62
     7
 10
215.5
 20
96.00003051757813
 11
144.5
 21
96.00003051757813
  0
LINE
  8
0
  6
CENTER
 62
     7
 10
291
 20
131.0000305175781
 11
69
 21
131.0000305175781
  0
LINE
  8
0
  6
CENTER
 62
     7
 10
207.5
 20
102.5000305175781
 11
197.5
 21
102.5000305175781
  0
LINE
  8
0
  6
CONTINUOUS
 62
     7
 10
215.5
 20
151.0000305175781
 11
144.5
 21
151.0000305175781
  0
LINE
  8
0
  6
CONTINUOUS
 62
     7
 10
215.5
 20
138.0000305175781
 11
144.5
 21
138.0000305175781
  0
LINE
  8
0
  6
CENTER
 62
     7
 10
202.5
 20
154.5000305175781
 11
202.5
 21
164.5000305175781
  0
LINE
  8
0
  6
CONTINUOUS
 62
     7
 10
290
 20
142.5000305175781
 11
226
 21
142.5000305175781
  0
LINE
  8
0
  6
CONTINUOUS
 62
     7
 10
226
 20
154.7000274658203
 11
215.5
 21
154.7000274658203
  0
LINE
  8
0
  6
CONTINUOUS
 62
     7
 10
290
 20
119.5000305175781
 11
290
 21
142.5000305175781
  0
LINE
  8
0
  6
CONTINUOUS
 62
     7
 10
226
 20
107.3000335693359
 11
226
 21
154.7000274658203
  0
LINE
  8
0
  6
CONTINUOUS
 62
     7
 10
215.5
 20
96.00003051757813
 11
215.5
 21
166.0000305175781
  0
LINE
  8
0
  6
CENTER
 62
     7
 10
207.5
 20
159.5000305175781
 11
197.5
 21
159.5000305175781
  0
LINE
  8
0
  6
CENTER
 62
     7
 10
90
 20
137.5000305175781
 11
90
 21
124.5000305175781
  0
LINE
  8
0
  6
CENTER
 62
     7
 10
150
 20
137.5000305175781
 11
150
 21
124.5000305175781
  0
LINE
  8
0
  6
CENTER
 62
     7
 10
210
 20
137.5000305175781
 11
210
 21
124.5000305175781
  0
LINE
  8
0
  6
CENTER
 62
     7
 10
270
 20
137.5000305175781
 11
270
 21
124.5000305175781
  0
LINE
  8
0
  6
CONTINUOUS
 62
     7
 10
133.8000183105469
 20
127.0000152587891
 11
133.8000183105469
 21
135.0000152587891
  0
LINE
  8
0
  6
CONTINUOUS
 62
     7
 10
130.5001220703125
 20
135.0000305175781
 11
133.8000335693359
 21
135.0000305175781
  0
LINE
  8
0
  6
CONTINUOUS
 62
     7
 10
132.1201477050781
 20
127.0000305175781
 11
133.8000183105469
 21
127.0000305175781
  0
LINE
  8
0
  6
CONTINUOUS
 62
     7
 10
126.500114440918
 20
131.0000305175781
 11
126.500114440918
 21
129.3279113769531
  0
LINE
  8
0
  6
CONTINUOUS
 62
     7
 10
133.8000183105469
 20
135.0000305175781
 11
134.0000152587891
 21
135.0000305175781
  0
LINE
  8
0
  6
CONTINUOUS
 62
     7
 10
133.8000183105469
 20
127.0000305175781
 11
134
 21
127.0000305175781
  0
LINE
  8
0
  6
CENTER
 62
     7
 10
126.0518646240234
 20
119.4779052734375
 11
130.9171752929688
 21
131.2238006591797
  0
LINE
  8
0
  6
CONTINUOUS
 62
     7
 10
124.2827911376953
 20
121.4784698486328
 11
128.7174224853516
 21
119.6415863037109
  0
LINE
  8
0
  6
CONTINUOUS
 62
     7
 10
124.4845581054688
 20
124.3173675537109
 11
130.5821533203125
 21
121.7916564941406
  0
LINE
  8
0
  6
CONTINUOUS
 62
     7
 10
124.2827911376953
 20
121.4784774780273
 11
124.4845581054688
 21
124.3173675537109
  0
LINE
  8
0
  6
CONTINUOUS
 62
     7
 10
128.7174224853516
 20
119.6415863037109
 11
130.5821685791016
 21
121.7916641235352
  0
LINE
  8
0
  6
CONTINUOUS
 62
     7
 10
125.2232666015625
 20
128.0382232666016
 11
125.637939453125
 21
129.0392913818359
  0
LINE
  8
0
  6
CONTINUOUS
 62
     7
 10
132.6908569335938
 20
124.9450454711914
 11
133.1055145263672
 21
125.9461059570313
  0
LINE
  8
0
  6
CONTINUOUS
 62
     7
 10
126.4173736572266
 20
129.3621215820313
 11
125.637939453125
 21
129.0392608642578
  0
LINE
  8
0
  6
CONTINUOUS
 62
     7
 10
126.8605651855469
 20
126.7106246948242
 11
127.7331466674805
 21
128.8171844482422
  0
LINE
  8
0
  6
CONTINUOUS
 62
     7
 10
130.5943450927734
 20
125.1640472412109
 11
131.4669189453125
 21
127.270622253418
  0
LINE
  8
0
  6
CONTINUOUS
 62
     7
 10
126.4173889160156
 20
129.3621826171875
 11
132.7826843261719
 21
126.7255935668945
  0
LINE
  8
0
  6
CONTINUOUS
 62
     7
 10
133.1055145263672
 20
125.9460830688477
 11
132.7826538085938
 21
126.7255325317383
  0
LINE
  8
0
  6
CONTINUOUS
 62
     7
 10
125.6148223876953
 20
125.7395172119141
 11
130.7885437011719
 21
123.5964813232422
  0
LINE
  8
0
  6
CONTINUOUS
 62
     7
 10
125.4530639648438
 20
127.2936401367188
 11
131.9101257324219
 21
124.6190338134766
  0
LINE
  8
0
  6
CONTINUOUS
 62
     7
 10
130.2437133789063
 20
121.4014282226563
 11
134
 21
121.4014282226563
  0
LINE
  8
0
  6
CONTINUOUS
 62
     7
 10
-10.29997825622559
 20
9.693681590761116E-008
 11
-11.40709590911865
 21
1.107118248939514
  0
ARC
  8
0
  6
CONTINUOUS
 62
     7
 10
9.299957275390625
 20
12.67288208007813
 40
0.5000000000000002
 50
135.0000003416226
 51
180.0000050089563
  0
ARC
  8
0
  6
CONTINUOUS
 62
     7
 10
11
 20
4.892913818359375
 40
0.5
 50
0
 51
45.00000125223906
  0
ARC
  8
0
  6
CONTINUOUS
 62
     7
 10
4.364166259765625
 20
0.8000030517578125
 40
1
 50
224.9999996583774
 51
233.1300967708486
  0
ARC
  8
0
  6
CONTINUOUS
 62
     7
 10
9.685699462890625
 20
0.8000030517578125
 40
0.9999999999999998
 50
306.869898220195
 51
315.0000021628555
  0
ARC
  8
0
  6
CONTINUOUS
 62
     7
 10
9.3232421875
 20
19.70001220703125
 40
0.3000000119209296
 50
8.382590423066088
 51
89.99999567428907
  0
ARC
  8
0
  6
CONTINUOUS
 62
     7
 10
11.20010375976563
 20
17.73976135253906
 40
0.3000000119209283
 50
359.9999949910435
 51
79.12878655354065
  0
ARC
  8
0
  6
CONTINUOUS
 62
     7
 10
11.6422119140625
 20
20.04173278808594
 40
2.044034957885742
 50
188.382590536752
 51
259.1287883747736
  0
ARC
  8
0
  6
CONTINUOUS
 62
     7
 10
11.20010375976563
 20
15.759521484375
 40
0.3000000119209281
 50
280.8713432200535
 51
5.008956135492814E-006
  0
ARC
  8
0
  6
CONTINUOUS
 62
     7
 10
9.328369140625
 20
13.83267211914063
 40
0.300000011920929
 50
314.9999987477607
 51
350.7910932911453
  0
ARC
  8
0
  6
CONTINUOUS
 62
     7
 10
11.6422119140625
 20
13.45755004882813
 40
2.044034957885742
 50
100.8713413988207
 51
170.7910931774599
  0
ARC
  8
0
  6
CONTINUOUS
 62
     7
 10
3.0428466796875
 20
1.52587890625E-005
 40
0.5
 50
45.00000125223908
 51
90.00000250447816
  0
ARC
  8
0
  6
CONTINUOUS
 62
     7
 10
10.69998168945313
 20
1.814239501953125
 40
1
 50
315.0000021628555
 51
323.1301026904213
  0
ARC
  8
0
  6
CONTINUOUS
 62
     7
 10
-11
 20
4.89288330078125
 40
0.5000000000000002
 50
135.0000003416226
 51
180.0000050089563
  0
ARC
  8
0
  6
CONTINUOUS
 62
     7
 10
-9.29998779296875
 20
8.007110595703125
 40
0.5000000000000003
 50
314.999998747761
 51
0
  0
ARC
  8
0
  6
CONTINUOUS
 62
     7
 10
-9.29998779296875
 20
12.67291259765625
 40
0.5
 50
0
 51
45.00000125223906
  0
ARC
  8
0
  6
CONTINUOUS
 62
     7
 10
-9.3232421875
 20
19.70001220703125
 40
0.3000000119209292
 50
90.00000250447825
 51
171.6174094632482
  0
ARC
  8
0
  6
CONTINUOUS
 62
     7
 10
-11.20013427734375
 20
17.73976135253906
 40
0.3000000119209295
 50
100.8712116252263
 51
180.0000050089565
  0
ARC
  8
0
  6
CONTINUOUS
 62
     7
 10
-11.6422119140625
 20
20.04173278808594
 40
2.044034957885742
 50
280.8712134464593
 51
351.6174078693863
  0
ARC
  8
0
  6
CONTINUOUS
 62
     7
 10
-11.20013427734375
 20
15.759521484375
 40
0.3000000119209288
 50
179.9999913485781
 51
259.1286617889027
  0
ARC
  8
0
  6
CONTINUOUS
 62
     7
 10
-9.328369140625
 20
13.83267211914063
 40
0.3000000119209286
 50
189.2089068225401
 51
224.9999996583774
  0
ARC
  8
0
  6
CONTINUOUS
 62
     7
 10
-11.6422119140625
 20
13.45755004882813
 40
2.044034957885743
 50
9.208904147533595
 51
79.12865677994648
  0
ARC
  8
0
  6
CONTINUOUS
 62
     7
 10
-3.04290771484375
 20
1.52587890625E-005
 40
0.5
 50
90.00000250447816
 51
135.0000003416227
  0
ARC
  8
0
  6
CONTINUOUS
 62
     7
 10
35.5
 20
26.13580322265625
 40
1
 50
135.0000003416226
 51
180.0000050089563
  0
ARC
  8
0
  6
CONTINUOUS
 62
     7
 10
33.5
 20
25
 40
1.000000000000001
 50
269.9999974955219
 51
0
  0
ARC
  8
0
  6
CONTINUOUS
 62
     7
 10
34.5999755859375
 20
27.35711669921875
 40
0.4999999999999991
 50
314.9999987477608
 51
323.1289381431678
  0
ARC
  8
0
  6
CONTINUOUS
 62
     7
 10
34.5999755859375
 20
34.69289398193359
 40
0.4999999999999995
 50
36.87106185683254
 51
44.99999783714439
  0
ARC
  8
0
  6
CONTINUOUS
 62
     7
 10
32.6658935546875
 20
22
 40
1.999999999999998
 50
90.00000250447806
 51
149.9999973439412
  0
ARC
  8
0
  6
CONTINUOUS
 62
     7
 10
27.0999755859375
 20
10.35955810546875
 40
2.999999999999999
 50
149.9999973439411
 51
180.0000050089563
  0
ARC
  8
0
  6
CONTINUOUS
 62
     7
 10
-35.5
 20
26.08576965332031
 40
1
 50
0
 51
45.0000012522392
  0
ARC
  8
0
  6
CONTINUOUS
 62
     7
 10
-27.1500244140625
 20
10.44615936279297
 40
3
 50
0
 51
30.00000083482603
  0
ARC
  8
0
  6
CONTINUOUS
 62
     7
 10
-32.66595458984375
 20
22
 40
2.000000000000001
 50
30.00000083482606
 51
90.00000250447806
  0
ARC
  8
0
  6
CONTINUOUS
 62
     7
 10
-33.5
 20
25
 40
0.9999999999999971
 50
179.999991348578
 51
270.0000006832455
  0
ARC
  8
0
  6
CONTINUOUS
 62
     7
 10
-7.707122802734375
 20
36
 40
0.5000000000000004
 50
269.9999974955218
 51
314.9999987477609
  0
ARC
  8
0
  6
CONTINUOUS
 62
     7
 10
-19.29290771484375
 20
36
 40
0.4999999999999991
 50
224.9999996583772
 51
269.9999974955219
  0
ARC
  8
0
  6
CONTINUOUS
 62
     7
 10
19.29287719726563
 20
36
 40
0.5000000000000004
 50
269.9999974955219
 51
314.9999987477608
  0
ARC
  8
0
  6
CONTINUOUS
 62
     7
 10
7.70709228515625
 20
36
 40
0.4999999999999991
 50
224.9999996583772
 51
269.9999974955218
  0
ARC
  8
0
  6
CONTINUOUS
 62
     7
 10
21.64999389648438
 20
8.75
 40
2.5
 50
283.3773942680445
 51
348.5195508118913
  0
ARC
  8
0
  6
CONTINUOUS
 62
     7
 10
-21.64999389648438
 20
8.75
 40
2.5
 50
179.999991348578
 51
256.9480829152412
  0
ARC
  8
0
  6
CONTINUOUS
 62
     7
 10
9.299957275390625
 20
8.007179260253906
 40
0.5000000000000003
 50
179.999991348578
 51
224.9999960159116
  0
ARC
  8
0
  6
CONTINUOUS
 62
     7
 10
9.32318115234375
 20
19.69999694824219
 40
0.2999999821186067
 50
8.382590423066535
 51
89.99999567428898
  0
ARC
  8
0
  6
CONTINUOUS
 62
     7
 10
204.800048828125
 20
7.678802490234375
 40
1
 50
269.9999974955215
 51
8.651422209050105E-006
  0
ARC
  8
0
  6
CONTINUOUS
 62
     7
 10
200.1999816894531
 20
7.678802490234375
 40
1.000000000000011
 50
179.999991348578
 51
270.0000006832446
  0
ARC
  8
0
  6
CONTINUOUS
 62
     7
 10
155.2000122070313
 20
7.678802490234375
 40
1.000000000000011
 50
179.999991348578
 51
270.0000006832446
  0
ARC
  8
0
  6
CONTINUOUS
 62
     7
 10
159.800048828125
 20
7.678802490234375
 40
1
 50
269.9999974955215
 51
0
  0
ARC
  8
0
  6
CONTINUOUS
 62
     7
 10
130.8001098632813
 20
28.50009155273438
 40
3.982465744018556
 50
241.5040862782025
 51
269.9999087030627
  0
ARC
  8
0
  6
CONTINUOUS
 62
     7
 10
130.8001098632813
 20
28.50009155273438
 40
3.999999999999998
 50
89.99998201391055
 51
118.4958044387709
  0
CIRCLE
  8
0
  6
CONTINUOUS
 62
     7
 10
138.5
 20
30.50003051757813
 40
0.5195000171661377
  0
CIRCLE
  8
0
  6
CONTINUOUS
 62
     7
 10
138.5
 20
30.50003051757813
 40
1.5
  0
CIRCLE
  8
0
  6
CONTINUOUS
 62
     7
 10
-18.99996948242188
 20
26.90000152587891
 40
1.25
  0
ARC
  8
0
  6
CONTINUOUS
 62
     7
 10
7.610000610351563
 20
26.20999145507813
 40
0.9683421850204466
 50
215.3314570768741
 51
278.2972225067941
  0
ARC
  8
0
  6
CONTINUOUS
 62
     7
 10
6.620010375976563
 20
24.41999816894531
 40
1.246148109436035
 50
80.76452806729958
 51
142.1250351177266
  0
ARC
  8
0
  6
CONTINUOUS
 62
     7
 10
6.620010375976563
 20
32.58000183105469
 40
1.254199028015136
 50
217.8749648822735
 51
279.2353626496737
  0
ARC
  8
0
  6
CONTINUOUS
 62
     7
 10
7.610000610351563
 20
30.78999328613281
 40
0.9701611399650563
 50
81.7028867762326
 51
144.668542923126
  0
ARC
  8
0
  6
CONTINUOUS
 62
     7
 10
0
 20
28.5
 40
4
 50
240.0000239814524
 51
241.0449882829511
  0
ARC
  8
0
  6
CONTINUOUS
 62
     7
 10
0
 20
28.5
 40
3.998106002807619
 50
61.09402038976974
 51
298.9059076658729
  0
CIRCLE
  8
0
  6
CONTINUOUS
 62
     7
 10
157.5
 20
102.5000305175781
 40
3.39996337890625
  0
CIRCLE
  8
0
  6
CONTINUOUS
 62
     7
 10
157.5
 20
102.5000305175781
 40
4
  0
CIRCLE
  8
0
  6
CONTINUOUS
 62
     7
 10
90
 20
131.0000305175781
 40
3.5
  0
CIRCLE
  8
0
  6
CONTINUOUS
 62
     7
 10
90
 20
131.0000305175781
 40
5.5
  0
ARC
  8
0
  6
CONTINUOUS
 62
     7
 10
127.5333633422852
 20
123.0545043945313
 40
3.299999237060547
 50
131.5803705110074
 51
157.4999548639652
  0
ARC
  8
0
  6
CONTINUOUS
 62
     7
 10
127.5333633422852
 20
123.0545043945313
 40
3.29999923706055
 50
337.5000181569006
 51
3.419602296415186
  0
ARC
  8
0
  6
CONTINUOUS
 62
     7
 10
119.6170120239258
 20
125.9006042480469
 40
5.999999999999996
 50
2.433650829345525
 51
20.8717398770493
  0
ARC
  8
0
  6
CONTINUOUS
 62
     7
 10
135.1435546875
 20
119.4692993164063
 40
6.000000000000011
 50
114.1278165022775
 51
132.5663219780771
  0
ARC
  8
0
  6
CONTINUOUS
 62
     7
 10
124.8123092651367
 20
126.1213989257813
 40
0.7999999523162822
 50
311.5798327472963
 51
2.433049772698627
  0
ARC
  8
0
  6
CONTINUOUS
 62
     7
 10
131.6260375976563
 20
123.2990570068359
 40
0.7999999523162747
 50
132.5669776762372
 51
183.4201402735702
  0
ARC
  8
0
  6
CONTINUOUS
 62
     7
 10
130.5001220703125
 20
131.0000305175781
 40
3.999999999999998
 50
89.99998201391055
 51
180.0000186693345
  0
ARC
  8
0
  6
CONTINUOUS
 62
     7
 10
-10.69998168945313
 20
1.814239501953125
 40
0.9999999999999997
 50
216.8699025459061
 51
224.9999996583774
  0
POLYLINE
  8
0
  6
CONTINUOUS
 62
     7
 66
     1
 10
0
 20
0
  0
VERTEX
  8
0
  6
CONTINUOUS
 62
     7
 10
208
 20
18.78448486328125
 42
-0.04916007769284397
  0
VERTEX
  8
0
  6
CONTINUOUS
 62
     7
 10
207.7943797225134
 20
16.11160315346973
 42
-0.05284603939755864
  0
VERTEX
  8
0
  6
CONTINUOUS
 62
     7
 10
207.0479064481586
 20
13.53696279703975
 42
-0.04836440602442896
  0
VERTEX
  8
0
  6
CONTINUOUS
 62
     7
 10
205.800048828125
 20
11.16342163085938
 42
0
  0
SEQEND
  8
0
  0
POLYLINE
  8
0
  6
CONTINUOUS
 62
     7
 66
     1
 10
0
 20
0
  0
VERTEX
  8
0
  6
CONTINUOUS
 62
     7
 10
196.9999694824219
 20
18.78448486328125
 42
0.04916484502219352
  0
VERTEX
  8
0
  6
CONTINUOUS
 62
     7
 10
197.2056395199293
 20
16.11160511546045
 42
0.05284206961994716
  0
VERTEX
  8
0
  6
CONTINUOUS
 62
     7
 10
197.9521233513518
 20
13.53696456309764
 42
0.04836444154649583
  0
VERTEX
  8
0
  6
CONTINUOUS
 62
     7
 10
199.1999816894531
 20
11.16342163085938
 42
0
  0
SEQEND
  8
0
  0
POLYLINE
  8
0
  6
CONTINUOUS
 62
     7
 66
     1
 10
0
 20
0
  0
VERTEX
  8
0
  6
CONTINUOUS
 62
     7
 10
163
 20
18.78448486328125
 42
-0.04916007769286912
  0
VERTEX
  8
0
  6
CONTINUOUS
 62
     7
 10
162.7943797225134
 20
16.11160315346973
 42
-0.05284603939757267
  0
VERTEX
  8
0
  6
CONTINUOUS
 62
     7
 10
162.0479064481586
 20
13.53696279703975
 42
-0.04836440602435484
  0
VERTEX
  8
0
  6
CONTINUOUS
 62
     7
 10
160.800048828125
 20
11.16342163085938
 42
0
  0
SEQEND
  8
0
  0
POLYLINE
  8
0
  6
CONTINUOUS
 62
     7
 66
     1
 10
0
 20
0
  0
VERTEX
  8
0
  6
CONTINUOUS
 62
     7
 10
152
 20
18.78448486328125
 42
0.04916484502213442
  0
VERTEX
  8
0
  6
CONTINUOUS
 62
     7
 10
152.2056700375075
 20
16.11160511546045
 42
0.05284206961979118
  0
VERTEX
  8
0
  6
CONTINUOUS
 62
     7
 10
152.95215386893
 20
13.53696456309764
 42
0.04836444154658497
  0
VERTEX
  8
0
  6
CONTINUOUS
 62
     7
 10
154.2000122070313
 20
11.16342163085938
 42
0
  0
SEQEND
  8
0
  0
POLYLINE
  8
0
  6
CONTINUOUS
 62
     7
 66
     1
 10
0
 20
0
  0
VERTEX
  8
0
  6
CONTINUOUS
 62
     7
 10
125.3760337715147
 20
26.31897838974832
 42
0.0628320826610322
  0
VERTEX
  8
0
  6
CONTINUOUS
 62
     7
 10
125.9403323101611
 20
25.79280665225564
 42
0.06649691088668988
  0
VERTEX
  8
0
  6
CONTINUOUS
 62
     7
 10
126.6203323052286
 20
25.42830227549404
 42
0.06915524790687619
  0
VERTEX
  8
0
  6
CONTINUOUS
 62
     7
 10
127.3726864205994
 20
25.25944324340832
 42
0.06975294198467201
  0
VERTEX
  8
0
  6
CONTINUOUS
 62
     7
 10
128.1414409301546
 20
25.30344012439043
 42
0.0681637321988177
  0
VERTEX
  8
0
  6
CONTINUOUS
 62
     7
 10
128.8692841107021
 20
25.55526103472931
 42
0.06499612952903926
  0
VERTEX
  8
0
  6
CONTINUOUS
 62
     7
 10
129.505849304915
 20
25.99009237358356
 42
0.06129100673744722
  0
VERTEX
  8
0
  6
CONTINUOUS
 62
     7
 10
130.0139058974013
 20
26.57019355176871
 42
0.05807953492945235
  0
VERTEX
  8
0
  6
CONTINUOUS
 62
     7
 10
130.3709020320663
 20
27.25418750901336
 42
0.05590513374549725
  0
VERTEX
  8
0
  6
CONTINUOUS
 62
     7
 10
130.5645602438114
 20
28.00133112908662
 42
0.05496341082676741
  0
VERTEX
  8
0
  6
CONTINUOUS
 62
     7
 10
130.5895756223023
 20
28.77205320141298
 42
0.05547357809198115
  0
VERTEX
  8
0
  6
CONTINUOUS
 62
     7
 10
130.4454981947652
 20
29.52994234321839
 42
0.05728027817239454
  0
VERTEX
  8
0
  6
CONTINUOUS
 62
     7
 10
130.1360907505812
 20
30.23638450260177
 42
0.06026834021520168
  0
VERTEX
  8
0
  6
CONTINUOUS
 62
     7
 10
129.6708538958384
 20
30.85169457957217
 42
0.06395263619800914
  0
VERTEX
  8
0
  6
CONTINUOUS
 62
     7
 10
129.0686489894583
 20
31.3340742700517
 42
0.06744518012458482
  0
VERTEX
  8
0
  6
CONTINUOUS
 62
     7
 10
128.3619925707615
 20
31.64353698852635
 42
0.06944164231916361
  0
VERTEX
  8
0
  6
CONTINUOUS
 62
     7
 10
127.6001052856445
 20
31.75009155273438
 42
0
  0
SEQEND
  8
0
  0
POLYLINE
  8
0
  6
CONTINUOUS
 62
     7
 66
     1
 10
0
 20
0
  0
VERTEX
  8
0
  6
CONTINUOUS
 62
     7
 10
127.6001052856445
 20
31.75009155273438
 42
0.01434916522434033
  0
VERTEX
  8
0
  6
CONTINUOUS
 62
     7
 10
127.4412242032568
 20
31.74553057551154
 42
0.01426051712676643
  0
VERTEX
  8
0
  6
CONTINUOUS
 62
     7
 10
127.2836130939542
 20
31.73195527332156
 42
0.01417564288705543
  0
VERTEX
  8
0
  6
CONTINUOUS
 62
     7
 10
127.1275139591273
 20
31.70951267342177
 42
0.01415084163552043
  0
VERTEX
  8
0
  6
CONTINUOUS
 62
     7
 10
126.97255171751
 20
31.6781894922323
 42
0.01410156072180808
  0
VERTEX
  8
0
  6
CONTINUOUS
 62
     7
 10
126.8192896374632
 20
31.6380820075786
 42
0.01402956434402464
  0
VERTEX
  8
0
  6
CONTINUOUS
 62
     7
 10
126.6682727043124
 20
31.5893380366719
 42
0.01393699154041277
  0
VERTEX
  8
0
  6
CONTINUOUS
 62
     7
 10
126.5200221407081
 20
31.53215272309647
 42
0.01382627909353248
  0
VERTEX
  8
0
  6
CONTINUOUS
 62
     7
 10
126.3750307868143
 20
31.46676354680999
 42
0.01370007684814777
  0
VERTEX
  8
0
  6
CONTINUOUS
 62
     7
 10
126.2337594576598
 20
31.39344477467594
 42
0.0135611610568585
  0
VERTEX
  8
0
  6
CONTINUOUS
 62
     7
 10
126.0966343416105
 20
31.31250158573047
 42
0.01332240669703654
  0
VERTEX
  8
0
  6
CONTINUOUS
 62
     7
 10
125.9649241605989
 20
31.22488321602758
 42
0.01328784039740693
  0
VERTEX
  8
0
  6
CONTINUOUS
 62
     7
 10
125.8369031061127
 20
31.12952005472972
 42
0.01315490948400432
  0
VERTEX
  8
0
  6
CONTINUOUS
 62
     7
 10
125.7138506634635
 20
31.02731464091121
 42
0.01293837558431134
  0
VERTEX
  8
0
  6
CONTINUOUS
 62
     7
 10
125.5968062456089
 20
30.91930020434168
 42
0.01278038768558698
  0
VERTEX
  8
0
  6
CONTINUOUS
 62
     7
 10
125.4854697094292
 20
30.80541109556901
 42
0.01262538016045962
  0
VERTEX
  8
0
  6
CONTINUOUS
 62
     7
 10
125.3800601787974
 20
30.68601388559353
 42
0
  0
SEQEND
  8
0
  0
POLYLINE
  8
0
  6
CONTINUOUS
 62
     7
 66
     1
 10
0
 20
0
 70
     1
  0
VERTEX
  8
0
  6
CONTINUOUS
 62
     7
 10
126.5000686645508
 20
31.00009155273438
 42
0.1103787961403029
  0
VERTEX
  8
0
  6
CONTINUOUS
 62
     7
 10
125.5879100373607
 20
30.79507283204145
 42
0.1025060390199716
  0
VERTEX
  8
0
  6
CONTINUOUS
 62
     7
 10
124.8405761682138
 20
30.23106111649426
 42
0.09328940294037323
  0
VERTEX
  8
0
  6
CONTINUOUS
 62
     7
 10
124.3629713308217
 20
29.42416623883201
 42
0.08782118401797612
  0
VERTEX
  8
0
  6
CONTINUOUS
 62
     7
 10
124.200080871582
 20
28.50006103515625
 42
0.08777559308348261
  0
VERTEX
  8
0
  6
CONTINUOUS
 62
     7
 10
124.3628116767644
 20
27.57644188388256
 42
0.09326204274525982
  0
VERTEX
  8
0
  6
CONTINUOUS
 62
     7
 10
124.8401207881962
 20
26.76964076012934
 42
0.1026295161219296
  0
VERTEX
  8
0
  6
CONTINUOUS
 62
     7
 10
125.5883366983816
 20
26.20491801354783
 42
0.1103292519952673
  0
VERTEX
  8
0
  6
CONTINUOUS
 62
     7
 10
126.500129699707
 20
26.00009155273437
 42
0.1103776500505884
  0
VERTEX
  8
0
  6
CONTINUOUS
 62
     7
 10
127.412289213202
 20
26.20510720485774
 42
0.1025073046097103
  0
VERTEX
  8
0
  6
CONTINUOUS
 62
     7
 10
128.1596245460912
 20
26.76911672512776
 42
0.09329106020138256
  0
VERTEX
  8
0
  6
CONTINUOUS
 62
     7
 10
128.6372264273138
 20
27.5760130956187
 42
0.08781879596046047
  0
VERTEX
  8
0
  6
CONTINUOUS
 62
     7
 10
128.8001098632813
 20
28.50009155273438
 42
0.08777350854219078
  0
VERTEX
  8
0
  6
CONTINUOUS
 62
     7
 10
128.6373794144831
 20
29.42371097253356
 42
0.09325941562221522
  0
VERTEX
  8
0
  6
CONTINUOUS
 62
     7
 10
128.1600785059868
 20
30.23051731138872
 42
0.1026288834641473
  0
VERTEX
  8
0
  6
CONTINUOUS
 62
     7
 10
127.4118722691102
 20
30.79525326175581
 42
0.1103337290994649
  0
SEQEND
  8
0
  0
POLYLINE
  8
0
  6
CONTINUOUS
 62
     7
 66
     1
 10
0
 20
0
  0
VERTEX
  8
0
  6
CONTINUOUS
 62
     7
 10
6.819992065429688
 20
31.3499755859375
 42
0.1885745464292788
  0
VERTEX
  8
0
  6
CONTINUOUS
 62
     7
 10
6.460261538522269
 20
31.19028703984911
 42
0.07574466113821897
  0
VERTEX
  8
0
  6
CONTINUOUS
 62
     7
 10
6.216026985965466
 20
30.87245062832676
 42
0.03933594534519085
  0
VERTEX
  8
0
  6
CONTINUOUS
 62
     7
 10
6.046165317503697
 20
30.50711706913912
 42
0.02577125752717286
  0
VERTEX
  8
0
  6
CONTINUOUS
 62
     7
 10
5.924010893244023
 20
30.12296641807139
 42
0.01950521772353509
  0
VERTEX
  8
0
  6
CONTINUOUS
 62
     7
 10
5.836520256462827
 20
29.72875464113596
 42
0.0162146106057349
  0
VERTEX
  8
0
  6
CONTINUOUS
 62
     7
 10
5.777160254708038
 20
29.32916366168362
 42
0.01446653763776212
  0
VERTEX
  8
0
  6
CONTINUOUS
 62
     7
 10
5.74229278684315
 20
28.92663897834304
 42
0.01369126526825587
  0
VERTEX
  8
0
  6
CONTINUOUS
 62
     7
 10
5.730044907543697
 20
28.5224948995088
 42
0.01360481565905638
  0
VERTEX
  8
0
  6
CONTINUOUS
 62
     7
 10
5.739761797781866
 20
28.11964974889296
 42
0.01431525852916586
  0
VERTEX
  8
0
  6
CONTINUOUS
 62
     7
 10
5.771912195952455
 20
27.71739843680845
 42
0.01598185402868817
  0
VERTEX
  8
0
  6
CONTINUOUS
 62
     7
 10
5.828423911626819
 20
27.31658057188146
 42
0.0190267548397789
  0
VERTEX
  8
0
  6
CONTINUOUS
 62
     7
 10
5.912486364333772
 20
26.92142739773305
 42
0.02487977718038538
  0
VERTEX
  8
0
  6
CONTINUOUS
 62
     7
 10
6.03050285131564
 20
26.5350316284218
 42
0.03729615370148749
  0
VERTEX
  8
0
  6
CONTINUOUS
 62
     7
 10
6.194578623268982
 20
26.16584860095528
 42
0.06998284816479604
  0
VERTEX
  8
0
  6
CONTINUOUS
 62
     7
 10
6.430164842897742
 20
25.83851861784649
 42
0.1738206340214664
  0
VERTEX
  8
0
  6
CONTINUOUS
 62
     7
 10
6.779932678960284
 20
25.6519216751302
 42
0
  0
SEQEND
  8
0
  0
POLYLINE
  8
0
  6
CONTINUOUS
 62
     7
 66
     1
 10
0
 20
0
 70
     1
  0
VERTEX
  8
0
  6
CONTINUOUS
 62
     7
 10
10.52000427246094
 20
31
 42
0.2551592727856527
  0
VERTEX
  8
0
  6
CONTINUOUS
 62
     7
 10
9.990194421972644
 20
30.57511190027379
 42
0.06319138472290355
  0
VERTEX
  8
0
  6
CONTINUOUS
 62
     7
 10
9.736099333476973
 20
29.9122252544633
 42
0.03518638918172878
  0
VERTEX
  8
0
  6
CONTINUOUS
 62
     7
 10
9.609369637790104
 20
29.21217549301894
 42
0.0279853126153652
  0
VERTEX
  8
0
  6
CONTINUOUS
 62
     7
 10
9.57000732421875
 20
28.5
 42
0.02789942790997536
  0
VERTEX
  8
0
  6
CONTINUOUS
 62
     7
 10
9.609140981222661
 20
27.78985243969201
 42
0.03516017990497822
  0
VERTEX
  8
0
  6
CONTINUOUS
 62
     7
 10
9.735634869873794
 20
27.08956192317742
 42
0.06315573245377605
  0
VERTEX
  8
0
  6
CONTINUOUS
 62
     7
 10
9.989666863013211
 20
26.42582168183449
 42
0.2552844263599811
  0
VERTEX
  8
0
  6
CONTINUOUS
 62
     7
 10
10.52000427246094
 20
26
 42
0.2551594730478418
  0
VERTEX
  8
0
  6
CONTINUOUS
 62
     7
 10
11.04981459858741
 20
26.42488747333301
 42
0.06319156037851795
  0
VERTEX
  8
0
  6
CONTINUOUS
 62
     7
 10
11.30390981534024
 20
27.08777405749937
 42
0.035186473565797
  0
VERTEX
  8
0
  6
CONTINUOUS
 62
     7
 10
11.4306393075316
 20
27.7878238524152
 42
0.02798539198551069
  0
VERTEX
  8
0
  6
CONTINUOUS
 62
     7
 10
11.47000122070313
 20
28.5
 42
0.02789946216538289
  0
VERTEX
  8
0
  6
CONTINUOUS
 62
     7
 10
11.4308677871041
 20
29.2101475710854
 42
0.03516022448295442
  0
VERTEX
  8
0
  6
CONTINUOUS
 62
     7
 10
11.3043740106433
 20
29.91043810603362
 42
0.06315580443697305
  0
VERTEX
  8
0
  6
CONTINUOUS
 62
     7
 10
11.05034197507806
 20
30.57417832508457
 42
0.2552843239603432
  0
SEQEND
  8
0
  0
TEXT
  8
0
  6
CONTINUOUS
 62
     7
 10
-11.28550004959106
 20
-31.79999995231628
 40
3.599999904632568
 41
1.008382419577613
  1
SHS25C
  0
ENDSEC
  0
EOF
