  0
SECTION
  2
HEADER
  0
ENDSEC
  0
SECTION
  2
TABLES
  0
TABLE
  2
LTYPE
 70
    22
  0
LTYPE
  2
CONTINUOUS
 70
    64
  3
Solid line
 72
    65
 73
     0
 40
0.000000
  0
LTYPE
  2
DASHED
 70
    64
  3
__ __ __ __ __ __ __ __ __ __ __ __ __ __ __
 72
    65
 73
     2
 40
3.500000
 49
2.000000
 49
-1.500000
  0
LTYPE
  2
CENTER
 70
    64
  3
____ _ ____ _ ____ _ ____ _ ____ _ ____ _ ____
 72
    65
 73
     4
 40
17.500000
 49
13.000000
 49
-1.500000
 49
1.500000
 49
-1.500000
  0
LTYPE
  2
PHANTOM
 70
    64
  3
_____ _ _ _____ _ _ _____ _ _ _____ _ _ ____  
 72
    65
 73
     6
 40
15.500000
 49
8.000000
 49
-1.500000
 49
1.500000
 49
-1.500000
 49
1.500000
 49
-1.500000
  0
LTYPE
  2
DOT
 70
    64
  3
. . . . . . . . . . . . . . . . . . . . . . . .
 72
    65
 73
     2
 40
0.25
 49
0.0
 49
-0.25
  0
ENDTAB
  0
TABLE
  2
LAYER
 70
     1
  0
LAYER
  2
0
 70
     0
 62
     7
  6
CONTINUOUS
  0
ENDTAB
  0
TABLE
  2
STYLE
 70
     1
  0
STYLE
  2
STANDARD
 70
     0
 40
0.000000
 41
1.000000
 50
0.000000
 71
     0
 42
0.200000
  3
txt
  0
ENDTAB
  0
TABLE
  2
VIEW
 70
     0
  0
ENDTAB
  0
ENDSEC
  0
SECTION
  2
BLOCKS
  0
ENDSEC
  0
SECTION
  2
ENTITIES
  0
LINE
  8
0
  6
CONTINUOUS
 62
     7
 10
49.00001525878906
 20
14.69999504089356
 11
47.0000114440918
 21
12.69999217987061
  0
LINE
  8
0
  6
CONTINUOUS
 62
     7
 10
25.79998207092285
 20
12.69999694824219
 11
47
 21
12.69999694824219
  0
LINE
  8
0
  6
CENTER
 62
     7
 10
34
 20
63
 11
34
 21
51
  0
LINE
  8
0
  6
CENTER
 62
     7
 10
28
 20
57
 11
40
 21
57
  0
LINE
  8
0
  6
DASHED
 62
     7
 10
8
 20
18
 11
8
 21
0.5
  0
LINE
  8
0
  6
CONTINUOUS
 62
     7
 10
47.00001525878906
 20
68.99996185302734
 11
49.00001525878906
 21
66.99996185302734
  0
LINE
  8
0
  6
CONTINUOUS
 62
     7
 10
49
 20
66.99997711181641
 11
49
 21
14.69995880126953
  0
LINE
  8
0
  6
CONTINUOUS
 62
     7
 10
26.5
 20
11.58578491210938
 11
26.5
 21
2
  0
LINE
  8
0
  6
CONTINUOUS
 62
     7
 10
15.5
 20
0
 11
24.5
 21
0
  0
LINE
  8
0
  6
DASHED
 62
     7
 10
11.5
 20
38
 11
11.5
 21
18
  0
LINE
  8
0
  6
CONTINUOUS
 62
     7
 10
7.33135986328125
 20
0.5
 11
14.66864013671875
 21
0.5
  0
LINE
  8
0
  6
CONTINUOUS
 62
     7
 10
15.23432350158691
 20
0.265652596950531
 11
15.50000667572022
 21
-3.034573092008941E-005
  0
LINE
  8
0
  6
CONTINUOUS
 62
     7
 10
6.500017642974854
 20
-3.034573092008941E-005
 11
6.765722274780273
 21
0.2656741738319397
  0
LINE
  8
0
  6
CONTINUOUS
 62
     7
 10
26.50000190734863
 20
1.999998331069946
 11
24.5
 21
-3.729996024048887E-006
  0
LINE
  8
0
  6
CONTINUOUS
 62
     7
 10
21.5
 20
23.58578491210938
 11
21.5
 21
17.41421508789063
  0
LINE
  8
0
  6
CONTINUOUS
 62
     7
 10
21.79290580749512
 20
24.29284477233887
 11
22.57840919494629
 21
25.07835006713867
  0
LINE
  8
0
  6
CONTINUOUS
 62
     7
 10
21.7928638458252
 20
16.70711517333984
 11
26.20982170104981
 21
12.29015827178955
  0
LINE
  8
0
  6
CONTINUOUS
 62
     7
 10
26.5
 20
33.56327819824219
 11
26.5
 21
29.43672180175781
  0
LINE
  8
0
  6
CONTINUOUS
 62
     7
 10
24.30411911010742
 20
42.49998092651367
 11
31.0000114440918
 21
35.8040885925293
  0
LINE
  8
0
  6
CONTINUOUS
 62
     7
 10
31
 20
35.80413818359375
 11
31
 21
27.13603210449219
  0
LINE
  8
0
  6
CONTINUOUS
 62
     7
 10
25.99998474121094
 20
22.13604927062988
 11
30.99996757507324
 21
27.13603210449219
  0
LINE
  8
0
  6
CONTINUOUS
 62
     7
 10
26
 20
22.13603210449219
 11
26
 21
18.86395263671875
  0
LINE
  8
0
  6
DASHED
 62
     7
 10
11.5
 20
18
 11
-11.5
 21
18
  0
LINE
  8
0
  6
CONTINUOUS
 62
     7
 10
25.99998474121094
 20
18.86395454406738
 11
32.16394424438477
 21
12.69999694824219
  0
LINE
  8
0
  6
CONTINUOUS
 62
     7
 10
-7.33135986328125
 20
0.5
 11
-14.66864013671875
 21
0.5
  0
LINE
  8
0
  6
DASHED
 62
     7
 10
-11.5
 20
38
 11
-11.5
 21
18
  0
LINE
  8
0
  6
DASHED
 62
     7
 10
-8
 20
18
 11
-8
 21
0.5
  0
LINE
  8
0
  6
CONTINUOUS
 62
     7
 10
-21.79288482666016
 20
16.70709419250488
 11
-26.20710182189941
 21
12.29287719726563
  0
LINE
  8
0
  6
CONTINUOUS
 62
     7
 10
-6.500017642974854
 20
1.281264212593669E-005
 11
-6.765700817108154
 21
0.2656957507133484
  0
LINE
  8
0
  6
CONTINUOUS
 62
     7
 10
-15.5
 20
0
 11
-24.5
 21
0
  0
LINE
  8
0
  6
CONTINUOUS
 62
     7
 10
-15.2343225479126
 20
0.2656957507133484
 11
-15.5000057220459
 21
1.281264212593669E-005
  0
LINE
  8
0
  6
CONTINUOUS
 62
     7
 10
-26.5
 20
1.999986171722412
 11
-24.49999809265137
 21
-1.586828875588253E-005
  0
LINE
  8
0
  6
CONTINUOUS
 62
     7
 10
-26.5
 20
33.56327819824219
 11
-26.5
 21
29.43672180175781
  0
LINE
  8
0
  6
CONTINUOUS
 62
     7
 10
-26.5
 20
11.58578491210938
 11
-26.5
 21
2
  0
LINE
  8
0
  6
CONTINUOUS
 62
     7
 10
-21.79288482666016
 20
24.29286766052246
 11
-22.57840919494629
 21
25.07839202880859
  0
LINE
  8
0
  6
CONTINUOUS
 62
     7
 10
-21.5
 20
23.58578491210938
 11
-21.5
 21
17.41421508789063
  0
LINE
  8
0
  6
CONTINUOUS
 62
     7
 10
-22.2330322265625
 20
38
 11
22.23309326171875
 21
38
  0
LINE
  8
0
  6
CONTINUOUS
 62
     7
 10
-6.5
 20
0
 11
6.5
 21
0
  0
LINE
  8
0
  6
CENTER
 62
     7
 10
0
 20
81
 11
0
 21
-1
  0
LINE
  8
0
  6
CONTINUOUS
 62
     7
 10
-49.99995803833008
 20
77.99997711181641
 11
-47.99995422363281
 21
79.99997711181641
  0
LINE
  8
0
  6
CONTINUOUS
 62
     7
 10
-50
 20
78
 11
-50
 21
60
  0
LINE
  8
0
  6
CONTINUOUS
 62
     7
 10
-49.5
 20
59.07157897949219
 11
-49.5
 21
16
  0
LINE
  8
0
  6
CONTINUOUS
 62
     7
 10
11
 20
79.5
 11
25
 21
79.5
  0
LINE
  8
0
  6
CONTINUOUS
 62
     7
 10
49.79291534423828
 20
59.77865600585938
 11
49.90713119506836
 21
59.89287567138672
  0
LINE
  8
0
  6
CONTINUOUS
 62
     7
 10
50.0000114440918
 20
77.99999237060547
 11
48.00002288818359
 21
79.99998474121094
  0
LINE
  8
0
  6
CONTINUOUS
 62
     7
 10
49.5
 20
59.07157897949219
 11
49.5
 21
16
  0
LINE
  8
0
  6
CONTINUOUS
 62
     7
 10
-48
 20
80
 11
-25.5
 21
80
  0
LINE
  8
0
  6
CONTINUOUS
 62
     7
 10
-49.79286956787109
 20
59.77865600585938
 11
-49.90711212158203
 21
59.89289855957031
  0
LINE
  8
0
  6
CONTINUOUS
 62
     7
 10
-10.5
 20
80
 11
10.5
 21
80
  0
LINE
  8
0
  6
CONTINUOUS
 62
     7
 10
-24.99996185302734
 20
79.49995422363281
 11
-25.4999942779541
 21
79.99999237060547
  0
LINE
  8
0
  6
CONTINUOUS
 62
     7
 10
-10.49997901916504
 20
79.99996948242188
 11
-10.99996852874756
 21
79.49997711181641
  0
LINE
  8
0
  6
CONTINUOUS
 62
     7
 10
25.0000057220459
 20
79.5
 11
25.5000171661377
 21
80.00000762939453
  0
LINE
  8
0
  6
CONTINUOUS
 62
     7
 10
10.50002193450928
 20
79.99996948242188
 11
11.0000114440918
 21
79.49997711181641
  0
LINE
  8
0
  6
CONTINUOUS
 62
     7
 10
25.5
 20
80
 11
48
 21
80
  0
LINE
  8
0
  6
CONTINUOUS
 62
     7
 10
-11
 20
79.5
 11
-25
 21
79.5
  0
LINE
  8
0
  6
DASHED
 62
     7
 10
-37.50000381469727
 20
54.99774551391602
 11
-32.29999160766602
 21
57.99997329711914
  0
LINE
  8
0
  6
DASHED
 62
     7
 10
-42.69997787475586
 20
60.61435317993164
 11
-43.49998092651367
 21
62
  0
LINE
  8
0
  6
DASHED
 62
     7
 10
-32.29998779296875
 20
58
 11
-42.70001220703125
 21
58
  0
LINE
  8
0
  6
DASHED
 62
     7
 10
-32.30000686645508
 20
60.61437606811523
 11
-31.5000114440918
 21
62.00000762939453
  0
LINE
  8
0
  6
DASHED
 62
     7
 10
-31.5
 20
62
 11
-43.5
 21
62
  0
LINE
  8
0
  6
CENTER
 62
     7
 10
-37.5
 20
81
 11
-37.5
 21
53.58699035644531
  0
LINE
  8
0
  6
DASHED
 62
     7
 10
-43.5
 20
80
 11
-43.5
 21
62
  0
LINE
  8
0
  6
DASHED
 62
     7
 10
-31.5
 20
80
 11
-31.5
 21
62
  0
LINE
  8
0
  6
DASHED
 62
     7
 10
-37.49998474121094
 20
54.99776840209961
 11
-42.69999313354492
 21
57.99999618530273
  0
LINE
  8
0
  6
DASHED
 62
     7
 10
-42.70001220703125
 20
80
 11
-42.70001220703125
 21
58
  0
LINE
  8
0
  6
DASHED
 62
     7
 10
-32.29998779296875
 20
80
 11
-32.29998779296875
 21
58
  0
LINE
  8
0
  6
CONTINUOUS
 62
     7
 10
445.5000610351563
 20
69
 11
445.5000610351563
 21
12.70001220703125
  0
LINE
  8
0
  6
CONTINUOUS
 62
     7
 10
274.5000610351563
 20
12.70001220703125
 11
294.5000610351563
 21
12.70001220703125
  0
LINE
  8
0
  6
CENTER
 62
     7
 10
258.6239624023438
 20
59
 11
278.9992065429688
 21
59
  0
LINE
  8
0
  6
CONTINUOUS
 62
     7
 10
262.9500427246094
 20
55.42000198364258
 11
262.5528869628906
 21
56.1927490234375
  0
LINE
  8
0
  6
CONTINUOUS
 62
     7
 10
267.5250854492188
 20
55.419921875
 11
262.9500732421875
 21
55.419921875
  0
LINE
  8
0
  6
CONTINUOUS
 62
     7
 10
269.3650207519531
 20
58.99998092651367
 11
267.5250244140625
 21
55.41997528076172
  0
LINE
  8
0
  6
CONTINUOUS
 62
     7
 10
268.489990234375
 20
58.99998474121094
 11
266.6499938964844
 21
55.42000579833984
  0
LINE
  8
0
  6
CONTINUOUS
 62
     7
 10
266.6500549316406
 20
62.57998275756836
 11
268.4900512695313
 21
58.99994659423828
  0
LINE
  8
0
  6
CONTINUOUS
 62
     7
 10
262.5528564453125
 20
61.80719757080078
 11
262.9500427246094
 21
62.5799674987793
  0
LINE
  8
0
  6
CONTINUOUS
 62
     7
 10
267.5250244140625
 20
62.57998657226563
 11
269.3650207519531
 21
58.99995040893555
  0
LINE
  8
0
  6
CONTINUOUS
 62
     7
 10
274.5000610351563
 20
53.146484375
 11
273.162109375
 21
53.146484375
  0
LINE
  8
0
  6
CONTINUOUS
 62
     7
 10
273.1620788574219
 20
53.14650344848633
 11
272.6000366210938
 21
54.11999130249023
  0
LINE
  8
0
  6
CONTINUOUS
 62
     7
 10
272.6000671386719
 20
63.87995147705078
 11
273.162109375
 21
64.85343933105469
  0
LINE
  8
0
  6
CONTINUOUS
 62
     7
 10
262.9500732421875
 20
62.5799560546875
 11
267.5250854492188
 21
62.5799560546875
  0
LINE
  8
0
  6
CONTINUOUS
 62
     7
 10
272.6000366210938
 20
54.199951171875
 11
265.1000366210938
 21
54.199951171875
  0
LINE
  8
0
  6
CONTINUOUS
 62
     7
 10
265.1000366210938
 20
63.7999267578125
 11
272.6000366210938
 21
63.7999267578125
  0
LINE
  8
0
  6
CONTINUOUS
 62
     7
 10
272.6000366210938
 20
63.87994384765625
 11
272.6000366210938
 21
54.199951171875
  0
LINE
  8
0
  6
CONTINUOUS
 62
     7
 10
273.162109375
 20
64.85345458984375
 11
274.5000610351563
 21
64.85345458984375
  0
LINE
  8
0
  6
CONTINUOUS
 62
     7
 10
445.5000610351563
 20
38
 11
570
 21
38
  0
LINE
  8
0
  6
CENTER
 62
     7
 10
282.0000610351563
 20
63
 11
287.0000610351563
 21
63
  0
LINE
  8
0
  6
CENTER
 62
     7
 10
279.9000854492188
 20
62
 11
289.1000366210938
 21
62
  0
LINE
  8
0
  6
CENTER
 62
     7
 10
284.5000610351563
 20
66.5999755859375
 11
284.5000610351563
 21
57.4000244140625
  0
LINE
  8
0
  6
CONTINUOUS
 62
     7
 10
274.5000610351563
 20
69
 11
294.5000610351563
 21
69
  0
LINE
  8
0
  6
CONTINUOUS
 62
     7
 10
274.5000610351563
 20
69
 11
274.5000610351563
 21
12.70001220703125
  0
LINE
  8
0
  6
CONTINUOUS
 62
     7
 10
150
 20
0
 11
570
 21
0
  0
LINE
  8
0
  6
CONTINUOUS
 62
     7
 10
150
 20
38
 11
274.5000610351563
 21
38
  0
LINE
  8
0
  6
CONTINUOUS
 62
     7
 10
445.5000610351563
 20
69
 11
425.5000305175781
 21
69
  0
LINE
  8
0
  6
CENTER
 62
     7
 10
435.5000610351563
 20
66.5999755859375
 11
435.5000610351563
 21
57.4000244140625
  0
LINE
  8
0
  6
CENTER
 62
     7
 10
440.1000366210938
 20
62
 11
430.9000549316406
 21
62
  0
LINE
  8
0
  6
CENTER
 62
     7
 10
438.0000610351563
 20
63
 11
433.0000305175781
 21
63
  0
LINE
  8
0
  6
CONTINUOUS
 62
     7
 10
445.5000610351563
 20
12.70001220703125
 11
425.5000305175781
 21
12.70001220703125
  0
LINE
  8
0
  6
CONTINUOUS
 62
     7
 10
295.5
 20
79.99996185302734
 11
294.5
 21
78.99997711181641
  0
LINE
  8
0
  6
CONTINUOUS
 62
     7
 10
425.4999389648438
 20
79
 11
425.4999389648438
 21
12.70001220703125
  0
LINE
  8
0
  6
CONTINUOUS
 62
     7
 10
294.5000610351563
 20
79.00006103515625
 11
294.5000610351563
 21
12.70001220703125
  0
LINE
  8
0
  6
CONTINUOUS
 62
     7
 10
294.5000610351563
 20
13
 11
425.4999389648438
 21
13
  0
LINE
  8
0
  6
CONTINUOUS
 62
     7
 10
424.4999694824219
 20
79.99999237060547
 11
425.5
 21
78.99996948242188
  0
LINE
  8
0
  6
CONTINUOUS
 62
     7
 10
295.4999389648438
 20
80
 11
424.4999389648438
 21
80
  0
LINE
  8
0
  6
CONTINUOUS
 62
     7
 10
50.0000114440918
 20
77.99999237060547
 11
50.0000114440918
 21
60.00000762939453
  0
LINE
  8
0
  6
CONTINUOUS
 62
     7
 10
47
 20
69
 11
-47
 21
69
  0
LINE
  8
0
  6
CONTINUOUS
 62
     7
 10
-25.99998474121094
 20
18.86395454406738
 11
-32.16394424438477
 21
12.69999694824219
  0
LINE
  8
0
  6
CONTINUOUS
 62
     7
 10
-26
 20
22.13603210449219
 11
-26
 21
18.86395263671875
  0
LINE
  8
0
  6
CONTINUOUS
 62
     7
 10
-25.99998474121094
 20
22.13604927062988
 11
-30.99996757507324
 21
27.13603210449219
  0
LINE
  8
0
  6
CONTINUOUS
 62
     7
 10
-31
 20
35.80413818359375
 11
-31
 21
27.13603210449219
  0
LINE
  8
0
  6
CONTINUOUS
 62
     7
 10
-24.30411911010742
 20
42.49998092651367
 11
-31.0000114440918
 21
35.8040885925293
  0
LINE
  8
0
  6
CONTINUOUS
 62
     7
 10
24.30413818359375
 20
42.5
 11
-24.30413818359375
 21
42.5
  0
LINE
  8
0
  6
CONTINUOUS
 62
     7
 10
-49
 20
66.99997711181641
 11
-49
 21
14.69995880126953
  0
LINE
  8
0
  6
CONTINUOUS
 62
     7
 10
-47.00001525878906
 20
68.99996185302734
 11
-49.00001525878906
 21
66.99996185302734
  0
LINE
  8
0
  6
CENTER
 62
     7
 10
-28
 20
57
 11
-40
 21
57
  0
LINE
  8
0
  6
CENTER
 62
     7
 10
-34
 20
63
 11
-34
 21
51
  0
LINE
  8
0
  6
CONTINUOUS
 62
     7
 10
-25.79998207092285
 20
12.69999694824219
 11
-47
 21
12.69999694824219
  0
LINE
  8
0
  6
CONTINUOUS
 62
     7
 10
-49.00001525878906
 20
14.69999504089356
 11
-47.0000114440918
 21
12.69999217987061
  0
LINE
  8
0
  6
CENTER
 62
     7
 10
37.5
 20
81
 11
37.5
 21
53.58699035644531
  0
LINE
  8
0
  6
CENTER
 62
     7
 10
-6.817865371704102
 20
59
 11
14.146559715271
 21
59
  0
LINE
  8
0
  6
CONTINUOUS
 62
     7
 10
2.616576194763184
 20
62.5
 11
6.696562767028809
 21
62.5
  0
LINE
  8
0
  6
CONTINUOUS
 62
     7
 10
2.616576194763184
 20
55.5
 11
6.696562767028809
 21
55.5
  0
LINE
  8
0
  6
CONTINUOUS
 62
     7
 10
1.966568470001221
 20
58.99995422363281
 11
2.616562128067017
 21
55.49995422363281
  0
LINE
  8
0
  6
CONTINUOUS
 62
     7
 10
1.966565608978272
 20
58.99997329711914
 11
2.616556644439697
 21
62.49995803833008
  0
LINE
  8
0
  6
CONTINUOUS
 62
     7
 10
4.276581764221191
 20
58.99995040893555
 11
4.926592826843262
 21
55.49993896484375
  0
LINE
  8
0
  6
CONTINUOUS
 62
     7
 10
4.276551723480225
 20
58.99996185302734
 11
4.926563262939453
 21
62.49997711181641
  0
LINE
  8
0
  6
CONTINUOUS
 62
     7
 10
6.786579608917236
 20
55.969970703125
 11
6.696567535400391
 21
55.49996566772461
  0
LINE
  8
0
  6
CONTINUOUS
 62
     7
 10
6.786597728729248
 20
62.01998901367188
 11
6.696589946746826
 21
62.49998092651367
  0
LINE
  8
0
  6
CONTINUOUS
 62
     7
 10
8.60252571105957
 20
55.75428009033203
 11
11.35655784606934
 21
56.49995803833008
  0
LINE
  8
0
  6
CONTINUOUS
 62
     7
 10
8.586551666259766
 20
62.2499885559082
 11
11.35656356811523
 21
61.4999885559082
  0
LINE
  8
0
  6
CONTINUOUS
 62
     7
 10
-5.000020027160645
 20
56.11325073242188
 11
-2.692134512471966E-005
 21
53.22650527954102
  0
LINE
  8
0
  6
CONTINUOUS
 62
     7
 10
-4.999999046325684
 20
61.88673400878906
 11
-4.999999046325684
 21
56.11326599121094
  0
LINE
  8
0
  6
CONTINUOUS
 62
     7
 10
-3.508026202325709E-005
 20
64.77346801757813
 11
-5.000031471252441
 21
61.88671493530273
  0
LINE
  8
0
  6
CONTINUOUS
 62
     7
 10
3.937794923782349
 20
62.49998474121094
 11
3.596546594053507E-005
 21
64.77345275878906
  0
LINE
  8
0
  6
CONTINUOUS
 62
     7
 10
1.878088005469181E-005
 20
53.22652816772461
 11
3.937779426574707
 21
55.49999237060547
  0
LINE
  8
0
  6
DASHED
 62
     7
 10
327.699951171875
 20
80
 11
327.699951171875
 21
58
  0
LINE
  8
0
  6
DASHED
 62
     7
 10
317.2999267578125
 20
80
 11
317.2999267578125
 21
58
  0
LINE
  8
0
  6
DASHED
 62
     7
 10
322.4999389648438
 20
54.99776458740234
 11
317.2999267578125
 21
57.99999237060547
  0
LINE
  8
0
  6
DASHED
 62
     7
 10
328.4999389648438
 20
80
 11
328.4999389648438
 21
62
  0
LINE
  8
0
  6
DASHED
 62
     7
 10
316.4999389648438
 20
80
 11
316.4999389648438
 21
62
  0
LINE
  8
0
  6
CENTER
 62
     7
 10
322.4999389648438
 20
81
 11
322.4999389648438
 21
53.58699035644531
  0
LINE
  8
0
  6
DASHED
 62
     7
 10
328.4999389648438
 20
62
 11
316.4999389648438
 21
62
  0
LINE
  8
0
  6
DASHED
 62
     7
 10
327.6999206542969
 20
60.61437225341797
 11
328.4999084472656
 21
62.00000381469727
  0
LINE
  8
0
  6
DASHED
 62
     7
 10
327.699951171875
 20
58
 11
317.2999267578125
 21
58
  0
LINE
  8
0
  6
DASHED
 62
     7
 10
317.2999572753906
 20
60.61436080932617
 11
316.4999694824219
 21
62.00000762939453
  0
LINE
  8
0
  6
DASHED
 62
     7
 10
322.4999389648438
 20
54.99775695800781
 11
327.699951171875
 21
57.99998474121094
  0
LINE
  8
0
  6
CENTER
 62
     7
 10
397.5000610351563
 20
81
 11
397.5000610351563
 21
53.58699035644531
  0
LINE
  8
0
  6
CONTINUOUS
 62
     7
 10
294.5000610351563
 20
59.58578491210938
 11
425.4999389648438
 21
59.58578491210938
  0
LINE
  8
0
  6
CONTINUOUS
 62
     7
 10
150
 20
38
 11
150
 21
0
  0
LINE
  8
0
  6
CONTINUOUS
 62
     7
 10
570
 20
38
 11
570
 21
0
  0
LINE
  8
0
  6
CENTER
 62
     7
 10
180
 20
39
 11
180
 21
-1
  0
LINE
  8
0
  6
DASHED
 62
     7
 10
172
 20
18
 11
172
 21
0
  0
LINE
  8
0
  6
DASHED
 62
     7
 10
168.5
 20
38
 11
168.5
 21
18
  0
LINE
  8
0
  6
DASHED
 62
     7
 10
191.5
 20
18
 11
168.5
 21
18
  0
LINE
  8
0
  6
DASHED
 62
     7
 10
191.5
 20
38
 11
191.5
 21
18
  0
LINE
  8
0
  6
DASHED
 62
     7
 10
188
 20
18
 11
188
 21
0
  0
LINE
  8
0
  6
CENTER
 62
     7
 10
540
 20
39
 11
540
 21
-1
  0
LINE
  8
0
  6
CENTER
 62
     7
 10
300
 20
14
 11
300
 21
-1
  0
LINE
  8
0
  6
CENTER
 62
     7
 10
420
 20
14
 11
420
 21
-1
  0
LINE
  8
0
  6
CENTER
 62
     7
 10
149
 20
250
 11
571
 21
250
  0
LINE
  8
0
  6
CONTINUOUS
 62
     7
 10
150
 20
223.5
 11
274.5000610351563
 21
223.5
  0
LINE
  8
0
  6
CONTINUOUS
 62
     7
 10
150
 20
227.3035888671875
 11
274.5000610351563
 21
227.3035888671875
  0
LINE
  8
0
  6
CENTER
 62
     7
 10
180
 20
262.5
 11
180
 21
237.5
  0
LINE
  8
0
  6
CONTINUOUS
 62
     7
 10
274.5000610351563
 20
201
 11
294.5000610351563
 21
201
  0
LINE
  8
0
  6
CONTINUOUS
 62
     7
 10
294.5000610351563
 20
199.9999847412109
 11
425.4999389648438
 21
199.9999847412109
  0
LINE
  8
0
  6
CENTER
 62
     7
 10
322.4999389648438
 20
219.5
 11
322.4999389648438
 21
205.5
  0
LINE
  8
0
  6
CENTER
 62
     7
 10
315.4999389648438
 20
212.5
 11
329.4999389648438
 21
212.5
  0
LINE
  8
0
  6
CONTINUOUS
 62
     7
 10
570
 20
276.5
 11
570
 21
223.5
  0
LINE
  8
0
  6
CONTINUOUS
 62
     7
 10
570
 20
223.5
 11
445.4999389648438
 21
223.5
  0
LINE
  8
0
  6
CONTINUOUS
 62
     7
 10
570
 20
227.3035888671875
 11
445.4999389648438
 21
227.3035888671875
  0
LINE
  8
0
  6
CONTINUOUS
 62
     7
 10
445.4999389648438
 20
201
 11
425.4999389648438
 21
201
  0
LINE
  8
0
  6
CENTER
 62
     7
 10
397.5000610351563
 20
219.5
 11
397.5000610351563
 21
205.5
  0
LINE
  8
0
  6
CENTER
 62
     7
 10
404.5000610351563
 20
212.5
 11
390.5000610351563
 21
212.5
  0
LINE
  8
0
  6
CONTINUOUS
 62
     7
 10
150
 20
223.5
 11
150
 21
276.5
  0
LINE
  8
0
  6
CONTINUOUS
 62
     7
 10
150
 20
276.5
 11
274.5000610351563
 21
276.5
  0
LINE
  8
0
  6
CONTINUOUS
 62
     7
 10
150
 20
272.6964111328125
 11
274.5000610351563
 21
272.6964111328125
  0
LINE
  8
0
  6
CONTINUOUS
 62
     7
 10
294.5000610351563
 20
199.9999847412109
 11
294.5000610351563
 21
300
  0
LINE
  8
0
  6
CONTINUOUS
 62
     7
 10
274.5000610351563
 20
201
 11
274.5000610351563
 21
299
  0
LINE
  8
0
  6
CONTINUOUS
 62
     7
 10
274.5000610351563
 20
299
 11
294.5000610351563
 21
299
  0
LINE
  8
0
  6
CONTINUOUS
 62
     7
 10
294.5000610351563
 20
300
 11
425.4999389648438
 21
300
  0
LINE
  8
0
  6
CENTER
 62
     7
 10
322.4999389648438
 20
280.5
 11
322.4999389648438
 21
294.5
  0
LINE
  8
0
  6
CENTER
 62
     7
 10
315.4999389648438
 20
287.5
 11
329.4999389648438
 21
287.5
  0
LINE
  8
0
  6
CONTINUOUS
 62
     7
 10
570
 20
276.5
 11
445.4999389648438
 21
276.5
  0
LINE
  8
0
  6
CONTINUOUS
 62
     7
 10
570
 20
272.6964111328125
 11
445.4999389648438
 21
272.6964111328125
  0
LINE
  8
0
  6
CONTINUOUS
 62
     7
 10
425.4999389648438
 20
199.9999847412109
 11
425.4999389648438
 21
300
  0
LINE
  8
0
  6
CONTINUOUS
 62
     7
 10
445.4999389648438
 20
201
 11
445.4999389648438
 21
299
  0
LINE
  8
0
  6
CONTINUOUS
 62
     7
 10
445.4999389648438
 20
299
 11
425.4999389648438
 21
299
  0
LINE
  8
0
  6
CENTER
 62
     7
 10
397.5000610351563
 20
280.5
 11
397.5000610351563
 21
294.5
  0
LINE
  8
0
  6
CENTER
 62
     7
 10
404.5000610351563
 20
287.5
 11
390.5000610351563
 21
287.5
  0
LINE
  8
0
  6
CONTINUOUS
 62
     7
 10
294.5000610351563
 20
275.5
 11
425.4999389648438
 21
275.5
  0
LINE
  8
0
  6
CONTINUOUS
 62
     7
 10
294.5000610351563
 20
260.5
 11
425.4999389648438
 21
260.5
  0
LINE
  8
0
  6
CONTINUOUS
 62
     7
 10
294.5000610351563
 20
239.5
 11
425.4999389648438
 21
239.5
  0
LINE
  8
0
  6
CONTINUOUS
 62
     7
 10
294.5000610351563
 20
224.5
 11
425.4999389648438
 21
224.5
  0
LINE
  8
0
  6
CENTER
 62
     7
 10
300
 20
262.5
 11
300
 21
237.5
  0
LINE
  8
0
  6
CENTER
 62
     7
 10
420
 20
262.5
 11
420
 21
237.5
  0
LINE
  8
0
  6
CENTER
 62
     7
 10
540
 20
262.5
 11
540
 21
237.5
  0
LINE
  8
0
  6
CENTER
 62
     7
 10
262.2629089355469
 20
236.9113464355469
 11
267.8418579101563
 21
250.3800811767578
  0
LINE
  8
0
  6
CONTINUOUS
 62
     7
 10
260.68310546875
 20
239.3688049316406
 11
265.1177062988281
 21
237.5319366455078
  0
LINE
  8
0
  6
CONTINUOUS
 62
     7
 10
260.8848571777344
 20
242.2077026367188
 11
266.9824523925781
 21
239.6820068359375
  0
LINE
  8
0
  6
CONTINUOUS
 62
     7
 10
260.68310546875
 20
239.3688201904297
 11
260.8848876953125
 21
242.2077331542969
  0
LINE
  8
0
  6
CONTINUOUS
 62
     7
 10
265.1177673339844
 20
237.5319519042969
 11
266.9824829101563
 21
239.6820068359375
  0
LINE
  8
0
  6
CONTINUOUS
 62
     7
 10
261.6235656738281
 20
245.9285736083984
 11
262.0382385253906
 21
246.9296569824219
  0
LINE
  8
0
  6
CONTINUOUS
 62
     7
 10
269.0911865234375
 20
242.8354187011719
 11
269.5058288574219
 21
243.8364562988281
  0
LINE
  8
0
  6
CONTINUOUS
 62
     7
 10
262.8176879882813
 20
247.2524566650391
 11
262.0382385253906
 21
246.9295959472656
  0
LINE
  8
0
  6
CONTINUOUS
 62
     7
 10
263.2608642578125
 20
244.6010131835938
 11
264.1334533691406
 21
246.7075347900391
  0
LINE
  8
0
  6
CONTINUOUS
 62
     7
 10
266.9946899414063
 20
243.0544586181641
 11
267.8672180175781
 21
245.1609497070313
  0
LINE
  8
0
  6
CONTINUOUS
 62
     7
 10
262.1788330078125
 20
247.5171661376953
 11
269.1829833984375
 21
244.6159515380859
  0
LINE
  8
0
  6
CONTINUOUS
 62
     7
 10
269.505859375
 20
243.83642578125
 11
269.1829833984375
 21
244.6158905029297
  0
LINE
  8
0
  6
CONTINUOUS
 62
     7
 10
262.01513671875
 20
243.6298828125
 11
267.1888427734375
 21
241.4868469238281
  0
LINE
  8
0
  6
CONTINUOUS
 62
     7
 10
272.6000671386719
 20
255
 11
272.6000671386719
 21
245
  0
LINE
  8
0
  6
CONTINUOUS
 62
     7
 10
262.1000671386719
 20
251.7999877929688
 11
262.1000671386719
 21
248.1452941894531
  0
LINE
  8
0
  6
CONTINUOUS
 62
     7
 10
272.6000671386719
 20
255
 11
274.5000610351563
 21
255
  0
LINE
  8
0
  6
CONTINUOUS
 62
     7
 10
265.1000671386719
 20
254.7999877929688
 11
272.6000671386719
 21
254.7999877929688
  0
LINE
  8
0
  6
CONTINUOUS
 62
     7
 10
267.77294921875
 20
245.1999969482422
 11
272.6000671386719
 21
245.1999969482422
  0
LINE
  8
0
  6
CONTINUOUS
 62
     7
 10
272.6000671386719
 20
245
 11
274.5000610351563
 21
245
  0
LINE
  8
0
  6
CONTINUOUS
 62
     7
 10
261.8533630371094
 20
245.1840057373047
 11
268.4022216796875
 21
242.471435546875
  0
LINE
  8
0
  6
CONTINUOUS
 62
     7
 10
150
 20
34.00553512573242
 11
274.5000610351563
 21
34.00553512573242
  0
LINE
  8
0
  6
CONTINUOUS
 62
     7
 10
150
 20
28.99446487426758
 11
274.5000610351563
 21
28.99446487426758
  0
LINE
  8
0
  6
CONTINUOUS
 62
     7
 10
150
 20
23.99994087219238
 11
274.5000610351563
 21
23.99994087219238
  0
LINE
  8
0
  6
CONTINUOUS
 62
     7
 10
150
 20
16.99997901916504
 11
274.5000610351563
 21
16.99997901916504
  0
LINE
  8
0
  6
CONTINUOUS
 62
     7
 10
150
 20
11.99997901916504
 11
570
 21
11.99997901916504
  0
LINE
  8
0
  6
CONTINUOUS
 62
     7
 10
445.5000610351563
 20
34.00553512573242
 11
570
 21
34.00553512573242
  0
LINE
  8
0
  6
CONTINUOUS
 62
     7
 10
445.5000610351563
 20
28.99446487426758
 11
570
 21
28.99446487426758
  0
LINE
  8
0
  6
CONTINUOUS
 62
     7
 10
445.5000610351563
 20
23.99994087219238
 11
570
 21
23.99994087219238
  0
LINE
  8
0
  6
CONTINUOUS
 62
     7
 10
445.5000610351563
 20
16.99997901916504
 11
570
 21
16.99997901916504
  0
ARC
  8
0
  6
CONTINUOUS
 62
     7
 10
7.33135986328125
 20
-0.3000030517578125
 40
0.800000011920929
 50
90.00000250447819
 51
135.0000003416227
  0
ARC
  8
0
  6
CONTINUOUS
 62
     7
 10
14.66864013671875
 20
-0.3000030517578125
 40
0.8000000119209287
 50
45.0000012522391
 51
90.00000250447812
  0
ARC
  8
0
  6
CONTINUOUS
 62
     7
 10
22.5
 20
23.58578491210938
 40
1
 50
135.0000003416226
 51
180.0000050089563
  0
ARC
  8
0
  6
CONTINUOUS
 62
     7
 10
22.23309326171875
 20
37.5
 40
0.5000000000000016
 50
7.329365861540283
 51
90.00000250447806
  0
ARC
  8
0
  6
CONTINUOUS
 62
     7
 10
26
 20
29.43672180175781
 40
0.5000000000000004
 50
279.8544509960435
 51
0
  0
ARC
  8
0
  6
CONTINUOUS
 62
     7
 10
22.224853515625
 20
25.43193054199219
 40
0.4999999999999991
 50
314.9999987477608
 51
353.5265204475991
  0
ARC
  8
0
  6
CONTINUOUS
 62
     7
 10
26
 20
33.56327819824219
 40
0.5
 50
0
 51
80.14554900395649
  0
ARC
  8
0
  6
CONTINUOUS
 62
     7
 10
22.5
 20
17.41421508789063
 40
1.000000000000001
 50
179.999991348578
 51
224.9999960159116
  0
ARC
  8
0
  6
CONTINUOUS
 62
     7
 10
26.7855224609375
 20
24.91444396972656
 40
4.089999675750732
 50
99.854456005
 51
173.5265156381583
  0
ARC
  8
0
  6
CONTINUOUS
 62
     7
 10
26.7855224609375
 20
38.08555603027344
 40
4.089999675750734
 50
187.3293617063576
 51
260.145543995
  0
ARC
  8
0
  6
CONTINUOUS
 62
     7
 10
-7.33135986328125
 20
-0.3000030517578125
 40
0.8000000119209287
 50
45.0000012522391
 51
90.00000250447819
  0
ARC
  8
0
  6
CONTINUOUS
 62
     7
 10
-14.66864013671875
 20
-0.3000030517578125
 40
0.800000011920929
 50
90.00000250447812
 51
135.0000003416226
  0
ARC
  8
0
  6
CONTINUOUS
 62
     7
 10
-26
 20
29.43672180175781
 40
0.4999999999999986
 50
179.9999913485778
 51
260.1455403525345
  0
ARC
  8
0
  6
CONTINUOUS
 62
     7
 10
-22.2330322265625
 20
37.5
 40
0.5000000000000004
 50
90.00000250447806
 51
172.6706382936428
  0
ARC
  8
0
  6
CONTINUOUS
 62
     7
 10
-25.5
 20
11.58578491210938
 40
1
 50
135.0000003416226
 51
180.0000050089563
  0
ARC
  8
0
  6
CONTINUOUS
 62
     7
 10
-22.5
 20
23.58578491210938
 40
1
 50
0
 51
45.00000125223906
  0
ARC
  8
0
  6
CONTINUOUS
 62
     7
 10
-22.22479248046875
 20
25.43193054199219
 40
0.5000000000000016
 50
186.4734843618416
 51
224.9999996583772
  0
ARC
  8
0
  6
CONTINUOUS
 62
     7
 10
-22.5
 20
17.41421508789063
 40
1.000000000000001
 50
314.999998747761
 51
0
  0
ARC
  8
0
  6
CONTINUOUS
 62
     7
 10
-26
 20
33.56327819824219
 40
0.4999999999999972
 50
99.85445600500009
 51
180.0000050089561
  0
ARC
  8
0
  6
CONTINUOUS
 62
     7
 10
-26.78558349609375
 20
24.91444396972656
 40
4.089999675750733
 50
6.473479552401084
 51
80.14554900395633
  0
ARC
  8
0
  6
CONTINUOUS
 62
     7
 10
-26.78558349609375
 20
38.08555603027344
 40
4.089999675750731
 50
279.8544509960437
 51
352.6706341384597
  0
ARC
  8
0
  6
CONTINUOUS
 62
     7
 10
25.5
 20
11.58578491210938
 40
1
 50
0
 51
45.00000125223906
  0
ARC
  8
0
  6
CONTINUOUS
 62
     7
 10
-50.5
 20
59.07157897949219
 40
1
 50
0
 51
45.0000012522392
  0
ARC
  8
0
  6
CONTINUOUS
 62
     7
 10
-49.20001220703125
 20
60.60000610351563
 40
1.000000000000001
 50
216.869902545906
 51
224.9999996583772
  0
ARC
  8
0
  6
CONTINUOUS
 62
     7
 10
50.5
 20
59.07157897949219
 40
0.9999999999999981
 50
135.0000003416228
 51
180.0000050089561
  0
ARC
  8
0
  6
CONTINUOUS
 62
     7
 10
49.20001220703125
 20
60.60000610351563
 40
0.9999999999999982
 50
314.9999987477608
 51
323.1301026904214
  0
ARC
  8
0
  6
CONTINUOUS
 62
     7
 10
46.5
 20
16
 40
3
 50
288.5950372467198
 51
6.785183320455502E-014
  0
ARC
  8
0
  6
CONTINUOUS
 62
     7
 10
-46.5
 20
16
 40
2.999999999999999
 50
179.999991348578
 51
251.4049745924258
  0
ARC
  8
0
  6
CONTINUOUS
 62
     7
 10
265.1000366210938
 20
57.199951171875
 40
2.999999999999977
 50
195.6428630584221
 51
270.0000726276024
  0
ARC
  8
0
  6
CONTINUOUS
 62
     7
 10
265.1000366210938
 20
60.7999267578125
 40
2.999999999999999
 50
89.99998201391097
 51
165.8646416536697
  0
CIRCLE
  8
0
  6
CONTINUOUS
 62
     7
 10
284.5000610351563
 20
63
 40
1.5
  0
CIRCLE
  8
0
  6
CONTINUOUS
 62
     7
 10
284.5000610351563
 20
62
 40
2.599999904632568
  0
CIRCLE
  8
0
  6
CONTINUOUS
 62
     7
 10
-34
 20
57
 40
2.149999856948853
  0
ARC
  8
0
  6
CONTINUOUS
 62
     7
 10
8.446578025817871
 20
56.70999145507813
 40
0.9683421850204466
 50
215.3314570768741
 51
278.297222506794
  0
ARC
  8
0
  6
CONTINUOUS
 62
     7
 10
7.456587791442871
 20
54.91999816894531
 40
1.246148109436035
 50
80.76452806729958
 51
142.1250351177264
  0
ARC
  8
0
  6
CONTINUOUS
 62
     7
 10
7.456587791442871
 20
63.08000183105469
 40
1.254199028015138
 50
217.8749648822736
 51
279.2353626496737
  0
ARC
  8
0
  6
CONTINUOUS
 62
     7
 10
8.446578025817871
 20
61.28999328613281
 40
0.9701611399650598
 50
81.70288677623263
 51
144.668542923126
  0
ARC
  8
0
  6
CONTINUOUS
 62
     7
 10
0
 20
59
 40
4.79999923706055
 50
46.95109601507203
 51
313.1834072577874
  0
CIRCLE
  8
0
  6
CONTINUOUS
 62
     7
 10
180
 20
250
 40
8
  0
CIRCLE
  8
0
  6
CONTINUOUS
 62
     7
 10
180
 20
250
 40
11.5
  0
CIRCLE
  8
0
  6
CONTINUOUS
 62
     7
 10
322.4999389648438
 20
212.5
 40
5.20001220703125
  0
CIRCLE
  8
0
  6
CONTINUOUS
 62
     7
 10
322.4999389648438
 20
212.5
 40
6
  0
ARC
  8
0
  6
CONTINUOUS
 62
     7
 10
263.9336547851563
 20
240.9449005126953
 40
3.299999237060546
 50
131.5803705110077
 51
157.4999548639651
  0
ARC
  8
0
  6
CONTINUOUS
 62
     7
 10
263.9336547851563
 20
240.9449005126953
 40
3.299999237060545
 50
337.5000181569009
 51
3.419602296415157
  0
ARC
  8
0
  6
CONTINUOUS
 62
     7
 10
256.0173034667969
 20
243.7909851074219
 40
6.00000000000001
 50
2.43365082934552
 51
20.87173987704925
  0
ARC
  8
0
  6
CONTINUOUS
 62
     7
 10
271.5438537597656
 20
237.3596801757813
 40
6.000000000000011
 50
114.1278165022775
 51
132.566321978077
  0
ARC
  8
0
  6
CONTINUOUS
 62
     7
 10
261.2126159667969
 20
244.0117950439453
 40
0.7999999523162822
 50
311.5798327472963
 51
2.433049772698627
  0
ARC
  8
0
  6
CONTINUOUS
 62
     7
 10
268.0263671875
 20
241.189453125
 40
0.7999999523162747
 50
132.5669776762372
 51
183.4201402735693
  0
ARC
  8
0
  6
CONTINUOUS
 62
     7
 10
265.1000671386719
 20
251.7999877929688
 40
3.000000000000006
 50
89.99998201391097
 51
179.9999640278214
  0
ARC
  8
0
  6
CONTINUOUS
 62
     7
 10
265.1000671386719
 20
248.2000122070313
 40
3
 50
180.000090613692
 51
193.1569474081041
  0
POLYLINE
  8
0
  6
CONTINUOUS
 62
     7
 66
     1
 10
0
 20
0
  0
VERTEX
  8
0
  6
CONTINUOUS
 62
     7
 10
261.9183999235441
 20
61.26086620830619
 42
-0.0632732510952889
  0
VERTEX
  8
0
  6
CONTINUOUS
 62
     7
 10
262.5109849822342
 20
61.77974365077954
 42
-0.07413369059246237
  0
VERTEX
  8
0
  6
CONTINUOUS
 62
     7
 10
263.2223006218629
 20
62.11854036980891
 42
-0.06380929331025351
  0
VERTEX
  8
0
  6
CONTINUOUS
 62
     7
 10
263.9999389648438
 20
62.25
 42
0
  0
SEQEND
  8
0
  0
POLYLINE
  8
0
  6
CONTINUOUS
 62
     7
 66
     1
 10
0
 20
0
  0
VERTEX
  8
0
  6
CONTINUOUS
 62
     7
 10
261.776053628127
 20
56.81888690961709
 42
0.06283199351545475
  0
VERTEX
  8
0
  6
CONTINUOUS
 62
     7
 10
262.3403524020931
 20
56.29271480481332
 42
0.06649698735365081
  0
VERTEX
  8
0
  6
CONTINUOUS
 62
     7
 10
263.0203526953574
 20
55.92821010877083
 42
0.06915552561187242
  0
VERTEX
  8
0
  6
CONTINUOUS
 62
     7
 10
263.772707275354
 20
55.75935138553344
 42
0.06975293173571406
  0
VERTEX
  8
0
  6
CONTINUOUS
 62
     7
 10
264.5414621129318
 20
55.80334937655008
 42
0.06816347198770568
  0
VERTEX
  8
0
  6
CONTINUOUS
 62
     7
 10
265.2693055167466
 20
56.05517100639409
 42
0.06499585797235263
  0
VERTEX
  8
0
  6
CONTINUOUS
 62
     7
 10
265.9058711980621
 20
56.49000238078212
 42
0.06129087177914851
  0
VERTEX
  8
0
  6
CONTINUOUS
 62
     7
 10
266.4139287284419
 20
57.07010328084568
 42
0.05807959293254432
  0
VERTEX
  8
0
  6
CONTINUOUS
 62
     7
 10
266.7709259459903
 20
57.75409712812108
 42
0.05590537613230794
  0
VERTEX
  8
0
  6
CONTINUOUS
 62
     7
 10
266.9645847815722
 20
58.50124098921482
 42
0.05496388169953396
  0
VERTEX
  8
0
  6
CONTINUOUS
 62
     7
 10
266.9895996759285
 20
59.27196343145295
 42
0.0554738121779013
  0
VERTEX
  8
0
  6
CONTINUOUS
 62
     7
 10
266.8455206112636
 20
60.02985265220379
 42
0.05728032060171394
  0
VERTEX
  8
0
  6
CONTINUOUS
 62
     7
 10
266.5361111572372
 20
60.73629435916578
 42
0.06026819124039505
  0
VERTEX
  8
0
  6
CONTINUOUS
 62
     7
 10
266.0708725795058
 20
61.35160364037518
 42
0.06395235975529422
  0
VERTEX
  8
0
  6
CONTINUOUS
 62
     7
 10
265.468666602088
 20
61.83398267609319
 42
0.06744492852240325
  0
VERTEX
  8
0
  6
CONTINUOUS
 62
     7
 10
264.7620096504407
 20
62.14344526645493
 42
0.069441623413231
  0
VERTEX
  8
0
  6
CONTINUOUS
 62
     7
 10
264.0001220703125
 20
62.25
 42
0
  0
SEQEND
  8
0
  0
POLYLINE
  8
0
  6
CONTINUOUS
 62
     7
 66
     1
 10
0
 20
0
  0
VERTEX
  8
0
  6
CONTINUOUS
 62
     7
 10
261.9000854492188
 20
56.760009765625
 42
0.06376666918791656
  0
VERTEX
  8
0
  6
CONTINUOUS
 62
     7
 10
262.4956215108093
 20
56.2306304498094
 42
0.07497192465482457
  0
VERTEX
  8
0
  6
CONTINUOUS
 62
     7
 10
263.2135396372439
 20
55.88416726528766
 42
0.06461831454285447
  0
VERTEX
  8
0
  6
CONTINUOUS
 62
     7
 10
264.0001220703125
 20
55.75
 42
0
  0
SEQEND
  8
0
  0
POLYLINE
  8
0
  6
CONTINUOUS
 62
     7
 66
     1
 10
0
 20
0
 70
     1
  0
VERTEX
  8
0
  6
CONTINUOUS
 62
     7
 10
262.9000244140625
 20
61.5
 42
0.1103772078321347
  0
VERTEX
  8
0
  6
CONTINUOUS
 62
     7
 10
261.9878644122362
 20
61.29498465696481
 42
0.1025067993318719
  0
VERTEX
  8
0
  6
CONTINUOUS
 62
     7
 10
261.2405273139563
 20
60.73097678525971
 42
0.09329107422449907
  0
VERTEX
  8
0
  6
CONTINUOUS
 62
     7
 10
260.7629223697251
 20
59.92408181227937
 42
0.08781964652972227
  0
VERTEX
  8
0
  6
CONTINUOUS
 62
     7
 10
260.6000366210938
 20
59
 42
0.08777399850834025
  0
VERTEX
  8
0
  6
CONTINUOUS
 62
     7
 10
260.7627681287644
 20
58.07638047691204
 42
0.09325939898245642
  0
VERTEX
  8
0
  6
CONTINUOUS
 62
     7
 10
261.2400708835722
 20
57.26957483921787
 42
0.1026283722040891
  0
VERTEX
  8
0
  6
CONTINUOUS
 62
     7
 10
261.9882780041041
 20
56.7048393604063
 42
0.1103337626545933
  0
VERTEX
  8
0
  6
CONTINUOUS
 62
     7
 10
262.9000854492188
 20
56.49999999999999
 42
0.1103771867144881
  0
VERTEX
  8
0
  6
CONTINUOUS
 62
     7
 10
263.8122455112097
 20
56.70501509376318
 42
0.1025068436089014
  0
VERTEX
  8
0
  6
CONTINUOUS
 62
     7
 10
264.5595827289127
 20
57.26902279823098
 42
0.09329113400872735
  0
VERTEX
  8
0
  6
CONTINUOUS
 62
     7
 10
265.0371876692916
 20
58.07591776493438
 42
0.08781971463417115
  0
VERTEX
  8
0
  6
CONTINUOUS
 62
     7
 10
265.2000732421875
 20
59
 42
0.0877739941846328
  0
VERTEX
  8
0
  6
CONTINUOUS
 62
     7
 10
265.0373413642485
 20
59.923619457648
 42
0.09325932743991081
  0
VERTEX
  8
0
  6
CONTINUOUS
 62
     7
 10
264.5600384109761
 20
60.73042498708426
 42
0.1026283027841564
  0
VERTEX
  8
0
  6
CONTINUOUS
 62
     7
 10
263.8118313125626
 20
61.29516052398393
 42
0.1103337535348348
  0
SEQEND
  8
0
  0
POLYLINE
  8
0
  6
CONTINUOUS
 62
     7
 66
     1
 10
0
 20
0
 70
     1
  0
VERTEX
  8
0
  6
CONTINUOUS
 62
     7
 10
11.35658168792725
 20
61.5
 42
0.2551592727851309
  0
VERTEX
  8
0
  6
CONTINUOUS
 62
     7
 10
10.82677183743896
 20
61.0751119002738
 42
0.06319138472275117
  0
VERTEX
  8
0
  6
CONTINUOUS
 62
     7
 10
10.57267674894328
 20
60.41222525446332
 42
0.03518638918170555
  0
VERTEX
  8
0
  6
CONTINUOUS
 62
     7
 10
10.44594705325642
 20
59.71217549301895
 42
0.02798531261537898
  0
VERTEX
  8
0
  6
CONTINUOUS
 62
     7
 10
10.40658473968506
 20
59
 42
0.0278994279098897
  0
VERTEX
  8
0
  6
CONTINUOUS
 62
     7
 10
10.44571839668897
 20
58.28985243969201
 42
0.03516017990492364
  0
VERTEX
  8
0
  6
CONTINUOUS
 62
     7
 10
10.5722122853401
 20
57.58956192317744
 42
0.06315573245367918
  0
VERTEX
  8
0
  6
CONTINUOUS
 62
     7
 10
10.82624427847951
 20
56.9258216818345
 42
0.2552844263609052
  0
VERTEX
  8
0
  6
CONTINUOUS
 62
     7
 10
11.35658168792724
 20
56.49999999999999
 42
0.2551594442423775
  0
VERTEX
  8
0
  6
CONTINUOUS
 62
     7
 10
11.88639179703004
 20
56.92488773223268
 42
0.06319147493971376
  0
VERTEX
  8
0
  6
CONTINUOUS
 62
     7
 10
12.14048693918092
 20
57.58777435103284
 42
0.03518642902210568
  0
VERTEX
  8
0
  6
CONTINUOUS
 62
     7
 10
12.26721652355681
 20
58.28782413107666
 42
0.02798535021575787
  0
VERTEX
  8
0
  6
CONTINUOUS
 62
     7
 10
12.30657863616943
 20
59
 42
0.02789949247684537
  0
VERTEX
  8
0
  6
CONTINUOUS
 62
     7
 10
12.26744543152288
 20
59.7101475836988
 42
0.03516026408849002
  0
VERTEX
  8
0
  6
CONTINUOUS
 62
     7
 10
12.14095178490499
 20
60.41043814062532
 42
0.06315586914469175
  0
VERTEX
  8
0
  6
CONTINUOUS
 62
     7
 10
11.88691973960936
 20
61.07417835086429
 42
0.2552843449375169
  0
SEQEND
  8
0
  0
POLYLINE
  8
0
  6
CONTINUOUS
 62
     7
 66
     1
 10
0
 20
0
  0
VERTEX
  8
0
  6
CONTINUOUS
 62
     7
 10
7.656569480895996
 20
61.8499755859375
 42
0.1885746071955481
  0
VERTEX
  8
0
  6
CONTINUOUS
 62
     7
 10
7.296839012636422
 20
61.69028696840449
 42
0.07574462457813792
  0
VERTEX
  8
0
  6
CONTINUOUS
 62
     7
 10
7.052604531215247
 20
61.37245052134265
 42
0.03933592155780555
  0
VERTEX
  8
0
  6
CONTINUOUS
 62
     7
 10
6.882742896526244
 20
61.00711696393832
 42
0.02577124213905156
  0
VERTEX
  8
0
  6
CONTINUOUS
 62
     7
 10
6.760588476065744
 20
60.62296632843281
 42
0.01950520664573828
  0
VERTEX
  8
0
  6
CONTINUOUS
 62
     7
 10
6.67309782116787
 20
60.22875457229748
 42
0.01621460194377841
  0
VERTEX
  8
0
  6
CONTINUOUS
 62
     7
 10
6.613737784255141
 20
59.82916361487319
 42
0.01446653041901844
  0
VERTEX
  8
0
  6
CONTINUOUS
 62
     7
 10
6.578870267237785
 20
59.42663895247169
 42
0.01369125893328132
  0
VERTEX
  8
0
  6
CONTINUOUS
 62
     7
 10
6.566622326743099
 20
59.02249489219947
 42
0.01360482812319374
  0
VERTEX
  8
0
  6
CONTINUOUS
 62
     7
 10
6.576339272367938
 20
58.6196497601473
 42
0.01431525146574423
  0
VERTEX
  8
0
  6
CONTINUOUS
 62
     7
 10
6.608489721768307
 20
58.21739846916088
 42
0.0159818456178489
  0
VERTEX
  8
0
  6
CONTINUOUS
 62
     7
 10
6.665001475163574
 20
57.81658062645221
 42
0.01902674421849339
  0
VERTEX
  8
0
  6
CONTINUOUS
 62
     7
 10
6.749063948991041
 20
57.42142747375188
 42
0.02487976260011175
  0
VERTEX
  8
0
  6
CONTINUOUS
 62
     7
 10
6.867080435955423
 20
57.03503172165122
 42
0.03729613158351526
  0
VERTEX
  8
0
  6
CONTINUOUS
 62
     7
 10
7.031156179356922
 20
56.66584869906367
 42
0.06998281406674614
  0
VERTEX
  8
0
  6
CONTINUOUS
 62
     7
 10
7.266742334307275
 20
56.33851868739099
 42
0.1738206737496061
  0
VERTEX
  8
0
  6
CONTINUOUS
 62
     7
 10
7.616510111377387
 20
56.15192167525354
 42
0
  0
SEQEND
  8
0
  0
TEXT
  8
0
  6
CONTINUOUS
 62
     7
 10
-11.28550004959106
 20
-31.79999995231628
 40
3.599999904632568
 41
1.008382419577613
  1
SHS55R
  0
ENDSEC
  0
EOF
