  0
SECTION
  2
HEADER
  0
ENDSEC
  0
SECTION
  2
TABLES
  0
TABLE
  2
LTYPE
 70
    22
  0
LTYPE
  2
CONTINUOUS
 70
    64
  3
Solid line
 72
    65
 73
     0
 40
0.000000
  0
LTYPE
  2
DASHED
 70
    64
  3
__ __ __ __ __ __ __ __ __ __ __ __ __ __ __
 72
    65
 73
     2
 40
3.500000
 49
2.000000
 49
-1.500000
  0
LTYPE
  2
CENTER
 70
    64
  3
____ _ ____ _ ____ _ ____ _ ____ _ ____ _ ____
 72
    65
 73
     4
 40
17.500000
 49
13.000000
 49
-1.500000
 49
1.500000
 49
-1.500000
  0
LTYPE
  2
PHANTOM
 70
    64
  3
_____ _ _ _____ _ _ _____ _ _ _____ _ _ ____  
 72
    65
 73
     6
 40
15.500000
 49
8.000000
 49
-1.500000
 49
1.500000
 49
-1.500000
 49
1.500000
 49
-1.500000
  0
LTYPE
  2
DOT
 70
    64
  3
. . . . . . . . . . . . . . . . . . . . . . . .
 72
    65
 73
     2
 40
0.25
 49
0.0
 49
-0.25
  0
ENDTAB
  0
TABLE
  2
LAYER
 70
     1
  0
LAYER
  2
0
 70
     0
 62
     7
  6
CONTINUOUS
  0
ENDTAB
  0
TABLE
  2
STYLE
 70
     1
  0
STYLE
  2
STANDARD
 70
     0
 40
0.000000
 41
1.000000
 50
0.000000
 71
     0
 42
0.200000
  3
txt
  0
ENDTAB
  0
TABLE
  2
VIEW
 70
     0
  0
ENDTAB
  0
ENDSEC
  0
SECTION
  2
BLOCKS
  0
ENDSEC
  0
SECTION
  2
ENTITIES
  0
LINE
  8
0
  6
CONTINUOUS
 62
     7
 10
492.5000610351563
 20
66.00009155273438
 11
492.5000610351563
 21
49.31153869628906
  0
LINE
  8
0
  6
CONTINUOUS
 62
     7
 10
517.4999389648438
 20
66.00009155273438
 11
517.4999389648438
 21
49.31153869628906
  0
LINE
  8
0
  6
CONTINUOUS
 62
     7
 10
512.8741455078125
 20
21.82548141479492
 11
513.2548828125
 21
32.7282600402832
  0
LINE
  8
0
  6
CONTINUOUS
 62
     7
 10
387.1257019042969
 20
21.82550430297852
 11
386.7449645996094
 21
32.7282829284668
  0
LINE
  8
0
  6
CONTINUOUS
 62
     7
 10
403.2050170898438
 20
31.300048828125
 11
496.7947998046875
 21
31.300048828125
  0
LINE
  8
0
  6
CONTINUOUS
 62
     7
 10
402.8740844726563
 20
21.82548522949219
 11
403.2548217773438
 21
32.72826385498047
  0
LINE
  8
0
  6
CONTINUOUS
 62
     7
 10
362.4999389648438
 20
66.00004577636719
 11
537.4999389648438
 21
66.00004577636719
  0
LINE
  8
0
  6
CONTINUOUS
 62
     7
 10
407.4999389648438
 20
66.00009155273438
 11
407.4999389648438
 21
49.31153869628906
  0
LINE
  8
0
  6
CONTINUOUS
 62
     7
 10
382.5
 20
66.00009155273438
 11
382.5
 21
49.31153869628906
  0
LINE
  8
0
  6
CENTER
 62
     7
 10
504.9999389648438
 20
91.00009155273438
 11
504.9999389648438
 21
15.53553771972656
  0
LINE
  8
0
  6
DASHED
 62
     7
 10
402.2499389648438
 20
90.00009155273438
 11
402.2499389648438
 21
66.00004577636719
  0
LINE
  8
0
  6
DASHED
 62
     7
 10
387
 20
90.00009155273438
 11
387
 21
66.00004577636719
  0
LINE
  8
0
  6
DASHED
 62
     7
 10
387.75
 20
90.00009155273438
 11
387.75
 21
66.00004577636719
  0
LINE
  8
0
  6
DASHED
 62
     7
 10
402.9999389648438
 20
90.00009155273438
 11
402.9999389648438
 21
66.00004577636719
  0
LINE
  8
0
  6
CENTER
 62
     7
 10
395.0000610351563
 20
91.00009155273438
 11
395.0000610351563
 21
17.99998474121094
  0
LINE
  8
0
  6
CONTINUOUS
 62
     7
 10
497.1256713867188
 20
21.82550430297852
 11
496.7449340820313
 21
32.72827911376953
  0
LINE
  8
0
  6
CONTINUOUS
 62
     7
 10
362.4999389648438
 20
88.50009155273438
 11
362.4999389648438
 21
18.99998474121094
  0
LINE
  8
0
  6
CONTINUOUS
 62
     7
 10
537.4999389648438
 20
88.50009155273438
 11
537.4999389648438
 21
18.99998474121094
  0
LINE
  8
0
  6
CONTINUOUS
 62
     7
 10
362.4999389648438
 20
18.99998474121094
 11
537.4999389648438
 21
18.99998474121094
  0
LINE
  8
0
  6
CONTINUOUS
 62
     7
 10
362.4999389648438
 20
31.300048828125
 11
386.794921875
 21
31.300048828125
  0
LINE
  8
0
  6
CONTINUOUS
 62
     7
 10
513.2050170898438
 20
31.300048828125
 11
537.4999389648438
 21
31.300048828125
  0
LINE
  8
0
  6
CENTER
 62
     7
 10
33.00009155273438
 20
71.99998474121094
 11
47.00006103515625
 21
71.99998474121094
  0
LINE
  8
0
  6
CONTINUOUS
 62
     7
 10
29.00000381469727
 20
25.86392402648926
 11
35.86393356323242
 21
18.9999942779541
  0
LINE
  8
0
  6
CONTINUOUS
 62
     7
 10
29.50003051757813
 20
18.99996185302734
 11
58.5
 21
18.99996185302734
  0
LINE
  8
0
  6
CONTINUOUS
 62
     7
 10
29.00006103515625
 20
33.05025100708008
 11
29.00006103515625
 21
25.86395645141602
  0
LINE
  8
0
  6
CONTINUOUS
 62
     7
 10
36
 20
49.94974136352539
 11
36
 21
40.05023574829102
  0
LINE
  8
0
  6
CONTINUOUS
 62
     7
 10
-28.4498291015625
 20
57.49998092651367
 11
28.4498291015625
 21
57.49998092651367
  0
LINE
  8
0
  6
CONTINUOUS
 62
     7
 10
29.00000381469727
 20
33.0501823425293
 11
36.0000114440918
 21
40.05018997192383
  0
LINE
  8
0
  6
CONTINUOUS
 62
     7
 10
28.44980049133301
 20
57.49993896484375
 11
36.0000114440918
 21
49.94972610473633
  0
LINE
  8
0
  6
CONTINUOUS
 62
     7
 10
61.5000114440918
 20
20.50000381469727
 11
59.99998092651367
 21
18.99996948242188
  0
LINE
  8
0
  6
CONTINUOUS
 62
     7
 10
59.49994659423828
 20
88.50000762939453
 11
61.49995040893555
 21
86.50000762939453
  0
LINE
  8
0
  6
CONTINUOUS
 62
     7
 10
61.5
 20
86.49996948242188
 11
61.5
 21
20.50000762939453
  0
LINE
  8
0
  6
CONTINUOUS
 62
     7
 10
-59.49997329711914
 20
88.49998474121094
 11
59.50003051757813
 21
88.49998474121094
  0
LINE
  8
0
  6
CONTINUOUS
 62
     7
 10
58.5
 20
18.99996185302734
 11
59.99990844726563
 21
18.99996185302734
  0
LINE
  8
0
  6
CONTINUOUS
 62
     7
 10
6.99998140335083
 20
-2.461375879647676E-005
 11
7.353513240814209
 21
0.3535071909427643
  0
LINE
  8
0
  6
DASHED
 62
     7
 10
12.99993896484375
 20
52.4999885559082
 11
12.99993896484375
 21
30.99999618530273
  0
LINE
  8
0
  6
DASHED
 62
     7
 10
9
 20
30.99999618530273
 11
9
 21
0.4999923706054688
  0
LINE
  8
0
  6
DASHED
 62
     7
 10
-13.00003051757813
 20
30.99999618530273
 11
12.99993896484375
 21
30.99999618530273
  0
LINE
  8
0
  6
CONTINUOUS
 62
     7
 10
31.49991607666016
 20
2.000018358230591
 11
29.49991416931152
 21
1.628976133360993E-005
  0
LINE
  8
0
  6
CONTINUOUS
 62
     7
 10
25.08571243286133
 20
23.41412544250488
 11
30.91409873962402
 21
17.58573722839356
  0
LINE
  8
0
  6
CONTINUOUS
 62
     7
 10
31.5
 20
16.17155456542969
 11
31.5
 21
1.999992370605469
  0
LINE
  8
0
  6
CONTINUOUS
 62
     7
 10
24.49996948242188
 20
33.9748649597168
 11
24.49996948242188
 21
24.82842636108398
  0
LINE
  8
0
  6
CONTINUOUS
 62
     7
 10
7.70709228515625
 20
0.4999923706054688
 11
20.2928466796875
 21
0.4999923706054688
  0
LINE
  8
0
  6
CONTINUOUS
 62
     7
 10
20.64633560180664
 20
0.353506863117218
 11
20.9998664855957
 21
-2.495093394827563E-005
  0
LINE
  8
0
  6
CONTINUOUS
 62
     7
 10
21
 20
0
 11
29.49993896484375
 21
0
  0
LINE
  8
0
  6
CONTINUOUS
 62
     7
 10
31.5
 20
47.73034286499023
 11
31.5
 21
42.27082443237305
  0
LINE
  8
0
  6
CONTINUOUS
 62
     7
 10
26.55972099304199
 20
36.85966110229492
 11
25.08577728271484
 21
35.38571929931641
  0
LINE
  8
0
  6
CENTER
 62
     7
 10
40.00003051757813
 20
78.99999237060547
 11
40.00003051757813
 21
65
  0
LINE
  8
0
  6
CONTINUOUS
 62
     7
 10
51
 20
90.00000762939453
 11
82.99996948242188
 21
90.00000762939453
  0
LINE
  8
0
  6
CONTINUOUS
 62
     7
 10
-18
 20
90.00000762939453
 11
17.99990844726563
 21
90.00000762939453
  0
LINE
  8
0
  6
CONTINUOUS
 62
     7
 10
60
 20
18.99998474121094
 11
62.14874267578125
 21
18.99998474121094
  0
LINE
  8
0
  6
CONTINUOUS
 62
     7
 10
82.99993896484375
 20
89.99997711181641
 11
85
 21
87.99991607666016
  0
LINE
  8
0
  6
CONTINUOUS
 62
     7
 10
17.99992752075195
 20
89.99993896484375
 11
18.49995994567871
 21
89.49990844726563
  0
LINE
  8
0
  6
CONTINUOUS
 62
     7
 10
18.4998779296875
 20
89.49999237060547
 11
50.49993896484375
 21
89.49999237060547
  0
LINE
  8
0
  6
CONTINUOUS
 62
     7
 10
50.49999618530273
 20
89.49990844726563
 11
51.00002670288086
 21
89.99993896484375
  0
LINE
  8
0
  6
CONTINUOUS
 62
     7
 10
81.88356018066406
 20
66.18389129638672
 11
81.50726318359375
 21
66.15097045898438
  0
LINE
  8
0
  6
CONTINUOUS
 62
     7
 10
64.34623718261719
 20
32.89810943603516
 11
79.0499267578125
 21
64.43025970458984
  0
LINE
  8
0
  6
CONTINUOUS
 62
     7
 10
83.69509887695313
 20
67.98883819580078
 11
83.82978057861328
 21
68.35111999511719
  0
LINE
  8
0
  6
CONTINUOUS
 62
     7
 10
62.66938400268555
 20
20.65137672424316
 11
63.44734191894531
 21
29.54347801208496
  0
LINE
  8
0
  6
CENTER
 62
     7
 10
70.99996948242188
 20
91.00000762939453
 11
70.99996948242188
 21
60.92425918579102
  0
LINE
  8
0
  6
CONTINUOUS
 62
     7
 10
-26.5597095489502
 20
36.8597297668457
 11
-25.08576393127441
 21
35.38578414916992
  0
LINE
  8
0
  6
CONTINUOUS
 62
     7
 10
-7.000032901763916
 20
-2.461375879647676E-005
 11
-7.353564739227295
 21
0.3535071909427643
  0
LINE
  8
0
  6
CONTINUOUS
 62
     7
 10
7.000030517578125
 20
0
 11
-7.000030517578125
 21
0
  0
LINE
  8
0
  6
DASHED
 62
     7
 10
-13.00003051757813
 20
52.4999885559082
 11
-13.00003051757813
 21
30.99999618530273
  0
LINE
  8
0
  6
DASHED
 62
     7
 10
-9
 20
30.99999618530273
 11
-9
 21
0.4999923706054688
  0
LINE
  8
0
  6
CONTINUOUS
 62
     7
 10
-24.50006103515625
 20
33.9715690612793
 11
-24.50006103515625
 21
24.82842636108398
  0
LINE
  8
0
  6
CONTINUOUS
 62
     7
 10
-31.5
 20
16.17155456542969
 11
-31.5
 21
1.999992370605469
  0
LINE
  8
0
  6
CONTINUOUS
 62
     7
 10
-25.08582878112793
 20
23.4141902923584
 11
-30.91421699523926
 21
17.5858039855957
  0
LINE
  8
0
  6
CONTINUOUS
 62
     7
 10
-31.50003242492676
 20
1.999999523162842
 11
-29.50003051757813
 21
-2.592032387838117E-006
  0
LINE
  8
0
  6
CONTINUOUS
 62
     7
 10
26.23031616210938
 20
53.00000381469727
 11
-26.23040771484375
 21
53.00000381469727
  0
LINE
  8
0
  6
CONTINUOUS
 62
     7
 10
-31.5
 20
47.73036575317383
 11
-31.5
 21
42.27082443237305
  0
LINE
  8
0
  6
CONTINUOUS
 62
     7
 10
-7.707183837890625
 20
0.4999923706054688
 11
-20.29293823242188
 21
0.4999923706054688
  0
LINE
  8
0
  6
CONTINUOUS
 62
     7
 10
-20.64645195007324
 20
0.3535715937614441
 11
-21.00004768371582
 21
-2.495093394827563E-005
  0
LINE
  8
0
  6
CONTINUOUS
 62
     7
 10
-21
 20
0
 11
-29.50003051757813
 21
0
  0
LINE
  8
0
  6
CONTINUOUS
 62
     7
 10
-51.00009155273438
 20
89.99998474121094
 11
-83.00006103515625
 21
89.99998474121094
  0
LINE
  8
0
  6
CONTINUOUS
 62
     7
 10
-85.0001220703125
 20
87.99999237060547
 11
-85.0001220703125
 21
69.99998474121094
  0
LINE
  8
0
  6
DASHED
 62
     7
 10
-78.25003051757813
 20
89.99998474121094
 11
-78.25003051757813
 21
66.00000762939453
  0
LINE
  8
0
  6
DASHED
 62
     7
 10
-63.75
 20
89.99998474121094
 11
-63.75
 21
66.00000762939453
  0
LINE
  8
0
  6
DASHED
 62
     7
 10
-63
 20
89.99998474121094
 11
-63
 21
66.00000762939453
  0
LINE
  8
0
  6
DASHED
 62
     7
 10
-79.00003051757813
 20
89.99998474121094
 11
-79.00003051757813
 21
66.00000762939453
  0
LINE
  8
0
  6
CONTINUOUS
 62
     7
 10
-85.00010681152344
 20
87.99998474121094
 11
-83.00009918212891
 21
89.99998474121094
  0
LINE
  8
0
  6
CONTINUOUS
 62
     7
 10
-62.14874267578125
 20
19.00003051757813
 11
-29.49999046325684
 21
19.00003051757813
  0
LINE
  8
0
  6
CONTINUOUS
 62
     7
 10
-18.50006103515625
 20
89.49996948242188
 11
-50.50003051757813
 21
89.49996948242188
  0
LINE
  8
0
  6
CONTINUOUS
 62
     7
 10
-50.49998474121094
 20
89.49984741210938
 11
-51.00008010864258
 21
89.99993896484375
  0
LINE
  8
0
  6
CONTINUOUS
 62
     7
 10
-18.00004577636719
 20
90.00000762939453
 11
-18.50008010864258
 21
89.49996948242188
  0
LINE
  8
0
  6
CONTINUOUS
 62
     7
 10
-83.69630432128906
 20
68.00148773193359
 11
-83.82987976074219
 21
68.35110473632813
  0
LINE
  8
0
  6
CONTINUOUS
 62
     7
 10
-81.87825012207031
 20
66.18342590332031
 11
-81.50750732421875
 21
66.15099334716797
  0
LINE
  8
0
  6
CONTINUOUS
 62
     7
 10
-62.66947937011719
 20
20.65136909484863
 11
-63.44743347167969
 21
29.54342842102051
  0
LINE
  8
0
  6
CONTINUOUS
 62
     7
 10
-64.3463134765625
 20
32.89810562133789
 11
-79.05001068115234
 21
64.43029022216797
  0
LINE
  8
0
  6
DASHED
 62
     7
 10
-80.7952880859375
 20
66.00000762939453
 11
-59.50003051757813
 21
66.00000762939453
  0
LINE
  8
0
  6
CENTER
 62
     7
 10
-71.00006103515625
 20
90.99998474121094
 11
-71.00006103515625
 21
60.92425918579102
  0
LINE
  8
0
  6
DASHED
 62
     7
 10
-59.50003051757813
 20
66.00000762939453
 11
-59.50003051757813
 21
19.00003051757813
  0
LINE
  8
0
  6
CENTER
 62
     7
 10
351
 20
78.99998474121094
 11
354
 21
78.99998474121094
  0
LINE
  8
0
  6
CONTINUOUS
 62
     7
 10
339.5000610351563
 20
88.5
 11
339.5000610351563
 21
19.00003051757813
  0
LINE
  8
0
  6
CENTER
 62
     7
 10
352.5
 20
82.5
 11
352.5
 21
73.5
  0
LINE
  8
0
  6
CENTER
 62
     7
 10
357
 20
78
 11
348
 21
78
  0
LINE
  8
0
  6
CONTINUOUS
 62
     7
 10
339.5000610351563
 20
88.5
 11
362.4999389648438
 21
88.5
  0
LINE
  8
0
  6
CONTINUOUS
 62
     7
 10
339.5000610351563
 20
19.00003051757813
 11
362.4999389648438
 21
19.00003051757813
  0
LINE
  8
0
  6
CONTINUOUS
 62
     7
 10
560.4998779296875
 20
19.00003051757813
 11
537.5
 21
19.00003051757813
  0
LINE
  8
0
  6
CONTINUOUS
 62
     7
 10
560.4998779296875
 20
88.5
 11
537.5
 21
88.5
  0
LINE
  8
0
  6
CENTER
 62
     7
 10
542.9999389648438
 20
78
 11
551.9999389648438
 21
78
  0
LINE
  8
0
  6
CENTER
 62
     7
 10
547.4999389648438
 20
82.5
 11
547.4999389648438
 21
73.5
  0
LINE
  8
0
  6
CONTINUOUS
 62
     7
 10
560.4998779296875
 20
88.5
 11
560.4998779296875
 21
19.00003051757813
  0
LINE
  8
0
  6
CONTINUOUS
 62
     7
 10
338.761962890625
 20
76.85343933105469
 11
339.5000610351563
 21
76.85343933105469
  0
LINE
  8
0
  6
CONTINUOUS
 62
     7
 10
338.2000122070313
 20
75.87991333007813
 11
338.2000122070313
 21
70.99992370605469
  0
LINE
  8
0
  6
CONTINUOUS
 62
     7
 10
330.7000122070313
 20
75.79994201660156
 11
338.2000122070313
 21
75.79994201660156
  0
LINE
  8
0
  6
CONTINUOUS
 62
     7
 10
338.2000122070313
 20
66.199951171875
 11
330.7000122070313
 21
66.199951171875
  0
LINE
  8
0
  6
CONTINUOUS
 62
     7
 10
328.5499877929688
 20
74.5799560546875
 11
333.1248779296875
 21
74.5799560546875
  0
LINE
  8
0
  6
CONTINUOUS
 62
     7
 10
338.1999206542969
 20
75.87994384765625
 11
338.761962890625
 21
76.85342407226563
  0
LINE
  8
0
  6
CONTINUOUS
 62
     7
 10
338.2000122070313
 20
70.99992370605469
 11
338.2000122070313
 21
66.11993408203125
  0
LINE
  8
0
  6
CONTINUOUS
 62
     7
 10
338.761962890625
 20
65.14646911621094
 11
338.1999206542969
 21
66.11994934082031
  0
LINE
  8
0
  6
CONTINUOUS
 62
     7
 10
339.5000610351563
 20
65.14645385742188
 11
338.761962890625
 21
65.14645385742188
  0
LINE
  8
0
  6
CONTINUOUS
 62
     7
 10
333.1249694824219
 20
74.57998657226563
 11
334.9649963378906
 21
70.99994659423828
  0
LINE
  8
0
  6
CONTINUOUS
 62
     7
 10
328.1528015136719
 20
73.80714416503906
 11
328.5499877929688
 21
74.57993316650391
  0
LINE
  8
0
  6
CONTINUOUS
 62
     7
 10
332.25
 20
74.58000183105469
 11
334.0899963378906
 21
70.99996948242188
  0
LINE
  8
0
  6
CONTINUOUS
 62
     7
 10
334.0899658203125
 20
70.99991607666016
 11
332.25
 21
67.419921875
  0
LINE
  8
0
  6
CONTINUOUS
 62
     7
 10
334.9649658203125
 20
70.99994659423828
 11
333.1249389648438
 21
67.41990661621094
  0
LINE
  8
0
  6
CONTINUOUS
 62
     7
 10
333.1248779296875
 20
67.41993713378906
 11
328.5499877929688
 21
67.41993713378906
  0
LINE
  8
0
  6
CONTINUOUS
 62
     7
 10
328.5500183105469
 20
67.42000579833984
 11
328.15283203125
 21
68.1927490234375
  0
LINE
  8
0
  6
CENTER
 62
     7
 10
324.2239379882813
 20
71.00001525878906
 11
341.1990966796875
 21
71.00001525878906
  0
LINE
  8
0
  6
CENTER
 62
     7
 10
0
 20
91.00000762939453
 11
0
 21
-1
  0
LINE
  8
0
  6
CONTINUOUS
 62
     7
 10
560.5
 20
53.00001525878906
 11
710
 21
53.00001525878906
  0
LINE
  8
0
  6
DASHED
 62
     7
 10
237.9999389648438
 20
53.00001525878906
 11
237.9999389648438
 21
30.99998474121094
  0
LINE
  8
0
  6
DASHED
 62
     7
 10
234
 20
30.99998474121094
 11
234
 21
0
  0
LINE
  8
0
  6
DASHED
 62
     7
 10
237.9999389648438
 20
30.99998474121094
 11
212.0000610351563
 21
30.99998474121094
  0
LINE
  8
0
  6
DASHED
 62
     7
 10
216
 20
30.99998474121094
 11
216
 21
0
  0
LINE
  8
0
  6
DASHED
 62
     7
 10
212.0000610351563
 20
53.00001525878906
 11
212.0000610351563
 21
30.99998474121094
  0
LINE
  8
0
  6
CENTER
 62
     7
 10
225
 20
54.00001525878906
 11
225
 21
-1
  0
LINE
  8
0
  6
CONTINUOUS
 62
     7
 10
190
 20
53.00001525878906
 11
339.5000610351563
 21
53.00001525878906
  0
LINE
  8
0
  6
CONTINUOUS
 62
     7
 10
190
 20
0
 11
710
 21
0
  0
LINE
  8
0
  6
CONTINUOUS
 62
     7
 10
363.9999389648438
 20
90.00009918212891
 11
362.4999084472656
 21
88.50009155273438
  0
LINE
  8
0
  6
CONTINUOUS
 62
     7
 10
535.9999389648438
 20
90.00007629394531
 11
537.4998779296875
 21
88.50010681152344
  0
LINE
  8
0
  6
CONTINUOUS
 62
     7
 10
363.9999389648438
 20
90.00009155273438
 11
535.9999389648438
 21
90.00009155273438
  0
LINE
  8
0
  6
CONTINUOUS
 62
     7
 10
85
 20
87.99992370605469
 11
85
 21
69.99995422363281
  0
LINE
  8
0
  6
CONTINUOUS
 62
     7
 10
-61.5000114440918
 20
20.50000381469727
 11
-59.99998092651367
 21
18.99996948242188
  0
LINE
  8
0
  6
CONTINUOUS
 62
     7
 10
-59.49994659423828
 20
88.50000762939453
 11
-61.49995040893555
 21
86.50000762939453
  0
LINE
  8
0
  6
CONTINUOUS
 62
     7
 10
-61.5
 20
86.49996948242188
 11
-61.5
 21
20.50000762939453
  0
LINE
  8
0
  6
CENTER
 62
     7
 10
-33.00009155273438
 20
71.99998474121094
 11
-47.00006103515625
 21
71.99998474121094
  0
LINE
  8
0
  6
CENTER
 62
     7
 10
-40.00003051757813
 20
78.99999237060547
 11
-40.00003051757813
 21
65
  0
LINE
  8
0
  6
CONTINUOUS
 62
     7
 10
-29.00000381469727
 20
25.86392402648926
 11
-35.86393356323242
 21
18.9999942779541
  0
LINE
  8
0
  6
CONTINUOUS
 62
     7
 10
-29.00006103515625
 20
33.05025100708008
 11
-29.00006103515625
 21
25.86395645141602
  0
LINE
  8
0
  6
CONTINUOUS
 62
     7
 10
-36
 20
49.94974136352539
 11
-36
 21
40.05023574829102
  0
LINE
  8
0
  6
CONTINUOUS
 62
     7
 10
-29.00000381469727
 20
33.0501823425293
 11
-36.0000114440918
 21
40.05018997192383
  0
LINE
  8
0
  6
CONTINUOUS
 62
     7
 10
-28.44980049133301
 20
57.49993896484375
 11
-36.0000114440918
 21
49.94972610473633
  0
LINE
  8
0
  6
CONTINUOUS
 62
     7
 10
190
 20
53.00001525878906
 11
190
 21
0
  0
LINE
  8
0
  6
CONTINUOUS
 62
     7
 10
190
 20
48.19819641113281
 11
339.5000610351563
 21
48.19819641113281
  0
LINE
  8
0
  6
CONTINUOUS
 62
     7
 10
190
 20
41.80179977416992
 11
339.5000610351563
 21
41.80179977416992
  0
LINE
  8
0
  6
CONTINUOUS
 62
     7
 10
190
 20
34.79990768432617
 11
339.5000610351563
 21
34.79990768432617
  0
LINE
  8
0
  6
CONTINUOUS
 62
     7
 10
190
 20
23.99987030029297
 11
339.5000610351563
 21
23.99987030029297
  0
LINE
  8
0
  6
CONTINUOUS
 62
     7
 10
190
 20
16.99983978271484
 11
710
 21
16.99983978271484
  0
LINE
  8
0
  6
CONTINUOUS
 62
     7
 10
710
 20
53.00001525878906
 11
710
 21
0
  0
LINE
  8
0
  6
CONTINUOUS
 62
     7
 10
560.4998779296875
 20
48.19819641113281
 11
710
 21
48.19819641113281
  0
LINE
  8
0
  6
CONTINUOUS
 62
     7
 10
560.4998779296875
 20
41.80179977416992
 11
710
 21
41.80179977416992
  0
LINE
  8
0
  6
CONTINUOUS
 62
     7
 10
560.4998779296875
 20
34.79990768432617
 11
710
 21
34.79990768432617
  0
LINE
  8
0
  6
CONTINUOUS
 62
     7
 10
560.4998779296875
 20
23.99987030029297
 11
710
 21
23.99987030029297
  0
LINE
  8
0
  6
CENTER
 62
     7
 10
375
 20
19.99998474121094
 11
375
 21
-1
  0
LINE
  8
0
  6
CENTER
 62
     7
 10
525
 20
19.99998474121094
 11
525
 21
-1
  0
LINE
  8
0
  6
CENTER
 62
     7
 10
675
 20
54.00001525878906
 11
675
 21
-1
  0
LINE
  8
0
  6
CENTER
 62
     7
 10
-6.817865371704102
 20
70.99997711181641
 11
14.146559715271
 21
70.99997711181641
  0
LINE
  8
0
  6
CONTINUOUS
 62
     7
 10
2.616576194763184
 20
74.49997711181641
 11
6.696562767028809
 21
74.49997711181641
  0
LINE
  8
0
  6
CONTINUOUS
 62
     7
 10
2.616576194763184
 20
67.49997711181641
 11
6.696562767028809
 21
67.49997711181641
  0
LINE
  8
0
  6
CONTINUOUS
 62
     7
 10
1.966568350791931
 20
70.99993133544922
 11
2.616562128067017
 21
67.49993133544922
  0
LINE
  8
0
  6
CONTINUOUS
 62
     7
 10
1.966565608978272
 20
70.99995422363281
 11
2.616556644439697
 21
74.49993896484375
  0
LINE
  8
0
  6
CONTINUOUS
 62
     7
 10
4.276580333709717
 20
70.99993133544922
 11
4.926591873168945
 21
67.49991607666016
  0
LINE
  8
0
  6
CONTINUOUS
 62
     7
 10
4.276552677154541
 20
70.99994659423828
 11
4.926563739776611
 21
74.49995422363281
  0
LINE
  8
0
  6
CONTINUOUS
 62
     7
 10
6.786579608917236
 20
67.96994781494141
 11
6.696567535400391
 21
67.49994659423828
  0
LINE
  8
0
  6
CONTINUOUS
 62
     7
 10
6.786599636077881
 20
74.01996612548828
 11
6.696591377258301
 21
74.49995422363281
  0
LINE
  8
0
  6
CONTINUOUS
 62
     7
 10
8.602526664733887
 20
67.75425720214844
 11
11.35655879974365
 21
68.49993133544922
  0
LINE
  8
0
  6
CONTINUOUS
 62
     7
 10
8.586551666259766
 20
74.24996948242188
 11
11.35656356811523
 21
73.49996185302734
  0
LINE
  8
0
  6
CONTINUOUS
 62
     7
 10
-5.000020980834961
 20
68.11322784423828
 11
-2.781060175038874E-005
 21
65.22647857666016
  0
LINE
  8
0
  6
CONTINUOUS
 62
     7
 10
-4.999999046325684
 20
73.88671112060547
 11
-4.999999046325684
 21
70.99997711181641
  0
LINE
  8
0
  6
CONTINUOUS
 62
     7
 10
-3.419100539758802E-005
 20
76.77344512939453
 11
-5.000030517578125
 21
73.88669586181641
  0
LINE
  8
0
  6
CONTINUOUS
 62
     7
 10
-4.999999046325684
 20
70.99997711181641
 11
-4.999999046325684
 21
68.11324310302734
  0
LINE
  8
0
  6
CONTINUOUS
 62
     7
 10
3.937795877456665
 20
74.49996948242188
 11
3.698355794767849E-005
 21
76.77342987060547
  0
LINE
  8
0
  6
CONTINUOUS
 62
     7
 10
1.776278804754838E-005
 20
65.22650909423828
 11
3.937779903411865
 21
67.49997711181641
  0
LINE
  8
0
  6
CONTINUOUS
 62
     7
 10
362.4999389648438
 20
240.0000915527344
 11
537.4999389648438
 21
240.0000915527344
  0
LINE
  8
0
  6
CONTINUOUS
 62
     7
 10
362.4999389648438
 20
410.0000915527344
 11
362.4999389648438
 21
240.0000915527344
  0
LINE
  8
0
  6
CONTINUOUS
 62
     7
 10
339.5000610351563
 20
386.5000915527344
 11
339.5000610351563
 21
263.5000915527344
  0
LINE
  8
0
  6
CONTINUOUS
 62
     7
 10
537.4999389648438
 20
410.0000915527344
 11
537.4999389648438
 21
240.0000915527344
  0
LINE
  8
0
  6
CONTINUOUS
 62
     7
 10
362.4999389648438
 20
410.0000915527344
 11
537.4999389648438
 21
410.0000915527344
  0
LINE
  8
0
  6
CENTER
 62
     7
 10
190
 20
325.0000915527344
 11
710
 21
325.0000915527344
  0
LINE
  8
0
  6
CONTINUOUS
 62
     7
 10
190
 20
356.5000915527344
 11
190
 21
293.5000915527344
  0
LINE
  8
0
  6
CONTINUOUS
 62
     7
 10
190
 20
356.5000915527344
 11
339.5000610351563
 21
356.5000915527344
  0
LINE
  8
0
  6
CONTINUOUS
 62
     7
 10
190
 20
293.5000915527344
 11
339.5000610351563
 21
293.5000915527344
  0
LINE
  8
0
  6
CONTINUOUS
 62
     7
 10
339.5000610351563
 20
386.5000915527344
 11
362.4999389648438
 21
386.5000915527344
  0
LINE
  8
0
  6
CONTINUOUS
 62
     7
 10
339.5000610351563
 20
263.5000915527344
 11
362.4999389648438
 21
263.5000915527344
  0
LINE
  8
0
  6
CENTER
 62
     7
 10
385
 20
254.0000915527344
 11
405.0001220703125
 21
254.0000915527344
  0
LINE
  8
0
  6
CENTER
 62
     7
 10
395.0000610351563
 20
263.9491577148438
 11
395.0000610351563
 21
244.0000305175781
  0
LINE
  8
0
  6
CENTER
 62
     7
 10
395.0000610351563
 20
386.051025390625
 11
395.0000610351563
 21
406.0001525878906
  0
LINE
  8
0
  6
CENTER
 62
     7
 10
385
 20
396.0000915527344
 11
405.0001220703125
 21
396.0000915527344
  0
LINE
  8
0
  6
CENTER
 62
     7
 10
504.9997863769531
 20
386.051025390625
 11
504.9997863769531
 21
406.0001525878906
  0
LINE
  8
0
  6
CENTER
 62
     7
 10
504.9997863769531
 20
263.9491577148438
 11
504.9997863769531
 21
244.0000305175781
  0
LINE
  8
0
  6
CENTER
 62
     7
 10
514.9998779296875
 20
254.0000915527344
 11
494.9997253417969
 21
254.0000915527344
  0
LINE
  8
0
  6
CENTER
 62
     7
 10
514.9998779296875
 20
396.0000915527344
 11
494.9997253417969
 21
396.0000915527344
  0
LINE
  8
0
  6
CONTINUOUS
 62
     7
 10
190
 20
351.6982727050781
 11
339.5000610351563
 21
351.6982727050781
  0
LINE
  8
0
  6
CONTINUOUS
 62
     7
 10
190
 20
298.3019104003906
 11
339.5000610351563
 21
298.3019104003906
  0
LINE
  8
0
  6
CONTINUOUS
 62
     7
 10
709.9998779296875
 20
298.3019104003906
 11
560.4998168945313
 21
298.3019104003906
  0
LINE
  8
0
  6
CONTINUOUS
 62
     7
 10
709.9998779296875
 20
351.6982727050781
 11
560.4998168945313
 21
351.6982727050781
  0
LINE
  8
0
  6
CONTINUOUS
 62
     7
 10
709.9998779296875
 20
293.5000915527344
 11
560.4998168945313
 21
293.5000915527344
  0
LINE
  8
0
  6
CONTINUOUS
 62
     7
 10
709.9998779296875
 20
356.5000915527344
 11
560.4998168945313
 21
356.5000915527344
  0
LINE
  8
0
  6
CONTINUOUS
 62
     7
 10
709.9998779296875
 20
356.5000915527344
 11
709.9998779296875
 21
293.5000915527344
  0
LINE
  8
0
  6
CONTINUOUS
 62
     7
 10
560.4998168945313
 20
263.5000915527344
 11
537.4999389648438
 21
263.5000915527344
  0
LINE
  8
0
  6
CONTINUOUS
 62
     7
 10
560.4998168945313
 20
386.5000915527344
 11
537.4999389648438
 21
386.5000915527344
  0
LINE
  8
0
  6
CONTINUOUS
 62
     7
 10
560.4998168945313
 20
386.5000915527344
 11
560.4998168945313
 21
263.5000915527344
  0
LINE
  8
0
  6
CONTINUOUS
 62
     7
 10
362.4999389648438
 20
343.0000915527344
 11
537.4999389648438
 21
343.0000915527344
  0
LINE
  8
0
  6
CONTINUOUS
 62
     7
 10
362.4999389648438
 20
376.0000915527344
 11
537.4999389648438
 21
376.0000915527344
  0
LINE
  8
0
  6
CONTINUOUS
 62
     7
 10
362.4999389648438
 20
274.0000915527344
 11
537.4999389648438
 21
274.0000915527344
  0
LINE
  8
0
  6
CONTINUOUS
 62
     7
 10
362.4999389648438
 20
307.0000915527344
 11
537.4999389648438
 21
307.0000915527344
  0
LINE
  8
0
  6
CENTER
 62
     7
 10
225
 20
340.0000305175781
 11
225
 21
310.0001525878906
  0
LINE
  8
0
  6
CENTER
 62
     7
 10
375
 20
340.0000305175781
 11
375
 21
310.0001525878906
  0
LINE
  8
0
  6
CENTER
 62
     7
 10
525
 20
340.0000305175781
 11
525
 21
310.0001525878906
  0
LINE
  8
0
  6
CENTER
 62
     7
 10
675
 20
340.0000305175781
 11
675
 21
310.0001525878906
  0
LINE
  8
0
  6
CENTER
 62
     7
 10
327.8629150390625
 20
311.9114379882813
 11
333.4418334960938
 21
325.3801574707031
  0
LINE
  8
0
  6
CONTINUOUS
 62
     7
 10
326.2830810546875
 20
314.368896484375
 11
330.7176818847656
 21
312.5320129394531
  0
LINE
  8
0
  6
CONTINUOUS
 62
     7
 10
326.48486328125
 20
317.2077941894531
 11
332.5824279785156
 21
314.6820983886719
  0
LINE
  8
0
  6
CONTINUOUS
 62
     7
 10
326.2831115722656
 20
314.3689270019531
 11
326.48486328125
 21
317.2077941894531
  0
LINE
  8
0
  6
CONTINUOUS
 62
     7
 10
330.7177429199219
 20
312.5320434570313
 11
332.5824890136719
 21
314.6820983886719
  0
LINE
  8
0
  6
CONTINUOUS
 62
     7
 10
327.2235717773438
 20
320.9286804199219
 11
327.6382446289063
 21
321.9297485351563
  0
LINE
  8
0
  6
CONTINUOUS
 62
     7
 10
334.691162109375
 20
317.8354797363281
 11
335.1058349609375
 21
318.8365783691406
  0
LINE
  8
0
  6
CONTINUOUS
 62
     7
 10
328.4176940917969
 20
322.2525329589844
 11
327.6382751464844
 21
321.9296875
  0
LINE
  8
0
  6
CONTINUOUS
 62
     7
 10
328.8608703613281
 20
319.60107421875
 11
329.7334289550781
 21
321.7076110839844
  0
LINE
  8
0
  6
CONTINUOUS
 62
     7
 10
332.5946350097656
 20
318.0545043945313
 11
333.4671936035156
 21
320.1610412597656
  0
LINE
  8
0
  6
CONTINUOUS
 62
     7
 10
327.77880859375
 20
322.5172424316406
 11
334.782958984375
 21
319.6160278320313
  0
LINE
  8
0
  6
CONTINUOUS
 62
     7
 10
335.1058349609375
 20
318.8365173339844
 11
334.782958984375
 21
319.615966796875
  0
LINE
  8
0
  6
CONTINUOUS
 62
     7
 10
327.5329895019531
 20
318.6640014648438
 11
332.8709411621094
 21
316.4529418945313
  0
LINE
  8
0
  6
CONTINUOUS
 62
     7
 10
338.2000427246094
 20
330.0000915527344
 11
338.2000427246094
 21
320.0000915527344
  0
LINE
  8
0
  6
CONTINUOUS
 62
     7
 10
327.7000732421875
 20
326.8000793457031
 11
327.7000732421875
 21
323.1453857421875
  0
LINE
  8
0
  6
CONTINUOUS
 62
     7
 10
338.2000427246094
 20
330.0000915527344
 11
339.5000610351563
 21
330.0000915527344
  0
LINE
  8
0
  6
CONTINUOUS
 62
     7
 10
330.7000732421875
 20
329.8000793457031
 11
338.2000427246094
 21
329.8000793457031
  0
LINE
  8
0
  6
CONTINUOUS
 62
     7
 10
333.3729248046875
 20
320.2000732421875
 11
338.2000427246094
 21
320.2000732421875
  0
LINE
  8
0
  6
CONTINUOUS
 62
     7
 10
338.2000427246094
 20
320.0000915527344
 11
339.5000610351563
 21
320.0000915527344
  0
LINE
  8
0
  6
CONTINUOUS
 62
     7
 10
327.4533386230469
 20
320.1841125488281
 11
334.0021362304688
 21
317.4714660644531
  0
LINE
  8
0
  6
CONTINUOUS
 62
     7
 10
81.47223663330078
 20
66.147705078125
 11
81.50740814208984
 21
66.15098571777344
  0
ARC
  8
0
  6
CONTINUOUS
 62
     7
 10
-7.707183837890625
 20
0
 40
0.5000000000000003
 50
45.00000125223905
 51
90.00000250447816
  0
ARC
  8
0
  6
CONTINUOUS
 62
     7
 10
-20.29293823242188
 20
0
 40
0.4999999999999999
 50
90.00000250447806
 51
135.0000003416227
  0
ARC
  8
0
  6
CONTINUOUS
 62
     7
 10
-26.20623779296875
 20
37.2132682800293
 40
0.4999999999999993
 50
183.2962716052487
 51
224.9999996583772
  0
ARC
  8
0
  6
CONTINUOUS
 62
     7
 10
-26.50003051757813
 20
33.9715690612793
 40
2
 50
0
 51
45.00000125223906
  0
ARC
  8
0
  6
CONTINUOUS
 62
     7
 10
-31.59722900390625
 20
53.09723281860352
 40
4.899999618530273
 50
276.3497648196943
 51
353.6502326758276
  0
ARC
  8
0
  6
CONTINUOUS
 62
     7
 10
-29.50003051757813
 20
16.17155456542969
 40
2.000000000000001
 50
135.0000003416226
 51
180.0000050089563
  0
ARC
  8
0
  6
CONTINUOUS
 62
     7
 10
-26.50003051757813
 20
24.82842636108398
 40
1.999999999999999
 50
314.9999987477609
 51
1.017777498068325E-013
  0
ARC
  8
0
  6
CONTINUOUS
 62
     7
 10
-31.59722900390625
 20
36.90276718139648
 40
4.899999618530273
 50
3.296273625997063
 51
83.65023518030577
  0
ARC
  8
0
  6
CONTINUOUS
 62
     7
 10
-31.00003051757813
 20
42.27082443237305
 40
0.4999999999999986
 50
179.9999913485778
 51
263.616041432088
  0
ARC
  8
0
  6
CONTINUOUS
 62
     7
 10
-26.23040771484375
 20
52.4999885559082
 40
0.5000000000000004
 50
90.00000250447806
 51
173.6502376847838
  0
ARC
  8
0
  6
CONTINUOUS
 62
     7
 10
-31.00003051757813
 20
47.73036575317383
 40
0.5000000000000007
 50
96.34976982865065
 51
180.0000050089561
  0
ARC
  8
0
  6
CONTINUOUS
 62
     7
 10
-85.822265625
 20
68.17680358886719
 40
2.000000000000004
 50
4.999999854546529
 51
65.72628883581832
  0
ARC
  8
0
  6
CONTINUOUS
 62
     7
 10
-81.703857421875
 20
68.17580413818359
 40
2.000000000000005
 50
184.9999939918166
 51
264.9999984947489
  0
ARC
  8
0
  6
CONTINUOUS
 62
     7
 10
-58.68466186523438
 20
21.00002288818359
 40
4.000000000000003
 50
184.9999939918165
 51
210.0000572975723
  0
ARC
  8
0
  6
CONTINUOUS
 62
     7
 10
-81.76895141601563
 20
63.16240310668945
 40
2.999999999999995
 50
25.00000012650599
 51
84.32563843638238
  0
ARC
  8
0
  6
CONTINUOUS
 62
     7
 10
-73.40936279296875
 20
28.67192459106445
 40
9.999999999999998
 50
4.999999854546459
 51
25.00000012650596
  0
CIRCLE
  8
0
  6
CONTINUOUS
 62
     7
 10
352.5
 20
78.99998474121094
 40
1
  0
CIRCLE
  8
0
  6
CONTINUOUS
 62
     7
 10
352.5
 20
78
 40
2.599999904632568
  0
ARC
  8
0
  6
CONTINUOUS
 62
     7
 10
330.7000122070313
 20
72.79994201660156
 40
3.000000000000006
 50
89.99998201391097
 51
165.8646416536697
  0
ARC
  8
0
  6
CONTINUOUS
 62
     7
 10
330.7000122070313
 20
69.199951171875
 40
2.99999999999998
 50
195.6428630584223
 51
270.0000726276024
  0
ARC
  8
0
  6
CONTINUOUS
 62
     7
 10
376.7510375976563
 20
32.37931823730469
 40
9.999999999999991
 50
1.999999984507262
 51
24.10085011850335
  0
ARC
  8
0
  6
CONTINUOUS
 62
     7
 10
523.2488403320313
 20
32.37931823730469
 40
10.00000000000003
 50
155.8991497678112
 51
178.0000026765715
  0
ARC
  8
0
  6
CONTINUOUS
 62
     7
 10
507.8772583007813
 20
21.99998474121094
 40
4.999999999999986
 50
323.1301026904212
 51
358.0000000154927
  0
ARC
  8
0
  6
CONTINUOUS
 62
     7
 10
502.1226196289063
 20
21.99998474121094
 40
5.000000000000016
 50
181.9999973234284
 51
216.8699025459059
  0
ARC
  8
0
  6
CONTINUOUS
 62
     7
 10
392.1227416992188
 20
21.99998474121094
 40
5.000000000000016
 50
181.9999973234284
 51
216.8699025459059
  0
ARC
  8
0
  6
CONTINUOUS
 62
     7
 10
397.877197265625
 20
21.99998474121094
 40
4.999999999999986
 50
323.1301026904212
 51
358.0000000154927
  0
ARC
  8
0
  6
CONTINUOUS
 62
     7
 10
413.2489013671875
 20
32.37931823730469
 40
10.00000000000003
 50
155.8991497678112
 51
178.0000026765715
  0
ARC
  8
0
  6
CONTINUOUS
 62
     7
 10
486.7510986328125
 20
32.37931823730469
 40
9.999999999999991
 50
1.999999984507262
 51
24.10085011850335
  0
ARC
  8
0
  6
CONTINUOUS
 62
     7
 10
7.70709228515625
 20
0
 40
0.4999999999999999
 50
90.00000250447816
 51
135.0000003416227
  0
ARC
  8
0
  6
CONTINUOUS
 62
     7
 10
20.2928466796875
 20
0
 40
0.4999999999999991
 50
45.00000125223919
 51
90.00000250447806
  0
ARC
  8
0
  6
CONTINUOUS
 62
     7
 10
26.20614624023438
 20
37.2132682800293
 40
0.4999999999999991
 50
314.9999987477608
 51
356.703726374003
  0
ARC
  8
0
  6
CONTINUOUS
 62
     7
 10
26.23031616210938
 20
52.4999885559082
 40
0.5000000000000002
 50
6.349767324172241
 51
90.00000250447806
  0
ARC
  8
0
  6
CONTINUOUS
 62
     7
 10
30.99993896484375
 20
42.27082443237305
 40
0.5000000000000002
 50
276.3839635768686
 51
0
  0
ARC
  8
0
  6
CONTINUOUS
 62
     7
 10
31.59722900390625
 20
36.90276718139648
 40
4.899999618530275
 50
96.34976982865055
 51
176.7037283947515
  0
ARC
  8
0
  6
CONTINUOUS
 62
     7
 10
26.49993896484375
 20
24.82842636108398
 40
2.000000000000001
 50
179.999991348578
 51
224.9999960159116
  0
ARC
  8
0
  6
CONTINUOUS
 62
     7
 10
29.49993896484375
 20
16.17155456542969
 40
2
 50
0
 51
45.00000125223906
  0
ARC
  8
0
  6
CONTINUOUS
 62
     7
 10
31.59722900390625
 20
53.09723281860352
 40
4.899999618530275
 50
186.3497623152161
 51
263.6502301713495
  0
ARC
  8
0
  6
CONTINUOUS
 62
     7
 10
30.99993896484375
 20
47.73034286499023
 40
0.5
 50
0
 51
83.65023518030577
  0
ARC
  8
0
  6
CONTINUOUS
 62
     7
 10
26.49993896484375
 20
33.9715690612793
 40
2.000000000000001
 50
135.0000003416226
 51
180.0000050089563
  0
ARC
  8
0
  6
CONTINUOUS
 62
     7
 10
81.703857421875
 20
68.17580413818359
 40
2.000000000000001
 50
275.1551920546156
 51
355.3639544593406
  0
ARC
  8
0
  6
CONTINUOUS
 62
     7
 10
85.822265625
 20
68.17680358886719
 40
2.000000000000006
 50
114.2760179468883
 51
175.0000060081834
  0
ARC
  8
0
  6
CONTINUOUS
 62
     7
 10
81.76885986328125
 20
63.16240310668945
 40
2.999999999999998
 50
95.67166864785183
 51
154.999996344714
  0
ARC
  8
0
  6
CONTINUOUS
 62
     7
 10
73.40936279296875
 20
28.67190170288086
 40
10
 50
154.9999963447139
 51
175.0000060081835
  0
ARC
  8
0
  6
CONTINUOUS
 62
     7
 10
58.6845703125
 20
21
 40
3.999999999999998
 50
329.9996405802425
 51
355.0000001454536
  0
CIRCLE
  8
0
  6
CONTINUOUS
 62
     7
 10
-40.00003051757813
 20
72.00000762939453
 40
2.599999904632568
  0
ARC
  8
0
  6
CONTINUOUS
 62
     7
 10
8.446578025817871
 20
68.70996856689453
 40
0.9683421850204426
 50
215.3314570768738
 51
278.297222506794
  0
ARC
  8
0
  6
CONTINUOUS
 62
     7
 10
7.456587791442871
 20
66.91997528076172
 40
1.246148109436042
 50
80.76452806729962
 51
142.1250351177267
  0
ARC
  8
0
  6
CONTINUOUS
 62
     7
 10
7.456587791442871
 20
75.07997894287109
 40
1.254199028015134
 50
217.8749648822733
 51
279.2353626496736
  0
ARC
  8
0
  6
CONTINUOUS
 62
     7
 10
8.446578025817871
 20
73.28997039794922
 40
0.9701611399650598
 50
81.70288677623263
 51
144.668542923126
  0
ARC
  8
0
  6
CONTINUOUS
 62
     7
 10
0
 20
70.99997711181641
 40
4.79999923706055
 50
46.95109601507203
 51
313.1834072577874
  0
CIRCLE
  8
0
  6
CONTINUOUS
 62
     7
 10
395.0000610351563
 20
254.0000915527344
 40
7.25006103515625
  0
CIRCLE
  8
0
  6
CONTINUOUS
 62
     7
 10
395.0000610351563
 20
254.0000915527344
 40
8.00006103515625
  0
CIRCLE
  8
0
  6
CONTINUOUS
 62
     7
 10
225
 20
325.0000915527344
 40
9
  0
CIRCLE
  8
0
  6
CONTINUOUS
 62
     7
 10
225
 20
325.0000915527344
 40
12.99993896484375
  0
ARC
  8
0
  6
CONTINUOUS
 62
     7
 10
329.5336608886719
 20
315.9449768066406
 40
3.299999237060546
 50
131.5803705110077
 51
157.4999548639656
  0
ARC
  8
0
  6
CONTINUOUS
 62
     7
 10
329.5336608886719
 20
315.9449768066406
 40
3.299999237060556
 50
337.5000181569004
 51
3.419602296414665
  0
ARC
  8
0
  6
CONTINUOUS
 62
     7
 10
321.6173095703125
 20
318.7910766601563
 40
6.000000000000008
 50
2.433650829345248
 51
20.87173987704925
  0
ARC
  8
0
  6
CONTINUOUS
 62
     7
 10
337.1438598632813
 20
312.3597717285156
 40
6.000000000000011
 50
114.1278165022775
 51
132.566321978077
  0
ARC
  8
0
  6
CONTINUOUS
 62
     7
 10
326.8125915527344
 20
319.0118713378906
 40
0.7999999523163035
 50
311.579832747295
 51
2.433049772696593
  0
ARC
  8
0
  6
CONTINUOUS
 62
     7
 10
333.6263427734375
 20
316.1895446777344
 40
0.7999999523162747
 50
132.5669776762372
 51
183.4201402735693
  0
ARC
  8
0
  6
CONTINUOUS
 62
     7
 10
330.7000732421875
 20
326.8000793457031
 40
2.999999999999977
 50
89.99998201391097
 51
179.9999640278208
  0
ARC
  8
0
  6
CONTINUOUS
 62
     7
 10
330.7000732421875
 20
323.2001037597656
 40
3
 50
180.0000906136925
 51
193.1569474081041
  0
POLYLINE
  8
0
  6
CONTINUOUS
 62
     7
 66
     1
 10
0
 20
0
  0
VERTEX
  8
0
  6
CONTINUOUS
 62
     7
 10
327.5183147284446
 20
73.26086644746019
 42
-0.06328245788244405
  0
VERTEX
  8
0
  6
CONTINUOUS
 62
     7
 10
328.1109232108225
 20
73.7797371597468
 42
-0.07412277892504508
  0
VERTEX
  8
0
  6
CONTINUOUS
 62
     7
 10
328.8222558375551
 20
74.1185251676625
 42
-0.06380846830741897
  0
VERTEX
  8
0
  6
CONTINUOUS
 62
     7
 10
329.5999145507813
 20
74.25
 42
0
  0
SEQEND
  8
0
  0
POLYLINE
  8
0
  6
CONTINUOUS
 62
     7
 66
     1
 10
0
 20
0
  0
VERTEX
  8
0
  6
CONTINUOUS
 62
     7
 10
382.5
 20
49.31153869628906
 42
0.02621788316708544
  0
VERTEX
  8
0
  6
CONTINUOUS
 62
     7
 10
383.1650089194031
 20
44.91638370665053
 42
0.0268237787128076
  0
VERTEX
  8
0
  6
CONTINUOUS
 62
     7
 10
384.2913942470283
 20
40.61384881396963
 42
0.02779516651581294
  0
VERTEX
  8
0
  6
CONTINUOUS
 62
     7
 10
385.8798619035138
 20
36.46161958192499
 42
0
  0
SEQEND
  8
0
  0
POLYLINE
  8
0
  6
CONTINUOUS
 62
     7
 66
     1
 10
0
 20
0
  0
VERTEX
  8
0
  6
CONTINUOUS
 62
     7
 10
517.4998779296875
 20
49.31153869628906
 42
-0.02621786739422841
  0
VERTEX
  8
0
  6
CONTINUOUS
 62
     7
 10
516.8348695456094
 20
44.91638631136969
 42
-0.02682376182385599
  0
VERTEX
  8
0
  6
CONTINUOUS
 62
     7
 10
515.708485304902
 20
40.61385387787645
 42
-0.02779095594030858
  0
VERTEX
  8
0
  6
CONTINUOUS
 62
     7
 10
514.1200363807346
 20
36.46161927894051
 42
0
  0
SEQEND
  8
0
  0
POLYLINE
  8
0
  6
CONTINUOUS
 62
     7
 66
     1
 10
0
 20
0
  0
VERTEX
  8
0
  6
CONTINUOUS
 62
     7
 10
492.5000610351563
 20
49.31153869628906
 42
0.02621783585007589
  0
VERTEX
  8
0
  6
CONTINUOUS
 62
     7
 10
493.165068348623
 20
44.91639152062199
 42
0.0268237280473768
  0
VERTEX
  8
0
  6
CONTINUOUS
 62
     7
 10
494.2914504155743
 20
40.61386400532891
 42
0.02778253475564823
  0
VERTEX
  8
0
  6
CONTINUOUS
 62
     7
 10
495.8798618749007
 20
36.46161867309959
 42
0
  0
SEQEND
  8
0
  0
POLYLINE
  8
0
  6
CONTINUOUS
 62
     7
 66
     1
 10
0
 20
0
  0
VERTEX
  8
0
  6
CONTINUOUS
 62
     7
 10
407.4999389648438
 20
49.31153869628906
 42
-0.02621783585005045
  0
VERTEX
  8
0
  6
CONTINUOUS
 62
     7
 10
406.834931651377
 20
44.91639152062199
 42
-0.02682372804733002
  0
VERTEX
  8
0
  6
CONTINUOUS
 62
     7
 10
405.7085495844257
 20
40.61386400532891
 42
-0.0277825347556789
  0
VERTEX
  8
0
  6
CONTINUOUS
 62
     7
 10
404.1201381250993
 20
36.46161867309959
 42
0
  0
SEQEND
  8
0
  0
POLYLINE
  8
0
  6
CONTINUOUS
 62
     7
 66
     1
 10
0
 20
0
 70
     1
  0
VERTEX
  8
0
  6
CONTINUOUS
 62
     7
 10
328.5
 20
73.5
 42
0.1103788528988981
  0
VERTEX
  8
0
  6
CONTINUOUS
 62
     7
 10
327.5878446044176
 20
73.29498173155821
 42
0.1025055869678221
  0
VERTEX
  8
0
  6
CONTINUOUS
 62
     7
 10
326.840512962789
 20
72.73097232318736
 42
0.09328870282208723
  0
VERTEX
  8
0
  6
CONTINUOUS
 62
     7
 10
326.3629073958789
 20
71.92408153962258
 42
0.0878214983730195
  0
VERTEX
  8
0
  6
CONTINUOUS
 62
     7
 10
326.2000122070313
 20
70.99996948242188
 42
0.08777034222658603
  0
VERTEX
  8
0
  6
CONTINUOUS
 62
     7
 10
326.3627350636716
 20
70.07635152198975
 42
0.09326074677679885
  0
VERTEX
  8
0
  6
CONTINUOUS
 62
     7
 10
326.840025175011
 20
69.26954257643837
 42
0.1026331421308702
  0
VERTEX
  8
0
  6
CONTINUOUS
 62
     7
 10
327.5882286484932
 20
68.70480939161303
 42
0.1103316139914801
  0
VERTEX
  8
0
  6
CONTINUOUS
 62
     7
 10
328.5
 20
68.49998474121094
 42
0.1103788317849327
  0
VERTEX
  8
0
  6
CONTINUOUS
 62
     7
 10
329.4121554557481
 20
68.70500276038098
 42
0.1025056312515353
  0
VERTEX
  8
0
  6
CONTINUOUS
 62
     7
 10
330.1594872168002
 20
69.26901200151572
 42
0.09328876260099739
  0
VERTEX
  8
0
  6
CONTINUOUS
 62
     7
 10
330.637092779861
 20
70.07590277880236
 42
0.08782156647288958
  0
VERTEX
  8
0
  6
CONTINUOUS
 62
     7
 10
330.7999877929688
 20
71.00001525878906
 42
0.08777033790645045
  0
VERTEX
  8
0
  6
CONTINUOUS
 62
     7
 10
330.6372645660601
 20
71.92363315378424
 42
0.0932606752351693
  0
VERTEX
  8
0
  6
CONTINUOUS
 62
     7
 10
330.1599742562513
 20
72.73044199107925
 42
0.1026330727107999
  0
VERTEX
  8
0
  6
CONTINUOUS
 62
     7
 10
329.4117708048894
 20
73.29517523399542
 42
0.1103316048798612
  0
SEQEND
  8
0
  0
POLYLINE
  8
0
  6
CONTINUOUS
 62
     7
 66
     1
 10
0
 20
0
  0
VERTEX
  8
0
  6
CONTINUOUS
 62
     7
 10
327.5000610351563
 20
68.75999450683594
 42
0.06376157471438985
  0
VERTEX
  8
0
  6
CONTINUOUS
 62
     7
 10
328.0955480365758
 20
68.23064846855321
 42
0.07495201348181914
  0
VERTEX
  8
0
  6
CONTINUOUS
 62
     7
 10
328.8134127905619
 20
67.88417087752247
 42
0.06464361764977415
  0
VERTEX
  8
0
  6
CONTINUOUS
 62
     7
 10
329.5999145507813
 20
67.74998474121094
 42
0
  0
SEQEND
  8
0
  0
POLYLINE
  8
0
  6
CONTINUOUS
 62
     7
 66
     1
 10
0
 20
0
  0
VERTEX
  8
0
  6
CONTINUOUS
 62
     7
 10
327.3758461087335
 20
68.81888835888563
 42
0.06283136395647468
  0
VERTEX
  8
0
  6
CONTINUOUS
 62
     7
 10
327.9401419411635
 20
68.29271123106801
 42
0.06649712081450944
  0
VERTEX
  8
0
  6
CONTINUOUS
 62
     7
 10
328.6201402425502
 20
67.92820021125463
 42
0.06915662163682664
  0
VERTEX
  8
0
  6
CONTINUOUS
 62
     7
 10
329.3724949124869
 20
67.75933673107805
 42
0.0697544769612054
  0
VERTEX
  8
0
  6
CONTINUOUS
 62
     7
 10
330.1412507779491
 20
67.80333448101607
 42
0.06816419635267593
  0
VERTEX
  8
0
  6
CONTINUOUS
 62
     7
 10
330.8690941125061
 20
68.05515953580056
 42
0.06499567411883421
  0
VERTEX
  8
0
  6
CONTINUOUS
 62
     7
 10
331.5056584856209
 20
68.48999493287482
 42
0.06129009234096404
  0
VERTEX
  8
0
  6
CONTINUOUS
 62
     7
 10
332.0137149435859
 20
69.07009840029032
 42
0.05807866639551821
  0
VERTEX
  8
0
  6
CONTINUOUS
 62
     7
 10
332.3707129273477
 20
69.7540932637163
 42
0.0559047172428444
  0
VERTEX
  8
0
  6
CONTINUOUS
 62
     7
 10
332.5643747151689
 20
70.50123766369484
 42
0.05496384009700631
  0
VERTEX
  8
0
  6
CONTINUOUS
 62
     7
 10
332.5893935011638
 20
71.27196121678007
 42
0.05547418511369896
  0
VERTEX
  8
0
  6
CONTINUOUS
 62
     7
 10
332.4453174279368
 20
72.02985219164395
 42
0.05728088044859941
  0
VERTEX
  8
0
  6
CONTINUOUS
 62
     7
 10
332.1359091546916
 20
72.7362956835245
 42
0.06026874745121038
  0
VERTEX
  8
0
  6
CONTINUOUS
 62
     7
 10
331.670669924547
 20
73.35160589850067
 42
0.06395269684397609
  0
VERTEX
  8
0
  6
CONTINUOUS
 62
     7
 10
331.0684622025726
 20
73.83398457243241
 42
0.06744485709436605
  0
VERTEX
  8
0
  6
CONTINUOUS
 62
     7
 10
330.3618034540672
 20
74.14344597523997
 42
0.06944110501666007
  0
VERTEX
  8
0
  6
CONTINUOUS
 62
     7
 10
329.5999145507813
 20
74.25
 42
0
  0
SEQEND
  8
0
  0
POLYLINE
  8
0
  6
CONTINUOUS
 62
     7
 66
     1
 10
0
 20
0
 70
     1
  0
VERTEX
  8
0
  6
CONTINUOUS
 62
     7
 10
11.35658168792725
 20
73.49997711181641
 42
0.2551592727848633
  0
VERTEX
  8
0
  6
CONTINUOUS
 62
     7
 10
10.82677183743896
 20
73.0750890120902
 42
0.06319138472285862
  0
VERTEX
  8
0
  6
CONTINUOUS
 62
     7
 10
10.57267674894329
 20
72.41220236627972
 42
0.03518638918183883
  0
VERTEX
  8
0
  6
CONTINUOUS
 62
     7
 10
10.44594705325642
 20
71.71215260483535
 42
0.0279853126153932
  0
VERTEX
  8
0
  6
CONTINUOUS
 62
     7
 10
10.40658473968506
 20
70.99997711181641
 42
0.02789942791007858
  0
VERTEX
  8
0
  6
CONTINUOUS
 62
     7
 10
10.44571839668897
 20
70.2898295515084
 42
0.03516017990502123
  0
VERTEX
  8
0
  6
CONTINUOUS
 62
     7
 10
10.5722122853401
 20
69.58953903499383
 42
0.06315573245388194
  0
VERTEX
  8
0
  6
CONTINUOUS
 62
     7
 10
10.82624427847951
 20
68.9257987936509
 42
0.2552844263578413
  0
VERTEX
  8
0
  6
CONTINUOUS
 62
     7
 10
11.35658168792724
 20
68.49997711181641
 42
0.2551594442424187
  0
VERTEX
  8
0
  6
CONTINUOUS
 62
     7
 10
11.88639179703004
 20
68.92486484404908
 42
0.06319147494019328
  0
VERTEX
  8
0
  6
CONTINUOUS
 62
     7
 10
12.14048693918092
 20
69.58775146284924
 42
0.03518642902213147
  0
VERTEX
  8
0
  6
CONTINUOUS
 62
     7
 10
12.26721652355681
 20
70.28780124289307
 42
0.02798535021589343
  0
VERTEX
  8
0
  6
CONTINUOUS
 62
     7
 10
12.30657863616943
 20
70.99997711181641
 42
0.02789949247680661
  0
VERTEX
  8
0
  6
CONTINUOUS
 62
     7
 10
12.26744543152288
 20
71.71012469551521
 42
0.03516026408841159
  0
VERTEX
  8
0
  6
CONTINUOUS
 62
     7
 10
12.14095178490499
 20
72.41041525244172
 42
0.06315586914473262
  0
VERTEX
  8
0
  6
CONTINUOUS
 62
     7
 10
11.88691973960936
 20
73.07415546268071
 42
0.2552843449381089
  0
SEQEND
  8
0
  0
POLYLINE
  8
0
  6
CONTINUOUS
 62
     7
 66
     1
 10
0
 20
0
  0
VERTEX
  8
0
  6
CONTINUOUS
 62
     7
 10
7.656569480895996
 20
73.84995269775391
 42
0.1885746071964723
  0
VERTEX
  8
0
  6
CONTINUOUS
 62
     7
 10
7.296839012636422
 20
73.6902640802209
 42
0.07574462457799958
  0
VERTEX
  8
0
  6
CONTINUOUS
 62
     7
 10
7.052604531215247
 20
73.37242763315906
 42
0.03933592155722233
  0
VERTEX
  8
0
  6
CONTINUOUS
 62
     7
 10
6.882742896526244
 20
73.00709407575472
 42
0.02577124213926331
  0
VERTEX
  8
0
  6
CONTINUOUS
 62
     7
 10
6.760588476065744
 20
72.62294344024922
 42
0.01950520664584279
  0
VERTEX
  8
0
  6
CONTINUOUS
 62
     7
 10
6.67309782116787
 20
72.22873168411388
 42
0.01621460194347601
  0
VERTEX
  8
0
  6
CONTINUOUS
 62
     7
 10
6.613737784255142
 20
71.8291407266896
 42
0.01446653041914969
  0
VERTEX
  8
0
  6
CONTINUOUS
 62
     7
 10
6.578870267237786
 20
71.4266160642881
 42
0.013691258932905
  0
VERTEX
  8
0
  6
CONTINUOUS
 62
     7
 10
6.566622326743099
 20
71.02247200401588
 42
0.01360482812298731
  0
VERTEX
  8
0
  6
CONTINUOUS
 62
     7
 10
6.576339272367938
 20
70.61962687196372
 42
0.01431525146579542
  0
VERTEX
  8
0
  6
CONTINUOUS
 62
     7
 10
6.608489721768306
 20
70.21737558097729
 42
0.01598184561772464
  0
VERTEX
  8
0
  6
CONTINUOUS
 62
     7
 10
6.665001475163574
 20
69.81655773826861
 42
0.0190267442191169
  0
VERTEX
  8
0
  6
CONTINUOUS
 62
     7
 10
6.749063948991041
 20
69.42140458556828
 42
0.02487976259998755
  0
VERTEX
  8
0
  6
CONTINUOUS
 62
     7
 10
6.867080435955423
 20
69.03500883346763
 42
0.03729613158310591
  0
VERTEX
  8
0
  6
CONTINUOUS
 62
     7
 10
7.031156179356922
 20
68.66582581088007
 42
0.06998281406614859
  0
VERTEX
  8
0
  6
CONTINUOUS
 62
     7
 10
7.266742334307275
 20
68.33849579920739
 42
0.1738206737508505
  0
VERTEX
  8
0
  6
CONTINUOUS
 62
     7
 10
7.616510111377387
 20
68.15189878706995
 42
0
  0
SEQEND
  8
0
  0
TEXT
  8
0
  6
CONTINUOUS
 62
     7
 10
-11.28550004959106
 20
-31.79999995231628
 40
3.599999904632568
 41
1.008382419577613
  1
SHS65C
  0
ENDSEC
  0
EOF
