  0
SECTION
  2
HEADER
  0
ENDSEC
  0
SECTION
  2
TABLES
  0
TABLE
  2
LTYPE
 70
    22
  0
LTYPE
  2
CONTINUOUS
 70
    64
  3
Solid line
 72
    65
 73
     0
 40
0.000000
  0
LTYPE
  2
DASHED
 70
    64
  3
__ __ __ __ __ __ __ __ __ __ __ __ __ __ __
 72
    65
 73
     2
 40
3.500000
 49
2.000000
 49
-1.500000
  0
LTYPE
  2
CENTER
 70
    64
  3
____ _ ____ _ ____ _ ____ _ ____ _ ____ _ ____
 72
    65
 73
     4
 40
17.500000
 49
13.000000
 49
-1.500000
 49
1.500000
 49
-1.500000
  0
LTYPE
  2
PHANTOM
 70
    64
  3
_____ _ _ _____ _ _ _____ _ _ _____ _ _ ____  
 72
    65
 73
     6
 40
15.500000
 49
8.000000
 49
-1.500000
 49
1.500000
 49
-1.500000
 49
1.500000
 49
-1.500000
  0
LTYPE
  2
DOT
 70
    64
  3
. . . . . . . . . . . . . . . . . . . . . . . .
 72
    65
 73
     2
 40
0.25
 49
0.0
 49
-0.25
  0
ENDTAB
  0
TABLE
  2
LAYER
 70
     1
  0
LAYER
  2
0
 70
     0
 62
     7
  6
CONTINUOUS
  0
ENDTAB
  0
TABLE
  2
STYLE
 70
     1
  0
STYLE
  2
STANDARD
 70
     0
 40
0.000000
 41
1.000000
 50
0.000000
 71
     0
 42
0.200000
  3
txt
  0
ENDTAB
  0
TABLE
  2
VIEW
 70
     0
  0
ENDTAB
  0
ENDSEC
  0
SECTION
  2
BLOCKS
  0
ENDSEC
  0
SECTION
  2
ENTITIES
  0
LINE
  8
0
  6
CONTINUOUS
 62
     7
 10
362.5
 20
18.99998474121094
 11
537.4999389648438
 21
18.99998474121094
  0
LINE
  8
0
  6
CENTER
 62
     7
 10
33.00009155273438
 20
71.99998474121094
 11
47.00006103515625
 21
71.99998474121094
  0
LINE
  8
0
  6
CONTINUOUS
 62
     7
 10
29.00000381469727
 20
25.86392402648926
 11
35.86393356323242
 21
18.9999942779541
  0
LINE
  8
0
  6
CONTINUOUS
 62
     7
 10
29.50003051757813
 20
18.99996185302734
 11
60.49996948242188
 21
18.99996185302734
  0
LINE
  8
0
  6
CONTINUOUS
 62
     7
 10
29.00006103515625
 20
33.05025100708008
 11
29.00006103515625
 21
25.86395645141602
  0
LINE
  8
0
  6
CONTINUOUS
 62
     7
 10
36
 20
49.94974136352539
 11
36
 21
40.05023574829102
  0
LINE
  8
0
  6
CONTINUOUS
 62
     7
 10
-28.4498291015625
 20
57.49998092651367
 11
28.4498291015625
 21
57.49998092651367
  0
LINE
  8
0
  6
CONTINUOUS
 62
     7
 10
29.00000381469727
 20
33.0501823425293
 11
36.0000114440918
 21
40.05018997192383
  0
LINE
  8
0
  6
CONTINUOUS
 62
     7
 10
28.44980049133301
 20
57.49993896484375
 11
36.0000114440918
 21
49.94972610473633
  0
LINE
  8
0
  6
CONTINUOUS
 62
     7
 10
61.5000114440918
 20
20.50000381469727
 11
59.99998092651367
 21
18.99996948242188
  0
LINE
  8
0
  6
CONTINUOUS
 62
     7
 10
59.49994659423828
 20
88.50000762939453
 11
61.49995040893555
 21
86.50000762939453
  0
LINE
  8
0
  6
CONTINUOUS
 62
     7
 10
61.5
 20
86.49996948242188
 11
61.5
 21
20.50000762939453
  0
LINE
  8
0
  6
CONTINUOUS
 62
     7
 10
-59.49997329711914
 20
88.49998474121094
 11
59.49997329711914
 21
88.49998474121094
  0
LINE
  8
0
  6
CONTINUOUS
 62
     7
 10
58.5
 20
18.99996185302734
 11
59.99990844726563
 21
18.99996185302734
  0
LINE
  8
0
  6
CONTINUOUS
 62
     7
 10
6.99998140335083
 20
-2.461375879647676E-005
 11
7.353513240814209
 21
0.3535071909427643
  0
LINE
  8
0
  6
DASHED
 62
     7
 10
12.99993896484375
 20
53.00000381469727
 11
12.99993896484375
 21
30.99999618530273
  0
LINE
  8
0
  6
DASHED
 62
     7
 10
9
 20
30.99999618530273
 11
9
 21
0.4999923706054688
  0
LINE
  8
0
  6
DASHED
 62
     7
 10
-13.00003051757813
 20
30.99999618530273
 11
12.99993896484375
 21
30.99999618530273
  0
LINE
  8
0
  6
CONTINUOUS
 62
     7
 10
31.49991607666016
 20
2.000018358230591
 11
29.49991416931152
 21
1.628976133360993E-005
  0
LINE
  8
0
  6
CONTINUOUS
 62
     7
 10
25.08571243286133
 20
23.41412544250488
 11
30.91409873962402
 21
17.58573722839356
  0
LINE
  8
0
  6
CONTINUOUS
 62
     7
 10
31.5
 20
16.17155456542969
 11
31.5
 21
1.999992370605469
  0
LINE
  8
0
  6
CONTINUOUS
 62
     7
 10
24.49996948242188
 20
33.9748649597168
 11
24.49996948242188
 21
24.82842636108398
  0
LINE
  8
0
  6
CONTINUOUS
 62
     7
 10
7.70709228515625
 20
0.4999923706054688
 11
20.2928466796875
 21
0.4999923706054688
  0
LINE
  8
0
  6
CONTINUOUS
 62
     7
 10
20.64633560180664
 20
0.353506863117218
 11
20.9998664855957
 21
-2.495093394827563E-005
  0
LINE
  8
0
  6
CONTINUOUS
 62
     7
 10
21
 20
0
 11
29.49993896484375
 21
0
  0
LINE
  8
0
  6
CONTINUOUS
 62
     7
 10
31.5
 20
47.73034286499023
 11
31.5
 21
42.27082443237305
  0
LINE
  8
0
  6
CONTINUOUS
 62
     7
 10
26.55972099304199
 20
36.85966110229492
 11
25.08577728271484
 21
35.38571929931641
  0
LINE
  8
0
  6
CENTER
 62
     7
 10
40.00003051757813
 20
78.99999237060547
 11
40.00003051757813
 21
65
  0
LINE
  8
0
  6
CONTINUOUS
 62
     7
 10
-26.5597095489502
 20
36.8597297668457
 11
-25.08576393127441
 21
35.38578414916992
  0
LINE
  8
0
  6
CONTINUOUS
 62
     7
 10
-7.704418659210205
 20
0.4999923706054688
 11
-20.29293823242188
 21
0.4999923706054688
  0
LINE
  8
0
  6
CONTINUOUS
 62
     7
 10
-7.000032901763916
 20
-2.461375879647676E-005
 11
-7.353564739227295
 21
0.3535071909427643
  0
LINE
  8
0
  6
CONTINUOUS
 62
     7
 10
7.000030517578125
 20
0
 11
-7.000030517578125
 21
0
  0
LINE
  8
0
  6
DASHED
 62
     7
 10
-13.00003051757813
 20
53.00000381469727
 11
-13.00003051757813
 21
30.99999618530273
  0
LINE
  8
0
  6
DASHED
 62
     7
 10
-9
 20
30.99999618530273
 11
-9
 21
0.4999923706054688
  0
LINE
  8
0
  6
CONTINUOUS
 62
     7
 10
-24.50006103515625
 20
33.9715690612793
 11
-24.50006103515625
 21
24.82842636108398
  0
LINE
  8
0
  6
CONTINUOUS
 62
     7
 10
-31.5
 20
16.17155456542969
 11
-31.5
 21
1.999992370605469
  0
LINE
  8
0
  6
CONTINUOUS
 62
     7
 10
-25.08582878112793
 20
23.4141902923584
 11
-30.91421699523926
 21
17.5858039855957
  0
LINE
  8
0
  6
CONTINUOUS
 62
     7
 10
-31.50003242492676
 20
1.999999523162842
 11
-29.50003051757813
 21
-2.592032387838117E-006
  0
LINE
  8
0
  6
CONTINUOUS
 62
     7
 10
26.23031616210938
 20
53.00000381469727
 11
-26.23040771484375
 21
53.00000381469727
  0
LINE
  8
0
  6
CONTINUOUS
 62
     7
 10
-31.5
 20
47.73036575317383
 11
-31.5
 21
42.27082443237305
  0
LINE
  8
0
  6
CONTINUOUS
 62
     7
 10
-20.64645195007324
 20
0.3535715937614441
 11
-21.00004768371582
 21
-2.495093394827563E-005
  0
LINE
  8
0
  6
CONTINUOUS
 62
     7
 10
-21
 20
0
 11
-29.50003051757813
 21
0
  0
LINE
  8
0
  6
CENTER
 62
     7
 10
351.0000610351563
 20
78.99998474121094
 11
354.0000610351563
 21
78.99998474121094
  0
LINE
  8
0
  6
CONTINUOUS
 62
     7
 10
339.5001220703125
 20
88.5
 11
339.5001220703125
 21
19.00003051757813
  0
LINE
  8
0
  6
CENTER
 62
     7
 10
352.5000610351563
 20
82.5
 11
352.5000610351563
 21
73.5
  0
LINE
  8
0
  6
CENTER
 62
     7
 10
357.0000610351563
 20
78
 11
348.0000610351563
 21
78
  0
LINE
  8
0
  6
CONTINUOUS
 62
     7
 10
339.5001220703125
 20
19.00003051757813
 11
362.5
 21
19.00003051757813
  0
LINE
  8
0
  6
CONTINUOUS
 62
     7
 10
560.4999389648438
 20
19.00003051757813
 11
537.5000610351563
 21
19.00003051757813
  0
LINE
  8
0
  6
CENTER
 62
     7
 10
543
 20
78
 11
552
 21
78
  0
LINE
  8
0
  6
CENTER
 62
     7
 10
547.5
 20
82.5
 11
547.5
 21
73.5
  0
LINE
  8
0
  6
CONTINUOUS
 62
     7
 10
560.4999389648438
 20
88.5
 11
560.4999389648438
 21
19.00003051757813
  0
LINE
  8
0
  6
CONTINUOUS
 62
     7
 10
338.7620239257813
 20
76.85343933105469
 11
339.5001220703125
 21
76.85343933105469
  0
LINE
  8
0
  6
CONTINUOUS
 62
     7
 10
338.2000732421875
 20
75.87991333007813
 11
338.2000732421875
 21
70.99992370605469
  0
LINE
  8
0
  6
CONTINUOUS
 62
     7
 10
330.7000732421875
 20
75.79994201660156
 11
338.2000732421875
 21
75.79994201660156
  0
LINE
  8
0
  6
CONTINUOUS
 62
     7
 10
338.2000732421875
 20
66.199951171875
 11
330.7000732421875
 21
66.199951171875
  0
LINE
  8
0
  6
CONTINUOUS
 62
     7
 10
328.550048828125
 20
74.5799560546875
 11
333.1249389648438
 21
74.5799560546875
  0
LINE
  8
0
  6
CONTINUOUS
 62
     7
 10
338.1999816894531
 20
75.87994384765625
 11
338.7620239257813
 21
76.85343170166016
  0
LINE
  8
0
  6
CONTINUOUS
 62
     7
 10
338.2000732421875
 20
70.99992370605469
 11
338.2000732421875
 21
66.11993408203125
  0
LINE
  8
0
  6
CONTINUOUS
 62
     7
 10
338.7620239257813
 20
65.14646148681641
 11
338.1999816894531
 21
66.11994934082031
  0
LINE
  8
0
  6
CONTINUOUS
 62
     7
 10
339.5001220703125
 20
65.14645385742188
 11
338.7620239257813
 21
65.14645385742188
  0
LINE
  8
0
  6
CONTINUOUS
 62
     7
 10
333.125
 20
74.57997894287109
 11
334.9650268554688
 21
70.99993896484375
  0
LINE
  8
0
  6
CONTINUOUS
 62
     7
 10
328.1528625488281
 20
73.80714416503906
 11
328.5500183105469
 21
74.57993316650391
  0
LINE
  8
0
  6
CONTINUOUS
 62
     7
 10
332.2500305175781
 20
74.58000183105469
 11
334.0900573730469
 21
70.99996948242188
  0
LINE
  8
0
  6
CONTINUOUS
 62
     7
 10
334.0899963378906
 20
70.99991607666016
 11
332.2500305175781
 21
67.419921875
  0
LINE
  8
0
  6
CONTINUOUS
 62
     7
 10
334.9649963378906
 20
70.99993896484375
 11
333.1249694824219
 21
67.41990661621094
  0
LINE
  8
0
  6
CONTINUOUS
 62
     7
 10
333.1249389648438
 20
67.41993713378906
 11
328.550048828125
 21
67.41993713378906
  0
LINE
  8
0
  6
CONTINUOUS
 62
     7
 10
328.550048828125
 20
67.41999816894531
 11
328.1528930664063
 21
68.19274139404297
  0
LINE
  8
0
  6
CENTER
 62
     7
 10
324.2239990234375
 20
71.00001525878906
 11
341.1991577148438
 21
71.00001525878906
  0
LINE
  8
0
  6
CENTER
 62
     7
 10
0
 20
91.00000762939453
 11
0
 21
-5.400260925292969
  0
LINE
  8
0
  6
CONTINUOUS
 62
     7
 10
560.5
 20
53.00001525878906
 11
710
 21
53.00001525878906
  0
LINE
  8
0
  6
DASHED
 62
     7
 10
237.9999389648438
 20
53.00001525878906
 11
237.9999389648438
 21
30.99998474121094
  0
LINE
  8
0
  6
DASHED
 62
     7
 10
234
 20
30.99998474121094
 11
234
 21
0
  0
LINE
  8
0
  6
DASHED
 62
     7
 10
237.9999389648438
 20
30.99998474121094
 11
212.0000610351563
 21
30.99998474121094
  0
LINE
  8
0
  6
DASHED
 62
     7
 10
216
 20
30.99998474121094
 11
216
 21
0
  0
LINE
  8
0
  6
DASHED
 62
     7
 10
212.0000610351563
 20
53.00001525878906
 11
212.0000610351563
 21
30.99998474121094
  0
LINE
  8
0
  6
CENTER
 62
     7
 10
225
 20
54.00001525878906
 11
225
 21
-1
  0
LINE
  8
0
  6
CONTINUOUS
 62
     7
 10
190
 20
53.00001525878906
 11
339.5001220703125
 21
53.00001525878906
  0
LINE
  8
0
  6
CONTINUOUS
 62
     7
 10
190
 20
0
 11
710
 21
0
  0
LINE
  8
0
  6
CONTINUOUS
 62
     7
 10
339.5000305175781
 20
88.49995422363281
 11
362.5
 21
88.49995422363281
  0
LINE
  8
0
  6
DASHED
 62
     7
 10
-45.99993896484375
 20
90.00000762939453
 11
-45.99993896484375
 21
69.99999237060547
  0
LINE
  8
0
  6
DASHED
 62
     7
 10
-45.0999755859375
 20
90.00000762939453
 11
-45.0999755859375
 21
64.19998931884766
  0
LINE
  8
0
  6
DASHED
 62
     7
 10
-29.99996376037598
 20
69.99996948242188
 11
-30.89993858337402
 21
68.44116973876953
  0
LINE
  8
0
  6
DASHED
 62
     7
 10
-37.99998092651367
 20
60.10080718994141
 11
-44.87503814697266
 21
64.07012176513672
  0
LINE
  8
0
  6
DASHED
 62
     7
 10
-45.09992218017578
 20
68.44111633300781
 11
-45.99995422363281
 21
70.00002288818359
  0
LINE
  8
0
  6
CENTER
 62
     7
 10
-37.99996948242188
 20
91.00000762939453
 11
-37.99996948242188
 21
59.1008186340332
  0
LINE
  8
0
  6
DASHED
 62
     7
 10
-30
 20
90.00000762939453
 11
-30
 21
69.99999237060547
  0
LINE
  8
0
  6
DASHED
 62
     7
 10
-30.89996337890625
 20
90.00000762939453
 11
-30.89996337890625
 21
64.19998931884766
  0
LINE
  8
0
  6
DASHED
 62
     7
 10
-30
 20
69.99999237060547
 11
-45.99993896484375
 21
69.99999237060547
  0
LINE
  8
0
  6
DASHED
 62
     7
 10
-31.12499809265137
 20
64.07009887695313
 11
-38.0000114440918
 21
60.10081100463867
  0
LINE
  8
0
  6
DASHED
 62
     7
 10
-30.89996337890625
 20
64.19998931884766
 11
-45.0999755859375
 21
64.19998931884766
  0
LINE
  8
0
  6
CONTINUOUS
 62
     7
 10
62.49993896484375
 20
69.99999237060547
 11
62.49993896484375
 21
20.9999885559082
  0
LINE
  8
0
  6
CONTINUOUS
 62
     7
 10
62.49994277954102
 20
69.99998474121094
 11
63.00000381469727
 21
70.50004577636719
  0
LINE
  8
0
  6
CONTINUOUS
 62
     7
 10
-29.50002479553223
 20
18.99999618530273
 11
-60.49996948242188
 21
18.99999618530273
  0
LINE
  8
0
  6
CONTINUOUS
 62
     7
 10
60.99995040893555
 20
90.00000762939453
 11
63
 21
87.99996185302734
  0
LINE
  8
0
  6
CONTINUOUS
 62
     7
 10
-62.49996948242188
 20
20.99998474121094
 11
-60.49996566772461
 21
18.99998283386231
  0
LINE
  8
0
  6
CONTINUOUS
 62
     7
 10
11.00006103515625
 20
89.49999237060547
 11
27
 21
89.49999237060547
  0
LINE
  8
0
  6
CONTINUOUS
 62
     7
 10
-62.49993896484375
 20
69.99996948242188
 11
-62.49993896484375
 21
20.9999885559082
  0
LINE
  8
0
  6
CONTINUOUS
 62
     7
 10
-26.99999046325684
 20
89.49996948242188
 11
-27.50002479553223
 21
90.00000762939453
  0
LINE
  8
0
  6
CONTINUOUS
 62
     7
 10
-60.99997329711914
 20
90.00003051757813
 11
-62.99997711181641
 21
88.00002288818359
  0
LINE
  8
0
  6
CONTINUOUS
 62
     7
 10
-62.49996185302734
 20
70.00001525878906
 11
-62.99999618530273
 21
70.50005340576172
  0
LINE
  8
0
  6
CONTINUOUS
 62
     7
 10
62.49995040893555
 20
21.00003623962402
 11
60.49994659423828
 21
19.00003433227539
  0
LINE
  8
0
  6
CONTINUOUS
 62
     7
 10
-10.49994087219238
 20
90.00000762939453
 11
-10.99997425079346
 21
89.49996948242188
  0
LINE
  8
0
  6
CONTINUOUS
 62
     7
 10
10.5000171661377
 20
90.00000762939453
 11
11.00004959106445
 21
89.49996948242188
  0
LINE
  8
0
  6
CONTINUOUS
 62
     7
 10
-10.99996948242188
 20
89.49999237060547
 11
-27
 21
89.49999237060547
  0
LINE
  8
0
  6
CONTINUOUS
 62
     7
 10
27.00006675720215
 20
89.49996948242188
 11
27.50006675720215
 21
89.99996948242188
  0
LINE
  8
0
  6
CONTINUOUS
 62
     7
 10
-63
 20
87.99999237060547
 11
-63
 21
70.50005340576172
  0
LINE
  8
0
  6
CONTINUOUS
 62
     7
 10
-27.49996948242188
 20
90.00000762939453
 11
-61.00003051757813
 21
90.00000762939453
  0
LINE
  8
0
  6
CONTINUOUS
 62
     7
 10
-10.49990844726563
 20
90.00000762939453
 11
10.5
 21
90.00000762939453
  0
LINE
  8
0
  6
CONTINUOUS
 62
     7
 10
27.50006103515625
 20
90.00000762939453
 11
61.00003051757813
 21
90.00000762939453
  0
LINE
  8
0
  6
CONTINUOUS
 62
     7
 10
560.4999389648438
 20
88.49995422363281
 11
537.4999389648438
 21
88.49995422363281
  0
LINE
  8
0
  6
DASHED
 62
     7
 10
408.125
 20
64.07005310058594
 11
414.9999694824219
 21
60.10078430175781
  0
LINE
  8
0
  6
DASHED
 62
     7
 10
407.8999938964844
 20
64.19998168945313
 11
422.1000061035156
 21
64.19998168945313
  0
LINE
  8
0
  6
DASHED
 62
     7
 10
407.0000305175781
 20
89.99995422363281
 11
407.0000305175781
 21
69.99998474121094
  0
LINE
  8
0
  6
DASHED
 62
     7
 10
415.0000305175781
 20
60.10078048706055
 11
421.8750305175781
 21
64.07006072998047
  0
LINE
  8
0
  6
DASHED
 62
     7
 10
422.0999755859375
 20
68.44106292724609
 11
423
 21
69.99997711181641
  0
LINE
  8
0
  6
DASHED
 62
     7
 10
407.0000305175781
 20
69.99998474121094
 11
423.0000610351563
 21
69.99998474121094
  0
LINE
  8
0
  6
DASHED
 62
     7
 10
423.0000610351563
 20
89.99995422363281
 11
423.0000610351563
 21
69.99998474121094
  0
LINE
  8
0
  6
DASHED
 62
     7
 10
407.8999938964844
 20
89.99995422363281
 11
407.8999938964844
 21
64.19993591308594
  0
LINE
  8
0
  6
CONTINUOUS
 62
     7
 10
362.5
 20
69.99998474121094
 11
537.4999389648438
 21
69.99998474121094
  0
LINE
  8
0
  6
CONTINUOUS
 62
     7
 10
362.5
 20
88.49995422363281
 11
362.5
 21
18.99998474121094
  0
LINE
  8
0
  6
CONTINUOUS
 62
     7
 10
536
 20
89.99996948242188
 11
537.4999389648438
 21
88.5
  0
LINE
  8
0
  6
CONTINUOUS
 62
     7
 10
537.4999389648438
 20
88.49995422363281
 11
537.4999389648438
 21
18.99998474121094
  0
LINE
  8
0
  6
CONTINUOUS
 62
     7
 10
364
 20
89.99999237060547
 11
362.4999694824219
 21
88.49998474121094
  0
LINE
  8
0
  6
CONTINUOUS
 62
     7
 10
364
 20
89.99995422363281
 11
535.9999389648438
 21
89.99995422363281
  0
LINE
  8
0
  6
DASHED
 62
     7
 10
422.1000061035156
 20
89.99995422363281
 11
422.1000061035156
 21
64.19993591308594
  0
LINE
  8
0
  6
CENTER
 62
     7
 10
415
 20
90.99995422363281
 11
415
 21
59.10076904296875
  0
LINE
  8
0
  6
DASHED
 62
     7
 10
407.0000305175781
 20
69.99995422363281
 11
407.8999938964844
 21
68.44117736816406
  0
LINE
  8
0
  6
CENTER
 62
     7
 10
485
 20
90.99995422363281
 11
485
 21
59.10076904296875
  0
LINE
  8
0
  6
CENTER
 62
     7
 10
-33.00009155273438
 20
71.99998474121094
 11
-47.00006103515625
 21
71.99998474121094
  0
LINE
  8
0
  6
CONTINUOUS
 62
     7
 10
-29.00000381469727
 20
25.86392402648926
 11
-35.86393356323242
 21
18.9999942779541
  0
LINE
  8
0
  6
CONTINUOUS
 62
     7
 10
-29.00006103515625
 20
33.05025100708008
 11
-29.00006103515625
 21
25.86395645141602
  0
LINE
  8
0
  6
CONTINUOUS
 62
     7
 10
-36
 20
49.94974136352539
 11
-36
 21
40.05023574829102
  0
LINE
  8
0
  6
CONTINUOUS
 62
     7
 10
-29.00000381469727
 20
33.0501823425293
 11
-36.0000114440918
 21
40.05018997192383
  0
LINE
  8
0
  6
CONTINUOUS
 62
     7
 10
-28.44980049133301
 20
57.49993896484375
 11
-36.0000114440918
 21
49.94972610473633
  0
LINE
  8
0
  6
CONTINUOUS
 62
     7
 10
-61.5000114440918
 20
20.50000381469727
 11
-59.99998092651367
 21
18.99996948242188
  0
LINE
  8
0
  6
CONTINUOUS
 62
     7
 10
-59.49994659423828
 20
88.50000762939453
 11
-61.49995040893555
 21
86.50000762939453
  0
LINE
  8
0
  6
CONTINUOUS
 62
     7
 10
-61.5
 20
86.49996948242188
 11
-61.5
 21
20.50000762939453
  0
LINE
  8
0
  6
CONTINUOUS
 62
     7
 10
-58.5
 20
18.99996185302734
 11
-59.99990844726563
 21
18.99996185302734
  0
LINE
  8
0
  6
CENTER
 62
     7
 10
-40.00003051757813
 20
78.99999237060547
 11
-40.00003051757813
 21
65
  0
LINE
  8
0
  6
CONTINUOUS
 62
     7
 10
63
 20
87.99996185302734
 11
63
 21
70.50004577636719
  0
LINE
  8
0
  6
CONTINUOUS
 62
     7
 10
190
 20
53.00001525878906
 11
190
 21
0
  0
LINE
  8
0
  6
CENTER
 62
     7
 10
375
 20
19.99998474121094
 11
375
 21
-1
  0
LINE
  8
0
  6
CENTER
 62
     7
 10
525
 20
19.99998474121094
 11
525
 21
-1
  0
LINE
  8
0
  6
CENTER
 62
     7
 10
675
 20
54.00001525878906
 11
675
 21
-1
  0
LINE
  8
0
  6
CONTINUOUS
 62
     7
 10
710
 20
53.00001525878906
 11
710
 21
0
  0
LINE
  8
0
  6
CONTINUOUS
 62
     7
 10
190
 20
48.19819641113281
 11
339.5001220703125
 21
48.19819641113281
  0
LINE
  8
0
  6
CONTINUOUS
 62
     7
 10
190
 20
41.80179977416992
 11
339.5001220703125
 21
41.80179977416992
  0
LINE
  8
0
  6
CONTINUOUS
 62
     7
 10
190
 20
34.79990768432617
 11
339.5001220703125
 21
34.79990768432617
  0
LINE
  8
0
  6
CONTINUOUS
 62
     7
 10
190
 20
23.99987030029297
 11
339.5001220703125
 21
23.99987030029297
  0
LINE
  8
0
  6
CONTINUOUS
 62
     7
 10
190
 20
16.99983978271484
 11
710
 21
16.99983978271484
  0
LINE
  8
0
  6
CONTINUOUS
 62
     7
 10
560.4999389648438
 20
48.19819641113281
 11
710
 21
48.19819641113281
  0
LINE
  8
0
  6
CONTINUOUS
 62
     7
 10
560.4999389648438
 20
41.80179977416992
 11
710
 21
41.80179977416992
  0
LINE
  8
0
  6
CONTINUOUS
 62
     7
 10
560.4999389648438
 20
34.79990768432617
 11
710
 21
34.79990768432617
  0
LINE
  8
0
  6
CONTINUOUS
 62
     7
 10
560.4999389648438
 20
23.99987030029297
 11
710
 21
23.99987030029297
  0
LINE
  8
0
  6
CENTER
 62
     7
 10
37.99996948242188
 20
91.00000762939453
 11
37.99996948242188
 21
59.1008186340332
  0
LINE
  8
0
  6
CONTINUOUS
 62
     7
 10
190
 20
334.4999389648438
 11
190
 21
271.4999389648438
  0
LINE
  8
0
  6
CONTINUOUS
 62
     7
 10
339.5001220703125
 20
364.4999389648438
 11
339.5001220703125
 21
241.4999542236328
  0
LINE
  8
0
  6
CONTINUOUS
 62
     7
 10
362.5
 20
365.9999389648438
 11
362.5
 21
239.9999542236328
  0
LINE
  8
0
  6
CONTINUOUS
 62
     7
 10
537.4999389648438
 20
365.9999389648438
 11
537.4999389648438
 21
239.9999542236328
  0
LINE
  8
0
  6
CENTER
 62
     7
 10
189
 20
302.9999389648438
 11
711
 21
302.9999389648438
  0
LINE
  8
0
  6
CONTINUOUS
 62
     7
 10
339.5001220703125
 20
241.4999542236328
 11
362.5
 21
241.4999542236328
  0
LINE
  8
0
  6
CONTINUOUS
 62
     7
 10
362.5
 20
239.9999542236328
 11
537.4999389648438
 21
239.9999542236328
  0
LINE
  8
0
  6
CONTINUOUS
 62
     7
 10
339.5001220703125
 20
364.4999389648438
 11
362.5
 21
364.4999389648438
  0
LINE
  8
0
  6
CONTINUOUS
 62
     7
 10
362.5
 20
365.9999389648438
 11
537.4999389648438
 21
365.9999389648438
  0
LINE
  8
0
  6
CONTINUOUS
 62
     7
 10
190
 20
334.4999389648438
 11
339.5001220703125
 21
334.4999389648438
  0
LINE
  8
0
  6
CONTINUOUS
 62
     7
 10
190
 20
271.4999389648438
 11
339.5001220703125
 21
271.4999389648438
  0
LINE
  8
0
  6
CONTINUOUS
 62
     7
 10
190
 20
329.6981506347656
 11
339.5001220703125
 21
329.6981506347656
  0
LINE
  8
0
  6
CONTINUOUS
 62
     7
 10
190
 20
276.3017578125
 11
339.5001220703125
 21
276.3017578125
  0
LINE
  8
0
  6
CENTER
 62
     7
 10
415
 20
273.9999389648438
 11
415
 21
255.9999542236328
  0
LINE
  8
0
  6
CENTER
 62
     7
 10
406
 20
264.9999389648438
 11
424
 21
264.9999389648438
  0
LINE
  8
0
  6
CENTER
 62
     7
 10
493.9999694824219
 20
264.9999389648438
 11
475.9999694824219
 21
264.9999389648438
  0
LINE
  8
0
  6
CENTER
 62
     7
 10
484.9999694824219
 20
273.9999389648438
 11
484.9999694824219
 21
255.9999542236328
  0
LINE
  8
0
  6
CENTER
 62
     7
 10
406
 20
340.9999389648438
 11
424
 21
340.9999389648438
  0
LINE
  8
0
  6
CENTER
 62
     7
 10
484.9999694824219
 20
331.9999389648438
 11
484.9999694824219
 21
349.9999389648438
  0
LINE
  8
0
  6
CENTER
 62
     7
 10
415
 20
331.9999389648438
 11
415
 21
349.9999389648438
  0
LINE
  8
0
  6
CENTER
 62
     7
 10
493.9999694824219
 20
340.9999389648438
 11
475.9999694824219
 21
340.9999389648438
  0
LINE
  8
0
  6
CENTER
 62
     7
 10
225
 20
316.9999389648438
 11
225
 21
288.9999389648438
  0
LINE
  8
0
  6
CONTINUOUS
 62
     7
 10
709.9999389648438
 20
334.4999389648438
 11
709.9999389648438
 21
271.4999389648438
  0
LINE
  8
0
  6
CENTER
 62
     7
 10
674.9999389648438
 20
316.9999389648438
 11
674.9999389648438
 21
288.9999389648438
  0
LINE
  8
0
  6
CONTINUOUS
 62
     7
 10
709.9999389648438
 20
329.6981506347656
 11
560.4998168945313
 21
329.6981506347656
  0
LINE
  8
0
  6
CONTINUOUS
 62
     7
 10
560.4998168945313
 20
241.4999542236328
 11
537.4999389648438
 21
241.4999542236328
  0
LINE
  8
0
  6
CONTINUOUS
 62
     7
 10
709.9999389648438
 20
271.4999389648438
 11
560.4998168945313
 21
271.4999389648438
  0
LINE
  8
0
  6
CONTINUOUS
 62
     7
 10
709.9999389648438
 20
334.4999389648438
 11
560.4998168945313
 21
334.4999389648438
  0
LINE
  8
0
  6
CONTINUOUS
 62
     7
 10
709.9999389648438
 20
276.3017578125
 11
560.4998168945313
 21
276.3017578125
  0
LINE
  8
0
  6
CONTINUOUS
 62
     7
 10
560.4998168945313
 20
364.4999389648438
 11
537.4999389648438
 21
364.4999389648438
  0
LINE
  8
0
  6
CONTINUOUS
 62
     7
 10
560.4998168945313
 20
364.4999389648438
 11
560.4998168945313
 21
241.4999542236328
  0
LINE
  8
0
  6
CENTER
 62
     7
 10
524.9999389648438
 20
316.9999389648438
 11
524.9999389648438
 21
288.9999389648438
  0
LINE
  8
0
  6
CENTER
 62
     7
 10
374.9999694824219
 20
316.9999389648438
 11
374.9999694824219
 21
288.9999389648438
  0
LINE
  8
0
  6
CONTINUOUS
 62
     7
 10
362.5
 20
313.4999389648438
 11
537.4999389648438
 21
313.4999389648438
  0
LINE
  8
0
  6
CONTINUOUS
 62
     7
 10
362.5
 20
330.4999389648438
 11
537.4999389648438
 21
330.4999389648438
  0
LINE
  8
0
  6
CONTINUOUS
 62
     7
 10
362.5
 20
275.4999389648438
 11
537.4999389648438
 21
275.4999389648438
  0
LINE
  8
0
  6
CONTINUOUS
 62
     7
 10
362.5
 20
292.4999389648438
 11
537.4999389648438
 21
292.4999389648438
  0
LINE
  8
0
  6
CENTER
 62
     7
 10
327.8629455566406
 20
289.9113159179688
 11
333.44189453125
 21
303.3800354003906
  0
LINE
  8
0
  6
CONTINUOUS
 62
     7
 10
326.2831420898438
 20
292.3687744140625
 11
330.7177429199219
 21
290.5319213867188
  0
LINE
  8
0
  6
CONTINUOUS
 62
     7
 10
326.4848937988281
 20
295.2076416015625
 11
332.5824584960938
 21
292.6819458007813
  0
LINE
  8
0
  6
CONTINUOUS
 62
     7
 10
326.2831420898438
 20
292.3687744140625
 11
326.4848937988281
 21
295.2076721191406
  0
LINE
  8
0
  6
CONTINUOUS
 62
     7
 10
330.7178039550781
 20
290.5318908691406
 11
332.58251953125
 21
292.6819458007813
  0
LINE
  8
0
  6
CONTINUOUS
 62
     7
 10
327.2236022949219
 20
298.9285583496094
 11
327.6382751464844
 21
299.9296264648438
  0
LINE
  8
0
  6
CONTINUOUS
 62
     7
 10
334.6912231445313
 20
295.8353576660156
 11
335.1058654785156
 21
296.83642578125
  0
LINE
  8
0
  6
CONTINUOUS
 62
     7
 10
328.417724609375
 20
300.2524108886719
 11
327.6382751464844
 21
299.9295654296875
  0
LINE
  8
0
  6
CONTINUOUS
 62
     7
 10
328.8609008789063
 20
297.6009521484375
 11
329.7334594726563
 21
299.7074890136719
  0
LINE
  8
0
  6
CONTINUOUS
 62
     7
 10
327.7788391113281
 20
300.5171203613281
 11
334.7830200195313
 21
297.6159057617188
  0
LINE
  8
0
  6
CONTINUOUS
 62
     7
 10
335.1058959960938
 20
296.8363952636719
 11
334.7830200195313
 21
297.6158447265625
  0
LINE
  8
0
  6
CONTINUOUS
 62
     7
 10
327.6151733398438
 20
296.6298522949219
 11
332.7888793945313
 21
294.48681640625
  0
LINE
  8
0
  6
CONTINUOUS
 62
     7
 10
338.2001037597656
 20
307.9999389648438
 11
338.2001037597656
 21
297.9999389648438
  0
LINE
  8
0
  6
CONTINUOUS
 62
     7
 10
327.7001037597656
 20
304.7999267578125
 11
327.7001037597656
 21
301.1452331542969
  0
LINE
  8
0
  6
CONTINUOUS
 62
     7
 10
338.2001037597656
 20
307.9999389648438
 11
339.5001220703125
 21
307.9999389648438
  0
LINE
  8
0
  6
CONTINUOUS
 62
     7
 10
330.7001037597656
 20
307.7999267578125
 11
338.2001037597656
 21
307.7999267578125
  0
LINE
  8
0
  6
CONTINUOUS
 62
     7
 10
333.3729858398438
 20
298.199951171875
 11
338.2001037597656
 21
298.199951171875
  0
LINE
  8
0
  6
CONTINUOUS
 62
     7
 10
338.2001037597656
 20
297.9999389648438
 11
339.5001220703125
 21
297.9999389648438
  0
LINE
  8
0
  6
CONTINUOUS
 62
     7
 10
327.4533996582031
 20
298.1839599609375
 11
334.002197265625
 21
295.4713439941406
  0
LINE
  8
0
  6
CONTINUOUS
 62
     7
 10
332.5946960449219
 20
296.0543823242188
 11
333.4672241210938
 21
298.160888671875
  0
LINE
  8
0
  6
CENTER
 62
     7
 10
-6.817865371704102
 20
70.99997711181641
 11
14.146559715271
 21
70.99997711181641
  0
LINE
  8
0
  6
CONTINUOUS
 62
     7
 10
2.616576194763184
 20
74.49997711181641
 11
6.696562767028809
 21
74.49997711181641
  0
LINE
  8
0
  6
CONTINUOUS
 62
     7
 10
2.616576194763184
 20
67.49997711181641
 11
6.696562767028809
 21
67.49997711181641
  0
LINE
  8
0
  6
CONTINUOUS
 62
     7
 10
1.966568350791931
 20
70.99993133544922
 11
2.616562128067017
 21
67.49993133544922
  0
LINE
  8
0
  6
CONTINUOUS
 62
     7
 10
1.966565608978272
 20
70.99995422363281
 11
2.616556644439697
 21
74.49993896484375
  0
LINE
  8
0
  6
CONTINUOUS
 62
     7
 10
4.276580333709717
 20
70.99993133544922
 11
4.926591873168945
 21
67.49991607666016
  0
LINE
  8
0
  6
CONTINUOUS
 62
     7
 10
4.276552677154541
 20
70.99994659423828
 11
4.926563739776611
 21
74.49995422363281
  0
LINE
  8
0
  6
CONTINUOUS
 62
     7
 10
6.786579608917236
 20
67.96994781494141
 11
6.696567535400391
 21
67.49994659423828
  0
LINE
  8
0
  6
CONTINUOUS
 62
     7
 10
6.786599636077881
 20
74.01996612548828
 11
6.696591377258301
 21
74.49995422363281
  0
LINE
  8
0
  6
CONTINUOUS
 62
     7
 10
8.602526664733887
 20
67.75425720214844
 11
11.35655879974365
 21
68.49993133544922
  0
LINE
  8
0
  6
CONTINUOUS
 62
     7
 10
8.586551666259766
 20
74.24996948242188
 11
11.35656356811523
 21
73.49996185302734
  0
LINE
  8
0
  6
CONTINUOUS
 62
     7
 10
-5.000020980834961
 20
68.11322784423828
 11
-2.781060175038874E-005
 21
65.22647857666016
  0
LINE
  8
0
  6
CONTINUOUS
 62
     7
 10
-4.999999046325684
 20
73.88671112060547
 11
-4.999999046325684
 21
70.99997711181641
  0
LINE
  8
0
  6
CONTINUOUS
 62
     7
 10
-3.419100539758802E-005
 20
76.77344512939453
 11
-5.000030517578125
 21
73.88669586181641
  0
LINE
  8
0
  6
CONTINUOUS
 62
     7
 10
-4.999999046325684
 20
70.99997711181641
 11
-4.999999046325684
 21
68.11324310302734
  0
LINE
  8
0
  6
CONTINUOUS
 62
     7
 10
3.937795877456665
 20
74.49996948242188
 11
3.698355794767849E-005
 21
76.77342987060547
  0
LINE
  8
0
  6
CONTINUOUS
 62
     7
 10
1.776278804754838E-005
 20
65.22650909423828
 11
3.937779903411865
 21
67.49997711181641
  0
ARC
  8
0
  6
CONTINUOUS
 62
     7
 10
-7.707183837890625
 20
0
 40
0.5000000000000003
 50
45.00000125223905
 51
90.00000250447816
  0
ARC
  8
0
  6
CONTINUOUS
 62
     7
 10
-20.29293823242188
 20
0
 40
0.4999999999999999
 50
90.00000250447806
 51
135.0000003416227
  0
ARC
  8
0
  6
CONTINUOUS
 62
     7
 10
-26.20623779296875
 20
37.2132682800293
 40
0.4999999999999993
 50
183.2962716052487
 51
224.9999996583772
  0
ARC
  8
0
  6
CONTINUOUS
 62
     7
 10
-26.50003051757813
 20
33.9715690612793
 40
2
 50
0
 51
45.00000125223906
  0
ARC
  8
0
  6
CONTINUOUS
 62
     7
 10
-31.59722900390625
 20
53.09723281860352
 40
4.899999618530273
 50
276.3497648196943
 51
353.6502326758276
  0
ARC
  8
0
  6
CONTINUOUS
 62
     7
 10
-29.50003051757813
 20
16.17155456542969
 40
2.000000000000001
 50
135.0000003416226
 51
180.0000050089563
  0
ARC
  8
0
  6
CONTINUOUS
 62
     7
 10
-26.50003051757813
 20
24.82842636108398
 40
1.999999999999999
 50
314.9999987477609
 51
1.017777498068325E-013
  0
ARC
  8
0
  6
CONTINUOUS
 62
     7
 10
-31.59722900390625
 20
36.90276718139648
 40
4.899999618530273
 50
3.296273625997063
 51
83.65023518030577
  0
ARC
  8
0
  6
CONTINUOUS
 62
     7
 10
-31.00003051757813
 20
42.27082443237305
 40
0.4999999999999986
 50
179.9999913485778
 51
263.616041432088
  0
ARC
  8
0
  6
CONTINUOUS
 62
     7
 10
-26.23040771484375
 20
52.4999885559082
 40
0.5000000000000004
 50
90.00000250447806
 51
173.6502376847838
  0
ARC
  8
0
  6
CONTINUOUS
 62
     7
 10
-31.00003051757813
 20
47.73036575317383
 40
0.5000000000000007
 50
96.34976982865065
 51
180.0000050089561
  0
CIRCLE
  8
0
  6
CONTINUOUS
 62
     7
 10
352.5000610351563
 20
78.99998474121094
 40
1
  0
CIRCLE
  8
0
  6
CONTINUOUS
 62
     7
 10
352.5000610351563
 20
78
 40
2.599999904632568
  0
ARC
  8
0
  6
CONTINUOUS
 62
     7
 10
330.7000732421875
 20
72.79994201660156
 40
3.000000000000006
 50
89.99998201391097
 51
165.8646416536697
  0
ARC
  8
0
  6
CONTINUOUS
 62
     7
 10
330.7000732421875
 20
69.199951171875
 40
2.99999999999998
 50
195.6428630584223
 51
270.0000726276024
  0
ARC
  8
0
  6
CONTINUOUS
 62
     7
 10
7.70709228515625
 20
0
 40
0.4999999999999999
 50
90.00000250447816
 51
135.0000003416227
  0
ARC
  8
0
  6
CONTINUOUS
 62
     7
 10
20.2928466796875
 20
0
 40
0.4999999999999991
 50
45.00000125223919
 51
90.00000250447806
  0
ARC
  8
0
  6
CONTINUOUS
 62
     7
 10
26.20614624023438
 20
37.2132682800293
 40
0.4999999999999991
 50
314.9999987477608
 51
356.703726374003
  0
ARC
  8
0
  6
CONTINUOUS
 62
     7
 10
26.23031616210938
 20
52.4999885559082
 40
0.5000000000000002
 50
6.349767324172241
 51
90.00000250447806
  0
ARC
  8
0
  6
CONTINUOUS
 62
     7
 10
30.99993896484375
 20
42.27082443237305
 40
0.5000000000000002
 50
276.3839635768686
 51
0
  0
ARC
  8
0
  6
CONTINUOUS
 62
     7
 10
31.59722900390625
 20
36.90276718139648
 40
4.899999618530275
 50
96.34976982865055
 51
176.7037283947515
  0
ARC
  8
0
  6
CONTINUOUS
 62
     7
 10
26.49993896484375
 20
24.82842636108398
 40
2.000000000000001
 50
179.999991348578
 51
224.9999960159116
  0
ARC
  8
0
  6
CONTINUOUS
 62
     7
 10
29.49993896484375
 20
16.17155456542969
 40
2
 50
0
 51
45.00000125223906
  0
ARC
  8
0
  6
CONTINUOUS
 62
     7
 10
31.59722900390625
 20
53.09723281860352
 40
4.899999618530275
 50
186.3497623152161
 51
263.6502301713495
  0
ARC
  8
0
  6
CONTINUOUS
 62
     7
 10
30.99993896484375
 20
47.73034286499023
 40
0.5
 50
0
 51
83.65023518030577
  0
ARC
  8
0
  6
CONTINUOUS
 62
     7
 10
26.49993896484375
 20
33.9715690612793
 40
2.000000000000001
 50
135.0000003416226
 51
180.0000050089563
  0
CIRCLE
  8
0
  6
CONTINUOUS
 62
     7
 10
-40.00003051757813
 20
72.00000762939453
 40
2.599999904632568
  0
CIRCLE
  8
0
  6
CONTINUOUS
 62
     7
 10
415
 20
264.9999389648438
 40
7.100006103515625
  0
CIRCLE
  8
0
  6
CONTINUOUS
 62
     7
 10
415
 20
264.9999389648438
 40
7.999969482421875
  0
CIRCLE
  8
0
  6
CONTINUOUS
 62
     7
 10
225
 20
302.9999389648438
 40
9
  0
CIRCLE
  8
0
  6
CONTINUOUS
 62
     7
 10
225
 20
302.9999389648438
 40
12.99993896484375
  0
ARC
  8
0
  6
CONTINUOUS
 62
     7
 10
329.53369140625
 20
293.9448547363281
 40
3.299999237060546
 50
131.5803705110077
 51
157.4999548639656
  0
ARC
  8
0
  6
CONTINUOUS
 62
     7
 10
329.53369140625
 20
293.9448547363281
 40
3.299999237060556
 50
337.5000181569004
 51
3.419602296414665
  0
ARC
  8
0
  6
CONTINUOUS
 62
     7
 10
321.6173400878906
 20
296.7909240722656
 40
6.000000000000008
 50
2.433650829345248
 51
20.87173987704925
  0
ARC
  8
0
  6
CONTINUOUS
 62
     7
 10
337.1438903808594
 20
290.359619140625
 40
6.000000000000011
 50
114.1278165022775
 51
132.566321978077
  0
ARC
  8
0
  6
CONTINUOUS
 62
     7
 10
326.8126525878906
 20
297.0117492675781
 40
0.7999999523163035
 50
311.579832747295
 51
2.433049772696593
  0
ARC
  8
0
  6
CONTINUOUS
 62
     7
 10
333.6264038085938
 20
294.1893920898438
 40
0.7999999523162747
 50
132.5669776762372
 51
183.4201402735693
  0
ARC
  8
0
  6
CONTINUOUS
 62
     7
 10
330.7001037597656
 20
304.7999267578125
 40
2.999999999999977
 50
89.99998201391097
 51
179.9999640278208
  0
ARC
  8
0
  6
CONTINUOUS
 62
     7
 10
330.7001037597656
 20
301.199951171875
 40
3
 50
180.0000906136925
 51
193.1569474081041
  0
ARC
  8
0
  6
CONTINUOUS
 62
     7
 10
8.446578025817871
 20
68.70996856689453
 40
0.9683421850204426
 50
215.3314570768738
 51
278.297222506794
  0
ARC
  8
0
  6
CONTINUOUS
 62
     7
 10
7.456587791442871
 20
66.91997528076172
 40
1.246148109436042
 50
80.76452806729962
 51
142.1250351177267
  0
ARC
  8
0
  6
CONTINUOUS
 62
     7
 10
7.456587791442871
 20
75.07997894287109
 40
1.254199028015134
 50
217.8749648822733
 51
279.2353626496736
  0
ARC
  8
0
  6
CONTINUOUS
 62
     7
 10
8.446578025817871
 20
73.28997039794922
 40
0.9701611399650598
 50
81.70288677623263
 51
144.668542923126
  0
ARC
  8
0
  6
CONTINUOUS
 62
     7
 10
0
 20
70.99997711181641
 40
4.79999923706055
 50
46.95109601507203
 51
313.1834072577874
  0
POLYLINE
  8
0
  6
CONTINUOUS
 62
     7
 66
     1
 10
0
 20
0
  0
VERTEX
  8
0
  6
CONTINUOUS
 62
     7
 10
327.5183757636008
 20
73.26086644746019
 42
-0.06328245788878061
  0
VERTEX
  8
0
  6
CONTINUOUS
 62
     7
 10
328.1109842459787
 20
73.7797371597468
 42
-0.07412277892464031
  0
VERTEX
  8
0
  6
CONTINUOUS
 62
     7
 10
328.8223168727113
 20
74.1185251676625
 42
-0.06380846830875149
  0
VERTEX
  8
0
  6
CONTINUOUS
 62
     7
 10
329.5999755859375
 20
74.25
 42
0
  0
SEQEND
  8
0
  0
POLYLINE
  8
0
  6
CONTINUOUS
 62
     7
 66
     1
 10
0
 20
0
 70
     1
  0
VERTEX
  8
0
  6
CONTINUOUS
 62
     7
 10
328.5000610351563
 20
73.5
 42
0.1103788529051114
  0
VERTEX
  8
0
  6
CONTINUOUS
 62
     7
 10
327.5879056395738
 20
73.29498173155821
 42
0.102505586963028
  0
VERTEX
  8
0
  6
CONTINUOUS
 62
     7
 10
326.8405739979453
 20
72.73097232318736
 42
0.09328870281865322
  0
VERTEX
  8
0
  6
CONTINUOUS
 62
     7
 10
326.3629684310351
 20
71.92408153962259
 42
0.0878214983738408
  0
VERTEX
  8
0
  6
CONTINUOUS
 62
     7
 10
326.2000732421875
 20
70.99996948242188
 42
0.08777034222291968
  0
VERTEX
  8
0
  6
CONTINUOUS
 62
     7
 10
326.3627960988279
 20
70.07635152198975
 42
0.09326074677627799
  0
VERTEX
  8
0
  6
CONTINUOUS
 62
     7
 10
326.8400862101672
 20
69.26954257643837
 42
0.1026331421309907
  0
VERTEX
  8
0
  6
CONTINUOUS
 62
     7
 10
327.5882896836494
 20
68.70480939161303
 42
0.1103316139928958
  0
VERTEX
  8
0
  6
CONTINUOUS
 62
     7
 10
328.5000610351563
 20
68.49998474121094
 42
0.1103788317874568
  0
VERTEX
  8
0
  6
CONTINUOUS
 62
     7
 10
329.4122164909044
 20
68.70500276038096
 42
0.1025056312474202
  0
VERTEX
  8
0
  6
CONTINUOUS
 62
     7
 10
330.1595482519564
 20
69.26901200151572
 42
0.09328876260367168
  0
VERTEX
  8
0
  6
CONTINUOUS
 62
     7
 10
330.6371538150171
 20
70.07590277880236
 42
0.08782156647305203
  0
VERTEX
  8
0
  6
CONTINUOUS
 62
     7
 10
330.800048828125
 20
71.00001525878906
 42
0.08777033791000431
  0
VERTEX
  8
0
  6
CONTINUOUS
 62
     7
 10
330.6373256012164
 20
71.92363315378424
 42
0.09326067522861749
  0
VERTEX
  8
0
  6
CONTINUOUS
 62
     7
 10
330.1600352914076
 20
72.73044199107925
 42
0.1026330727139494
  0
VERTEX
  8
0
  6
CONTINUOUS
 62
     7
 10
329.4118318400457
 20
73.29517523399542
 42
0.1103316048811791
  0
SEQEND
  8
0
  0
POLYLINE
  8
0
  6
CONTINUOUS
 62
     7
 66
     1
 10
0
 20
0
  0
VERTEX
  8
0
  6
CONTINUOUS
 62
     7
 10
327.5001220703125
 20
68.75999450683594
 42
0.06376157471657105
  0
VERTEX
  8
0
  6
CONTINUOUS
 62
     7
 10
328.095609071732
 20
68.23064846855321
 42
0.07495201348146878
  0
VERTEX
  8
0
  6
CONTINUOUS
 62
     7
 10
328.8134738257181
 20
67.88417087752247
 42
0.06464361765458969
  0
VERTEX
  8
0
  6
CONTINUOUS
 62
     7
 10
329.5999755859375
 20
67.74998474121094
 42
0
  0
SEQEND
  8
0
  0
POLYLINE
  8
0
  6
CONTINUOUS
 62
     7
 66
     1
 10
0
 20
0
  0
VERTEX
  8
0
  6
CONTINUOUS
 62
     7
 10
327.3759071438897
 20
68.81888835888567
 42
0.06283136395634471
  0
VERTEX
  8
0
  6
CONTINUOUS
 62
     7
 10
327.9402029763198
 20
68.29271123106804
 42
0.06649712082305537
  0
VERTEX
  8
0
  6
CONTINUOUS
 62
     7
 10
328.6202012777064
 20
67.92820021125465
 42
0.06915662164493522
  0
VERTEX
  8
0
  6
CONTINUOUS
 62
     7
 10
329.3725559476431
 20
67.75933673107807
 42
0.06975447696101753
  0
VERTEX
  8
0
  6
CONTINUOUS
 62
     7
 10
330.1413118131053
 20
67.80333448101607
 42
0.06816419635160873
  0
VERTEX
  8
0
  6
CONTINUOUS
 62
     7
 10
330.8691551476622
 20
68.05515953580053
 42
0.06499567411516258
  0
VERTEX
  8
0
  6
CONTINUOUS
 62
     7
 10
331.5057195207772
 20
68.48999493287478
 42
0.06129009233711314
  0
VERTEX
  8
0
  6
CONTINUOUS
 62
     7
 10
332.0137759787421
 20
69.07009840029028
 42
0.05807866639452099
  0
VERTEX
  8
0
  6
CONTINUOUS
 62
     7
 10
332.3707739625039
 20
69.75409326371626
 42
0.0559047172460015
  0
VERTEX
  8
0
  6
CONTINUOUS
 62
     7
 10
332.5644357503251
 20
70.5012376636948
 42
0.0549638401000711
  0
VERTEX
  8
0
  6
CONTINUOUS
 62
     7
 10
332.58945453632
 20
71.27196121678
 42
0.05547418511813646
  0
VERTEX
  8
0
  6
CONTINUOUS
 62
     7
 10
332.4453784630931
 20
72.02985219164391
 42
0.05728088044692912
  0
VERTEX
  8
0
  6
CONTINUOUS
 62
     7
 10
332.135970189848
 20
72.73629568352447
 42
0.06026874744208245
  0
VERTEX
  8
0
  6
CONTINUOUS
 62
     7
 10
331.6707309597034
 20
73.35160589850064
 42
0.06395269683639716
  0
VERTEX
  8
0
  6
CONTINUOUS
 62
     7
 10
331.0685232377289
 20
73.8339845724324
 42
0.06744485709257386
  0
VERTEX
  8
0
  6
CONTINUOUS
 62
     7
 10
330.3618644892236
 20
74.14344597523996
 42
0.06944110501844476
  0
VERTEX
  8
0
  6
CONTINUOUS
 62
     7
 10
329.5999755859375
 20
74.25
 42
0
  0
SEQEND
  8
0
  0
POLYLINE
  8
0
  6
CONTINUOUS
 62
     7
 66
     1
 10
0
 20
0
 70
     1
  0
VERTEX
  8
0
  6
CONTINUOUS
 62
     7
 10
11.35658168792725
 20
73.49997711181641
 42
0.2551592727848633
  0
VERTEX
  8
0
  6
CONTINUOUS
 62
     7
 10
10.82677183743896
 20
73.0750890120902
 42
0.06319138472285862
  0
VERTEX
  8
0
  6
CONTINUOUS
 62
     7
 10
10.57267674894329
 20
72.41220236627972
 42
0.03518638918183883
  0
VERTEX
  8
0
  6
CONTINUOUS
 62
     7
 10
10.44594705325642
 20
71.71215260483535
 42
0.0279853126153932
  0
VERTEX
  8
0
  6
CONTINUOUS
 62
     7
 10
10.40658473968506
 20
70.99997711181641
 42
0.02789942791007858
  0
VERTEX
  8
0
  6
CONTINUOUS
 62
     7
 10
10.44571839668897
 20
70.2898295515084
 42
0.03516017990502123
  0
VERTEX
  8
0
  6
CONTINUOUS
 62
     7
 10
10.5722122853401
 20
69.58953903499383
 42
0.06315573245388194
  0
VERTEX
  8
0
  6
CONTINUOUS
 62
     7
 10
10.82624427847951
 20
68.9257987936509
 42
0.2552844263578413
  0
VERTEX
  8
0
  6
CONTINUOUS
 62
     7
 10
11.35658168792724
 20
68.49997711181641
 42
0.2551594442424187
  0
VERTEX
  8
0
  6
CONTINUOUS
 62
     7
 10
11.88639179703004
 20
68.92486484404908
 42
0.06319147494019328
  0
VERTEX
  8
0
  6
CONTINUOUS
 62
     7
 10
12.14048693918092
 20
69.58775146284924
 42
0.03518642902213147
  0
VERTEX
  8
0
  6
CONTINUOUS
 62
     7
 10
12.26721652355681
 20
70.28780124289307
 42
0.02798535021589343
  0
VERTEX
  8
0
  6
CONTINUOUS
 62
     7
 10
12.30657863616943
 20
70.99997711181641
 42
0.02789949247680661
  0
VERTEX
  8
0
  6
CONTINUOUS
 62
     7
 10
12.26744543152288
 20
71.71012469551521
 42
0.03516026408841159
  0
VERTEX
  8
0
  6
CONTINUOUS
 62
     7
 10
12.14095178490499
 20
72.41041525244172
 42
0.06315586914473262
  0
VERTEX
  8
0
  6
CONTINUOUS
 62
     7
 10
11.88691973960936
 20
73.07415546268071
 42
0.2552843449381089
  0
SEQEND
  8
0
  0
POLYLINE
  8
0
  6
CONTINUOUS
 62
     7
 66
     1
 10
0
 20
0
  0
VERTEX
  8
0
  6
CONTINUOUS
 62
     7
 10
7.656569480895996
 20
73.84995269775391
 42
0.1885746071964723
  0
VERTEX
  8
0
  6
CONTINUOUS
 62
     7
 10
7.296839012636422
 20
73.6902640802209
 42
0.07574462457799958
  0
VERTEX
  8
0
  6
CONTINUOUS
 62
     7
 10
7.052604531215247
 20
73.37242763315906
 42
0.03933592155722233
  0
VERTEX
  8
0
  6
CONTINUOUS
 62
     7
 10
6.882742896526244
 20
73.00709407575472
 42
0.02577124213926331
  0
VERTEX
  8
0
  6
CONTINUOUS
 62
     7
 10
6.760588476065744
 20
72.62294344024922
 42
0.01950520664584279
  0
VERTEX
  8
0
  6
CONTINUOUS
 62
     7
 10
6.67309782116787
 20
72.22873168411388
 42
0.01621460194347601
  0
VERTEX
  8
0
  6
CONTINUOUS
 62
     7
 10
6.613737784255142
 20
71.8291407266896
 42
0.01446653041914969
  0
VERTEX
  8
0
  6
CONTINUOUS
 62
     7
 10
6.578870267237786
 20
71.4266160642881
 42
0.013691258932905
  0
VERTEX
  8
0
  6
CONTINUOUS
 62
     7
 10
6.566622326743099
 20
71.02247200401588
 42
0.01360482812298731
  0
VERTEX
  8
0
  6
CONTINUOUS
 62
     7
 10
6.576339272367938
 20
70.61962687196372
 42
0.01431525146579542
  0
VERTEX
  8
0
  6
CONTINUOUS
 62
     7
 10
6.608489721768306
 20
70.21737558097729
 42
0.01598184561772464
  0
VERTEX
  8
0
  6
CONTINUOUS
 62
     7
 10
6.665001475163574
 20
69.81655773826861
 42
0.0190267442191169
  0
VERTEX
  8
0
  6
CONTINUOUS
 62
     7
 10
6.749063948991041
 20
69.42140458556828
 42
0.02487976259998755
  0
VERTEX
  8
0
  6
CONTINUOUS
 62
     7
 10
6.867080435955423
 20
69.03500883346763
 42
0.03729613158310591
  0
VERTEX
  8
0
  6
CONTINUOUS
 62
     7
 10
7.031156179356922
 20
68.66582581088007
 42
0.06998281406614859
  0
VERTEX
  8
0
  6
CONTINUOUS
 62
     7
 10
7.266742334307275
 20
68.33849579920739
 42
0.1738206737508505
  0
VERTEX
  8
0
  6
CONTINUOUS
 62
     7
 10
7.616510111377387
 20
68.15189878706995
 42
0
  0
SEQEND
  8
0
  0
TEXT
  8
0
  6
CONTINUOUS
 62
     7
 10
-11.28550004959106
 20
-31.79999995231628
 40
3.599999904632568
 41
0.8473801845190025
  1
ＳＨＳ６５Ｖ
  0
ENDSEC
  0
EOF
