  0
SECTION
  2
HEADER
  0
ENDSEC
  0
SECTION
  2
TABLES
  0
TABLE
  2
LTYPE
 70
    22
  0
LTYPE
  2
CONTINUOUS
 70
    64
  3
Solid line
 72
    65
 73
     0
 40
0.000000
  0
LTYPE
  2
DASHED
 70
    64
  3
__ __ __ __ __ __ __ __ __ __ __ __ __ __ __
 72
    65
 73
     2
 40
3.500000
 49
2.000000
 49
-1.500000
  0
LTYPE
  2
CENTER
 70
    64
  3
____ _ ____ _ ____ _ ____ _ ____ _ ____ _ ____
 72
    65
 73
     4
 40
17.500000
 49
13.000000
 49
-1.500000
 49
1.500000
 49
-1.500000
  0
LTYPE
  2
PHANTOM
 70
    64
  3
_____ _ _ _____ _ _ _____ _ _ _____ _ _ ____  
 72
    65
 73
     6
 40
15.500000
 49
8.000000
 49
-1.500000
 49
1.500000
 49
-1.500000
 49
1.500000
 49
-1.500000
  0
LTYPE
  2
DOT
 70
    64
  3
. . . . . . . . . . . . . . . . . . . . . . . .
 72
    65
 73
     2
 40
0.25
 49
0.0
 49
-0.25
  0
ENDTAB
  0
TABLE
  2
LAYER
 70
     1
  0
LAYER
  2
0
 70
     0
 62
     7
  6
CONTINUOUS
  0
ENDTAB
  0
TABLE
  2
STYLE
 70
     1
  0
STYLE
  2
STANDARD
 70
     0
 40
0.000000
 41
1.000000
 50
0.000000
 71
     0
 42
0.200000
  3
txt
  0
ENDTAB
  0
TABLE
  2
VIEW
 70
     0
  0
ENDTAB
  0
ENDSEC
  0
SECTION
  2
BLOCKS
  0
ENDSEC
  0
SECTION
  2
ENTITIES
  0
LINE
  8
0
  6
CONTINUOUS
 62
     7
 10
70
 20
0
 11
290
 21
0
  0
LINE
  8
0
  6
CONTINUOUS
 62
     7
 10
70
 20
15.5
 11
146.75
 21
15.5
  0
LINE
  8
0
  6
CONTINUOUS
 62
     7
 10
70
 20
15.5
 11
70
 21
0
  0
LINE
  8
0
  6
CONTINUOUS
 62
     7
 10
213.25
 20
15.5
 11
290
 21
15.5
  0
LINE
  8
0
  6
DASHED
 62
     7
 10
87
 20
7
 11
87
 21
0
  0
LINE
  8
0
  6
DASHED
 62
     7
 10
93
 20
7
 11
93
 21
0
  0
LINE
  8
0
  6
DASHED
 62
     7
 10
85.25
 20
7
 11
94.75
 21
7
  0
LINE
  8
0
  6
DASHED
 62
     7
 10
85.25
 20
15.5
 11
85.25
 21
7
  0
LINE
  8
0
  6
DASHED
 62
     7
 10
94.75
 20
15.5
 11
94.75
 21
7
  0
LINE
  8
0
  6
DASHED
 62
     7
 10
-20
 20
17.32489204406738
 11
-21
 21
17.50121879577637
  0
LINE
  8
0
  6
CONTINUOUS
 62
     7
 10
10.00004196166992
 20
27.74999046325684
 11
9.750025749206543
 21
28.00000762939453
  0
LINE
  8
0
  6
CONTINUOUS
 62
     7
 10
155.7000122070313
 20
17.05000305175781
 11
156.7000122070313
 21
17.05000305175781
  0
LINE
  8
0
  6
CONTINUOUS
 62
     7
 10
156.7000122070313
 20
28
 11
203.3000030517578
 21
28
  0
LINE
  8
0
  6
CONTINUOUS
 62
     7
 10
156.7000122070313
 20
28
 11
156.7000122070313
 21
17.05000305175781
  0
LINE
  8
0
  6
CONTINUOUS
 62
     7
 10
204.2999877929688
 20
17.05000305175781
 11
204.2999877929688
 21
6
  0
LINE
  8
0
  6
CONTINUOUS
 62
     7
 10
210.9999694824219
 20
6.499996185302734
 11
210.4999694824219
 21
5.999995708465576
  0
LINE
  8
0
  6
CONTINUOUS
 62
     7
 10
210.5999908447266
 20
27.59997367858887
 11
210.9999847412109
 21
27.19998168945313
  0
LINE
  8
0
  6
CONTINUOUS
 62
     7
 10
211
 20
27.59999084472656
 11
211
 21
6.000015258789063
  0
LINE
  8
0
  6
CENTER
 62
     7
 10
210.2999877929688
 20
25.19999694824219
 11
206.7050323486328
 21
25.19999694824219
  0
LINE
  8
0
  6
CONTINUOUS
 62
     7
 10
149.5
 20
6
 11
155.7000122070313
 21
6
  0
LINE
  8
0
  6
CONTINUOUS
 62
     7
 10
213.25
 20
27.59999084472656
 11
213.25
 21
6.000015258789063
  0
LINE
  8
0
  6
CENTER
 62
     7
 10
208.5
 20
23.43843078613281
 11
208.5
 21
27.02967834472656
  0
LINE
  8
0
  6
CONTINUOUS
 62
     7
 10
156.7000122070313
 20
19
 11
203.2999877929688
 21
19
  0
LINE
  8
0
  6
CENTER
 62
     7
 10
164
 20
29
 11
164
 21
5
  0
LINE
  8
0
  6
CONTINUOUS
 62
     7
 10
166.8285217285156
 20
14.25460815429688
 11
166.8285217285156
 21
7.990005493164063
  0
LINE
  8
0
  6
CONTINUOUS
 62
     7
 10
161.1715087890625
 20
14.25460815429688
 11
161.1715087890625
 21
7.990005493164063
  0
LINE
  8
0
  6
CONTINUOUS
 62
     7
 10
210.5999908447266
 20
27.59999084472656
 11
203.2999877929688
 21
27.59999084472656
  0
LINE
  8
0
  6
CONTINUOUS
 62
     7
 10
213.25
 20
6.000015258789063
 11
211
 21
6.000015258789063
  0
LINE
  8
0
  6
CENTER
 62
     7
 10
152.514404296875
 20
26.09999084472656
 11
150.5091247558594
 21
26.09999084472656
  0
LINE
  8
0
  6
CENTER
 62
     7
 10
151.5
 20
23.43843078613281
 11
151.5
 21
27.02967834472656
  0
LINE
  8
0
  6
CENTER
 62
     7
 10
149.7000122070313
 20
25.19999694824219
 11
153.2949523925781
 21
25.19999694824219
  0
LINE
  8
0
  6
CONTINUOUS
 62
     7
 10
149
 20
27.59999084472656
 11
149
 21
6.000015258789063
  0
LINE
  8
0
  6
CONTINUOUS
 62
     7
 10
149.4000091552734
 20
27.59998512268066
 11
149.0000152587891
 21
27.19999313354492
  0
LINE
  8
0
  6
CONTINUOUS
 62
     7
 10
149.0000305175781
 20
6.499985218048096
 11
149.5000152587891
 21
5.999995708465576
  0
LINE
  8
0
  6
CONTINUOUS
 62
     7
 10
155.7000122070313
 20
17.05000305175781
 11
155.7000122070313
 21
6
  0
LINE
  8
0
  6
CONTINUOUS
 62
     7
 10
149.3999938964844
 20
27.59999084472656
 11
156.7000122070313
 21
27.59999084472656
  0
LINE
  8
0
  6
DASHED
 62
     7
 10
166.75
 20
28
 11
166.75
 21
18.99999809265137
  0
LINE
  8
0
  6
DASHED
 62
     7
 10
161.25
 20
28
 11
161.25
 21
18.99999809265137
  0
LINE
  8
0
  6
DASHED
 62
     7
 10
-20
 20
19
 11
-20
 21
17.32489204406738
  0
LINE
  8
0
  6
CENTER
 62
     7
 10
16.40618896484375
 20
23.79999542236328
 11
8.5938720703125
 21
23.79999542236328
  0
LINE
  8
0
  6
CONTINUOUS
 62
     7
 10
20.60001945495606
 20
18.04999542236328
 11
21.0000114440918
 21
17.65000343322754
  0
LINE
  8
0
  6
CONTINUOUS
 62
     7
 10
19.00003051757813
 20
6
 11
8.741668701171875
 21
6
  0
LINE
  8
0
  6
CONTINUOUS
 62
     7
 10
3.100074768066406
 20
-1.854461288530729E-006
 11
2.500065565109253
 21
0.6000073552131653
  0
LINE
  8
0
  6
CONTINUOUS
 62
     7
 10
2.5
 20
0.5999984741210938
 11
-2.5
 21
0.5999984741210938
  0
LINE
  8
0
  6
CENTER
 62
     7
 10
-24.5
 20
29
 11
-24.5
 21
18
  0
LINE
  8
0
  6
CONTINUOUS
 62
     7
 10
28.50003051757813
 20
28
 11
18.31002807617188
 21
28
  0
LINE
  8
0
  6
CONTINUOUS
 62
     7
 10
-21
 20
17.65001487731934
 11
-21
 21
7.990013122558594
  0
LINE
  8
0
  6
CONTINUOUS
 62
     7
 10
18.05999755859375
 20
27.75
 11
10.00003147125244
 21
27.75
  0
LINE
  8
0
  6
CONTINUOUS
 62
     7
 10
29.50003051757813
 20
27
 11
29.50003051757813
 21
19
  0
LINE
  8
0
  6
CONTINUOUS
 62
     7
 10
-28.5
 20
28
 11
-18.24996948242188
 21
28
  0
LINE
  8
0
  6
DASHED
 62
     7
 10
-29.5
 20
19
 11
-20
 21
19
  0
LINE
  8
0
  6
CENTER
 62
     7
 10
24.50003051757813
 20
29
 11
24.50003051757813
 21
18
  0
LINE
  8
0
  6
CONTINUOUS
 62
     7
 10
-9.75
 20
28
 11
9.750030517578125
 21
28
  0
LINE
  8
0
  6
CONTINUOUS
 62
     7
 10
-29.5
 20
27
 11
-29.5
 21
19
  0
LINE
  8
0
  6
CONTINUOUS
 62
     7
 10
28.50000953674316
 20
28.00001907348633
 11
29.5000114440918
 21
27.0000171661377
  0
LINE
  8
0
  6
CONTINUOUS
 62
     7
 10
-9.999979972839356
 20
27.74999046325684
 11
-9.749985694885254
 21
27.99998474121094
  0
LINE
  8
0
  6
CONTINUOUS
 62
     7
 10
-17.99996948242188
 20
27.75
 11
-10
 21
27.75
  0
LINE
  8
0
  6
CONTINUOUS
 62
     7
 10
-18.24997329711914
 20
27.99999618530273
 11
-17.99997901916504
 21
27.75
  0
LINE
  8
0
  6
CONTINUOUS
 62
     7
 10
-9.0400390625
 20
15.5
 11
-8.797119140625
 21
15.5
  0
LINE
  8
0
  6
CONTINUOUS
 62
     7
 10
-28.49996185302734
 20
28.00002479553223
 11
-29.49996185302734
 21
27.00002288818359
  0
LINE
  8
0
  6
CONTINUOUS
 62
     7
 10
-9.999937057495117
 20
14.54011917114258
 11
-9.040095329284668
 21
15.49996089935303
  0
LINE
  8
0
  6
CONTINUOUS
 62
     7
 10
-10
 20
14.54010009765625
 11
-10
 21
13.37957000732422
  0
LINE
  8
0
  6
CONTINUOUS
 62
     7
 10
-9.999991416931152
 20
13.37949752807617
 11
-9.661247253417969
 21
12.79277515411377
  0
LINE
  8
0
  6
CONTINUOUS
 62
     7
 10
-9.018058776855469
 20
11.67873954772949
 11
-6.989982604980469
 21
8.166008949279785
  0
LINE
  8
0
  6
CONTINUOUS
 62
     7
 10
-10.00007057189941
 20
5.273432731628418
 11
-7.35600757598877
 21
6.799983501434326
  0
LINE
  8
0
  6
CONTINUOUS
 62
     7
 10
-8.819968223571777
 20
6.375218072207645E-005
 11
-9.999918937683106
 21
1.180013179779053
  0
LINE
  8
0
  6
CONTINUOUS
 62
     7
 10
-2.499961376190186
 20
0.6000505685806274
 11
-3.100035429000855
 21
-2.34336475841701E-005
  0
LINE
  8
0
  6
CONTINUOUS
 62
     7
 10
-3.0999755859375
 20
0
 11
-8.819904327392578
 21
0
  0
LINE
  8
0
  6
DASHED
 62
     7
 10
-3
 20
7.000010490417481
 11
-3
 21
0.1000118777155876
  0
LINE
  8
0
  6
CONTINUOUS
 62
     7
 10
8.819976806640625
 20
0
 11
3.10009765625
 21
0
  0
LINE
  8
0
  6
CONTINUOUS
 62
     7
 10
10.00003051757813
 20
5.273490905761719
 11
10.00003051757813
 21
1.180000305175781
  0
LINE
  8
0
  6
DASHED
 62
     7
 10
3
 20
7.000010490417481
 11
3
 21
0.1000729650259018
  0
LINE
  8
0
  6
CENTER
 62
     7
 10
0
 20
29
 11
0
 21
-1
  0
LINE
  8
0
  6
CONTINUOUS
 62
     7
 10
-10
 20
5.273490905761719
 11
-10
 21
1.180076599121094
  0
LINE
  8
0
  6
CONTINUOUS
 62
     7
 10
10.00003433227539
 20
5.273493766784668
 11
7.355998039245606
 21
6.800028800964356
  0
LINE
  8
0
  6
CONTINUOUS
 62
     7
 10
10.00003051757813
 20
14.54010009765625
 11
10.00003051757813
 21
13.37957000732422
  0
LINE
  8
0
  6
CONTINUOUS
 62
     7
 10
8.820051193237305
 20
3.374359221197665E-005
 11
10.00000095367432
 21
1.179983258247376
  0
LINE
  8
0
  6
DASHED
 62
     7
 10
-4.75
 20
15.5
 11
-4.75
 21
7.000010490417481
  0
LINE
  8
0
  6
DASHED
 62
     7
 10
4.75
 20
7.000010490417481
 11
-4.75
 21
7.000010490417481
  0
LINE
  8
0
  6
DASHED
 62
     7
 10
4.75
 20
15.5
 11
4.75
 21
7.000010490417481
  0
LINE
  8
0
  6
CENTER
 62
     7
 10
12.50003051757813
 20
27.70614624023438
 11
12.50003051757813
 21
19.89385223388672
  0
LINE
  8
0
  6
CONTINUOUS
 62
     7
 10
10.00002002716065
 20
14.5400972366333
 11
9.04011344909668
 21
15.50000476837158
  0
LINE
  8
0
  6
CONTINUOUS
 62
     7
 10
6.5029296875
 20
15.5
 11
-6.5029296875
 21
15.5
  0
LINE
  8
0
  6
CONTINUOUS
 62
     7
 10
9.999998092651367
 20
13.37950992584229
 11
9.661252021789551
 21
12.79278469085693
  0
LINE
  8
0
  6
CONTINUOUS
 62
     7
 10
21.00003051757813
 20
17.64999389648438
 11
21.00003051757813
 21
8
  0
LINE
  8
0
  6
CONTINUOUS
 62
     7
 10
19.60000610351563
 20
27.60000419616699
 11
20.60000610351563
 21
26.60000228881836
  0
LINE
  8
0
  6
CONTINUOUS
 62
     7
 10
19.60003662109375
 20
27.59999847412109
 11
-19.60000991821289
 21
27.59999847412109
  0
LINE
  8
0
  6
CONTINUOUS
 62
     7
 10
-19.19967651367188
 20
6
 11
-8.741619110107422
 21
6
  0
LINE
  8
0
  6
DASHED
 62
     7
 10
-27.25
 20
28
 11
-27.25
 21
19
  0
LINE
  8
0
  6
DASHED
 62
     7
 10
-21.75
 20
28
 11
-21.75
 21
19
  0
LINE
  8
0
  6
CONTINUOUS
 62
     7
 10
21.00003433227539
 20
17.50121879577637
 11
29.5000114440918
 21
18.9999942779541
  0
LINE
  8
0
  6
CONTINUOUS
 62
     7
 10
9.040069580078125
 20
15.5
 11
8.797149658203125
 21
15.5
  0
LINE
  8
0
  6
CONTINUOUS
 62
     7
 10
18.31001281738281
 20
28.0000057220459
 11
18.06000709533691
 21
27.75
  0
LINE
  8
0
  6
CONTINUOUS
 62
     7
 10
9.018063545227051
 20
11.67875003814697
 11
6.989987373352051
 21
8.166019439697266
  0
LINE
  8
0
  6
CONTINUOUS
 62
     7
 10
20.60003662109375
 20
26.59999847412109
 11
20.60003662109375
 21
18.04999542236328
  0
LINE
  8
0
  6
CONTINUOUS
 62
     7
 10
146.7500152587891
 20
18.13001251220703
 11
146.5
 21
18.38002967834473
  0
LINE
  8
0
  6
CONTINUOUS
 62
     7
 10
143.5
 20
18.50001525878906
 11
146.5
 21
18.50001525878906
  0
LINE
  8
0
  6
CONTINUOUS
 62
     7
 10
146.0999755859375
 20
22.50002288818359
 11
144.5999755859375
 21
26.00002861022949
  0
LINE
  8
0
  6
CONTINUOUS
 62
     7
 10
145.2000427246094
 20
22.50003433227539
 11
143.6000518798828
 21
19.00004577636719
  0
LINE
  8
0
  6
CONTINUOUS
 62
     7
 10
145.2000427246094
 20
22.50006294250488
 11
143.6000366210938
 21
26.00004386901856
  0
LINE
  8
0
  6
CONTINUOUS
 62
     7
 10
144.6000061035156
 20
26.00001525878906
 11
139.3999938964844
 21
26.00001525878906
  0
LINE
  8
0
  6
CONTINUOUS
 62
     7
 10
139.3999938964844
 20
25.99998092651367
 11
139
 21
25.41996955871582
  0
LINE
  8
0
  6
CONTINUOUS
 62
     7
 10
139.3999786376953
 20
19.00003242492676
 11
138.9999847412109
 21
19.58003807067871
  0
LINE
  8
0
  6
CONTINUOUS
 62
     7
 10
146.1000366210938
 20
22.50001907348633
 11
144.6000518798828
 21
19.00002098083496
  0
LINE
  8
0
  6
CENTER
 62
     7
 10
135.3000183105469
 20
22.50001525878906
 11
151.2286071777344
 21
22.50001525878906
  0
LINE
  8
0
  6
CONTINUOUS
 62
     7
 10
144.6000061035156
 20
18.96002197265625
 11
144.6000061035156
 21
19.00001525878906
  0
LINE
  8
0
  6
CONTINUOUS
 62
     7
 10
144.6000061035156
 20
19.00001525878906
 11
139.3999938964844
 21
19.00001525878906
  0
LINE
  8
0
  6
CONTINUOUS
 62
     7
 10
146.5
 20
26.61999893188477
 11
146.75
 21
26.87000465393066
  0
LINE
  8
0
  6
CONTINUOUS
 62
     7
 10
146.5
 20
18.38002014160156
 11
146.5
 21
26.62001037597656
  0
LINE
  8
0
  6
CONTINUOUS
 62
     7
 10
143.5
 20
26.50001525878906
 11
146.5
 21
26.50001525878906
  0
LINE
  8
0
  6
CONTINUOUS
 62
     7
 10
213.25
 20
27.59999084472656
 11
211
 21
27.59999084472656
  0
LINE
  8
0
  6
CONTINUOUS
 62
     7
 10
146.75
 20
27.59999084472656
 11
149
 21
27.59999084472656
  0
LINE
  8
0
  6
CONTINUOUS
 62
     7
 10
146.75
 20
6.000015258789063
 11
149
 21
6.000015258789063
  0
LINE
  8
0
  6
CONTINUOUS
 62
     7
 10
146.75
 20
27.59999084472656
 11
146.75
 21
6.000015258789063
  0
LINE
  8
0
  6
CONTINUOUS
 62
     7
 10
203.2999877929688
 20
28
 11
203.2999877929688
 21
17.05000305175781
  0
LINE
  8
0
  6
CONTINUOUS
 62
     7
 10
204.2999877929688
 20
17.05000305175781
 11
203.2999877929688
 21
17.05000305175781
  0
LINE
  8
0
  6
CENTER
 62
     7
 10
196
 20
29
 11
196
 21
5
  0
LINE
  8
0
  6
CONTINUOUS
 62
     7
 10
198.8284912109375
 20
14.25460815429688
 11
198.8284912109375
 21
7.990005493164063
  0
LINE
  8
0
  6
CONTINUOUS
 62
     7
 10
193.1714935302734
 20
14.25460815429688
 11
193.1714935302734
 21
7.990005493164063
  0
LINE
  8
0
  6
CONTINUOUS
 62
     7
 10
-11.34163856506348
 20
6
 11
-8.265698432922363
 21
7.775895118713379
  0
LINE
  8
0
  6
CONTINUOUS
 62
     7
 10
11.34163856506348
 20
6
 11
8.265698432922363
 21
7.775895118713379
  0
LINE
  8
0
  6
CONTINUOUS
 62
     7
 10
-11.300048828125
 20
15.0786075592041
 11
-11.300048828125
 21
13.03128051757813
  0
LINE
  8
0
  6
CONTINUOUS
 62
     7
 10
-11.300048828125
 20
15.0786075592041
 11
-9.578593254089356
 21
16.80006408691406
  0
LINE
  8
0
  6
CONTINUOUS
 62
     7
 10
-7.319093704223633
 20
16.79998016357422
 11
7.319091796875
 21
16.79998016357422
  0
LINE
  8
0
  6
CONTINUOUS
 62
     7
 10
11.300048828125
 20
15.0786075592041
 11
9.578593254089356
 21
16.80006408691406
  0
LINE
  8
0
  6
CONTINUOUS
 62
     7
 10
11.300048828125
 20
15.0786075592041
 11
11.300048828125
 21
13.03128051757813
  0
LINE
  8
0
  6
CONTINUOUS
 62
     7
 10
11.29990100860596
 20
13.03128814697266
 11
10.60165882110596
 21
11.82189655303955
  0
LINE
  8
0
  6
CONTINUOUS
 62
     7
 10
10.32901477813721
 20
11.34966373443604
 11
8.265698432922363
 21
7.775895118713379
  0
LINE
  8
0
  6
CONTINUOUS
 62
     7
 10
7.98095703125
 20
16.79998016357422
 11
9.57861328125
 21
16.79998016357422
  0
LINE
  8
0
  6
CONTINUOUS
 62
     7
 10
-7.98095703125
 20
16.79998016357422
 11
-9.57861328125
 21
16.79998016357422
  0
LINE
  8
0
  6
CONTINUOUS
 62
     7
 10
-10.32901477813721
 20
11.34966373443604
 11
-8.265698432922363
 21
7.775895118713379
  0
LINE
  8
0
  6
CONTINUOUS
 62
     7
 10
-11.29990100860596
 20
13.03128814697266
 11
-10.60165882110596
 21
11.82189655303955
  0
LINE
  8
0
  6
CENTER
 62
     7
 10
-16.40618896484375
 20
23.79999542236328
 11
-8.5938720703125
 21
23.79999542236328
  0
LINE
  8
0
  6
CONTINUOUS
 62
     7
 10
-20.60001945495606
 20
18.04999542236328
 11
-21.0000114440918
 21
17.65000343322754
  0
LINE
  8
0
  6
CENTER
 62
     7
 10
-12.50003051757813
 20
27.70614624023438
 11
-12.50003051757813
 21
19.89385223388672
  0
LINE
  8
0
  6
CONTINUOUS
 62
     7
 10
-19.60000610351563
 20
27.60000419616699
 11
-20.60000610351563
 21
26.60000228881836
  0
LINE
  8
0
  6
CONTINUOUS
 62
     7
 10
-20.60003662109375
 20
26.59999847412109
 11
-20.60003662109375
 21
18.04999542236328
  0
LINE
  8
0
  6
CONTINUOUS
 62
     7
 10
-21
 20
17.50121879577637
 11
-29.49998474121094
 21
18.99999618530273
  0
LINE
  8
0
  6
CENTER
 62
     7
 10
-6.3699951171875
 20
22.5
 11
13.30998229980469
 21
22.5
  0
LINE
  8
0
  6
CONTINUOUS
 62
     7
 10
1.779998779296875
 20
26
 11
5.8599853515625
 21
26
  0
LINE
  8
0
  6
CONTINUOUS
 62
     7
 10
1.779998779296875
 20
19
 11
5.8599853515625
 21
19
  0
LINE
  8
0
  6
CONTINUOUS
 62
     7
 10
1.129988670349121
 20
22.49996185302734
 11
1.779982566833496
 21
18.99996185302734
  0
LINE
  8
0
  6
CONTINUOUS
 62
     7
 10
1.129988670349121
 20
22.49997901916504
 11
1.779979705810547
 21
25.99996376037598
  0
LINE
  8
0
  6
CONTINUOUS
 62
     7
 10
3.440002679824829
 20
22.49995994567871
 11
4.090013980865479
 21
18.99994659423828
  0
LINE
  8
0
  6
CONTINUOUS
 62
     7
 10
3.439975500106812
 20
22.49997138977051
 11
4.089986801147461
 21
25.99998474121094
  0
LINE
  8
0
  6
CONTINUOUS
 62
     7
 10
5.950003623962402
 20
19.4699821472168
 11
5.859991550445557
 21
18.99997711181641
  0
LINE
  8
0
  6
CONTINUOUS
 62
     7
 10
5.950027465820313
 20
25.52000236511231
 11
5.860019683837891
 21
25.9999942779541
  0
LINE
  8
0
  6
CONTINUOUS
 62
     7
 10
7.765948295593262
 20
19.2542896270752
 11
10.51998043060303
 21
19.99996376037598
  0
LINE
  8
0
  6
CONTINUOUS
 62
     7
 10
7.749973773956299
 20
25.74999237060547
 11
10.51998615264893
 21
24.99999046325684
  0
LINE
  8
0
  6
CONTINUOUS
 62
     7
 10
0.0004939555074088275
 20
17.88089179992676
 11
1.947718739509583
 21
19
  0
LINE
  8
0
  6
CONTINUOUS
 62
     7
 10
0.0005121983704157174
 20
17.88090324401856
 11
-4.000515460968018
 21
20.19089698791504
  0
LINE
  8
0
  6
CONTINUOUS
 62
     7
 10
-4.000481605529785
 20
20.19089317321777
 11
-4.000998497009277
 21
24.80999183654785
  0
LINE
  8
0
  6
CONTINUOUS
 62
     7
 10
-4.00101375579834
 20
24.81000137329102
 11
-0.0004912655567750335
 21
27.11910820007324
  0
LINE
  8
0
  6
CONTINUOUS
 62
     7
 10
-0.000516552769113332
 20
27.11909866333008
 11
1.937821745872498
 21
25.99999809265137
  0
LINE
  8
0
  6
CENTER
 62
     7
 10
90
 20
16.5
 11
90
 21
-1
  0
LINE
  8
0
  6
CONTINUOUS
 62
     7
 10
290
 20
15.5
 11
290
 21
0
  0
LINE
  8
0
  6
CENTER
 62
     7
 10
150
 20
7
 11
150
 21
-1
  0
LINE
  8
0
  6
CENTER
 62
     7
 10
270
 20
16.5
 11
270
 21
-1
  0
LINE
  8
0
  6
CENTER
 62
     7
 10
210
 20
7
 11
210
 21
-1
  0
LINE
  8
0
  6
CONTINUOUS
 62
     7
 10
155.7000122070313
 20
6
 11
204.2999877929688
 21
6
  0
LINE
  8
0
  6
CONTINUOUS
 62
     7
 10
204.2999877929688
 20
6
 11
210.4999847412109
 21
6
  0
LINE
  8
0
  6
CONTINUOUS
 62
     7
 10
159.5
 20
19
 11
159.5
 21
18.96200370788574
  0
LINE
  8
0
  6
CONTINUOUS
 62
     7
 10
168.5
 20
19
 11
168.5
 21
18.96200370788574
  0
LINE
  8
0
  6
CONTINUOUS
 62
     7
 10
200.5
 20
19
 11
200.5
 21
18.96200370788574
  0
LINE
  8
0
  6
CONTINUOUS
 62
     7
 10
191.5
 20
19
 11
191.5
 21
18.96200370788574
  0
LINE
  8
0
  6
CONTINUOUS
 62
     7
 10
70
 20
14.5400972366333
 11
146.75
 21
14.5400972366333
  0
LINE
  8
0
  6
CONTINUOUS
 62
     7
 10
70
 20
12.79276371002197
 11
146.75
 21
12.79276371002197
  0
LINE
  8
0
  6
CONTINUOUS
 62
     7
 10
70
 20
11.67875003814697
 11
146.75
 21
11.67875003814697
  0
LINE
  8
0
  6
CONTINUOUS
 62
     7
 10
70
 20
5.273490905761719
 11
290
 21
5.273490905761719
  0
LINE
  8
0
  6
CONTINUOUS
 62
     7
 10
213.25
 20
14.5400972366333
 11
290
 21
14.5400972366333
  0
LINE
  8
0
  6
CONTINUOUS
 62
     7
 10
213.25
 20
12.79276371002197
 11
290
 21
12.79276371002197
  0
LINE
  8
0
  6
CONTINUOUS
 62
     7
 10
213.25
 20
11.67875003814697
 11
290
 21
11.67875003814697
  0
LINE
  8
0
  6
CENTER
 62
     7
 10
69
 20
117.5
 11
291
 21
117.5
  0
LINE
  8
0
  6
CONTINUOUS
 62
     7
 10
156.7000122070313
 20
147
 11
203.2999877929688
 21
147
  0
LINE
  8
0
  6
CONTINUOUS
 62
     7
 10
156.7000122070313
 20
87.99996948242188
 11
203.2999877929688
 21
87.99996948242188
  0
LINE
  8
0
  6
CONTINUOUS
 62
     7
 10
146.75
 20
96.49996948242188
 11
156.7000122070313
 21
96.49996948242188
  0
LINE
  8
0
  6
CONTINUOUS
 62
     7
 10
146.75
 20
138.5
 11
156.7000122070313
 21
138.5
  0
LINE
  8
0
  6
CONTINUOUS
 62
     7
 10
146.75
 20
138.5
 11
146.75
 21
96.49996948242188
  0
LINE
  8
0
  6
CONTINUOUS
 62
     7
 10
149
 20
138.5
 11
149
 21
96.49996948242188
  0
LINE
  8
0
  6
CONTINUOUS
 62
     7
 10
156.7000122070313
 20
147
 11
156.7000122070313
 21
87.99996948242188
  0
LINE
  8
0
  6
CONTINUOUS
 62
     7
 10
203.2999877929688
 20
147
 11
203.2999877929688
 21
87.99996948242188
  0
LINE
  8
0
  6
CONTINUOUS
 62
     7
 10
211
 20
138.5
 11
211
 21
96.49996948242188
  0
LINE
  8
0
  6
CONTINUOUS
 62
     7
 10
213.25
 20
138.5
 11
213.25
 21
96.49996948242188
  0
LINE
  8
0
  6
CONTINUOUS
 62
     7
 10
203.2999877929688
 20
96.49996948242188
 11
213.25
 21
96.49996948242188
  0
LINE
  8
0
  6
CONTINUOUS
 62
     7
 10
203.2999877929688
 20
138.5
 11
213.25
 21
138.5
  0
LINE
  8
0
  6
CENTER
 62
     7
 10
167.75
 20
92.99996948242188
 11
160.25
 21
92.99996948242188
  0
LINE
  8
0
  6
CENTER
 62
     7
 10
164
 20
96.74996948242188
 11
164
 21
89.24996948242188
  0
LINE
  8
0
  6
CENTER
 62
     7
 10
192.25
 20
92.99996948242188
 11
199.75
 21
92.99996948242188
  0
LINE
  8
0
  6
CENTER
 62
     7
 10
196
 20
96.74996948242188
 11
196
 21
89.24996948242188
  0
LINE
  8
0
  6
CENTER
 62
     7
 10
196
 20
138.2500305175781
 11
196
 21
145.7500305175781
  0
LINE
  8
0
  6
CENTER
 62
     7
 10
167.75
 20
142.0000305175781
 11
160.25
 21
142.0000305175781
  0
LINE
  8
0
  6
CENTER
 62
     7
 10
164
 20
138.2500305175781
 11
164
 21
145.7500305175781
  0
LINE
  8
0
  6
CENTER
 62
     7
 10
192.25
 20
142.0000305175781
 11
199.75
 21
142.0000305175781
  0
LINE
  8
0
  6
CONTINUOUS
 62
     7
 10
70
 20
127.5
 11
146.75
 21
127.5
  0
LINE
  8
0
  6
CONTINUOUS
 62
     7
 10
70
 20
126.2971572875977
 11
146.75
 21
126.2971572875977
  0
LINE
  8
0
  6
CONTINUOUS
 62
     7
 10
70
 20
124.0029296875
 11
146.75
 21
124.0029296875
  0
LINE
  8
0
  6
CONTINUOUS
 62
     7
 10
70
 20
110.9971084594727
 11
137.2653961181641
 21
110.9971084594727
  0
LINE
  8
0
  6
CONTINUOUS
 62
     7
 10
70
 20
108.7028427124023
 11
137.0342712402344
 21
108.7028427124023
  0
LINE
  8
0
  6
CONTINUOUS
 62
     7
 10
70
 20
107.4999694824219
 11
138.1379241943359
 21
107.4999694824219
  0
LINE
  8
0
  6
CONTINUOUS
 62
     7
 10
70
 20
127.5
 11
70
 21
107.4999694824219
  0
LINE
  8
0
  6
CONTINUOUS
 62
     7
 10
290
 20
127.5
 11
290
 21
107.4999694824219
  0
LINE
  8
0
  6
CENTER
 62
     7
 10
90
 20
123.25
 11
90
 21
111.75
  0
LINE
  8
0
  6
CENTER
 62
     7
 10
150
 20
123.25
 11
150
 21
111.75
  0
LINE
  8
0
  6
CENTER
 62
     7
 10
210
 20
123.25
 11
210
 21
111.75
  0
LINE
  8
0
  6
CENTER
 62
     7
 10
270
 20
123.25
 11
270
 21
111.75
  0
LINE
  8
0
  6
CONTINUOUS
 62
     7
 10
213.25
 20
107.4999694824219
 11
290
 21
107.4999694824219
  0
LINE
  8
0
  6
CONTINUOUS
 62
     7
 10
213.25
 20
108.7028427124023
 11
290
 21
108.7028427124023
  0
LINE
  8
0
  6
CONTINUOUS
 62
     7
 10
213.25
 20
110.9971084594727
 11
290
 21
110.9971084594727
  0
LINE
  8
0
  6
CONTINUOUS
 62
     7
 10
213.25
 20
124.0029296875
 11
290
 21
124.0029296875
  0
LINE
  8
0
  6
CONTINUOUS
 62
     7
 10
213.25
 20
126.2971572875977
 11
290
 21
126.2971572875977
  0
LINE
  8
0
  6
CONTINUOUS
 62
     7
 10
213.25
 20
127.5
 11
290
 21
127.5
  0
LINE
  8
0
  6
CONTINUOUS
 62
     7
 10
146.5000152587891
 20
113.4999847412109
 11
146.5000152587891
 21
121.4999847412109
  0
LINE
  8
0
  6
CONTINUOUS
 62
     7
 10
143.2001037597656
 20
121.5
 11
146.5000152587891
 21
121.5
  0
LINE
  8
0
  6
CONTINUOUS
 62
     7
 10
144.8201293945313
 20
113.5
 11
146.5000152587891
 21
113.5
  0
LINE
  8
0
  6
CONTINUOUS
 62
     7
 10
139.2001037597656
 20
117.5
 11
139.2001037597656
 21
115.827880859375
  0
LINE
  8
0
  6
CONTINUOUS
 62
     7
 10
146.5
 20
121.5
 11
146.75
 21
121.5
  0
LINE
  8
0
  6
CONTINUOUS
 62
     7
 10
146.5
 20
113.5
 11
146.75
 21
113.5
  0
LINE
  8
0
  6
CENTER
 62
     7
 10
138.7518615722656
 20
105.9778823852539
 11
143.6171569824219
 21
117.7237701416016
  0
LINE
  8
0
  6
CONTINUOUS
 62
     7
 10
136.9827880859375
 20
107.9784469604492
 11
141.4174041748047
 21
106.1415634155273
  0
LINE
  8
0
  6
CONTINUOUS
 62
     7
 10
137.1845550537109
 20
110.8173446655273
 11
143.2821502685547
 21
108.291633605957
  0
LINE
  8
0
  6
CONTINUOUS
 62
     7
 10
136.9827728271484
 20
107.9784469604492
 11
137.1845397949219
 21
110.8173446655273
  0
LINE
  8
0
  6
CONTINUOUS
 62
     7
 10
141.4174041748047
 20
106.1415557861328
 11
143.2821502685547
 21
108.291633605957
  0
LINE
  8
0
  6
CONTINUOUS
 62
     7
 10
137.9232635498047
 20
114.5381927490234
 11
138.3379364013672
 21
115.5392608642578
  0
LINE
  8
0
  6
CONTINUOUS
 62
     7
 10
145.3908538818359
 20
111.4450073242188
 11
145.8055114746094
 21
112.4460678100586
  0
LINE
  8
0
  6
CONTINUOUS
 62
     7
 10
139.1173706054688
 20
115.8620910644531
 11
138.3379211425781
 21
115.5392379760742
  0
LINE
  8
0
  6
CONTINUOUS
 62
     7
 10
139.560546875
 20
113.2105865478516
 11
140.4331359863281
 21
115.3171539306641
  0
LINE
  8
0
  6
CONTINUOUS
 62
     7
 10
143.2943267822266
 20
111.6640090942383
 11
144.1669006347656
 21
113.7705764770508
  0
LINE
  8
0
  6
CONTINUOUS
 62
     7
 10
139.1173706054688
 20
115.8621597290039
 11
145.4826812744141
 21
113.2255630493164
  0
LINE
  8
0
  6
CONTINUOUS
 62
     7
 10
145.8055114746094
 20
112.4460601806641
 11
145.4826507568359
 21
113.2255096435547
  0
LINE
  8
0
  6
CONTINUOUS
 62
     7
 10
138.3148193359375
 20
112.2394943237305
 11
143.488525390625
 21
110.0964508056641
  0
LINE
  8
0
  6
CONTINUOUS
 62
     7
 10
138.1530609130859
 20
113.7935943603516
 11
144.7018432617188
 21
111.0810012817383
  0
LINE
  8
0
  6
CONTINUOUS
 62
     7
 10
144.5692596435547
 20
110.9971084594727
 11
146.75
 21
110.9971084594727
  0
LINE
  8
0
  6
CONTINUOUS
 62
     7
 10
143.4215698242188
 20
108.7028427124023
 11
146.75
 21
108.7028427124023
  0
LINE
  8
0
  6
CONTINUOUS
 62
     7
 10
142.5955505371094
 20
107.4999694824219
 11
146.75
 21
107.4999694824219
  0
LINE
  8
0
  6
CONTINUOUS
 62
     7
 10
156.7000122070313
 20
99.18998718261719
 11
203.2999877929688
 21
99.18998718261719
  0
LINE
  8
0
  6
CONTINUOUS
 62
     7
 10
156.7000122070313
 20
107.7499694824219
 11
203.2999877929688
 21
107.7499694824219
  0
LINE
  8
0
  6
CONTINUOUS
 62
     7
 10
156.7000122070313
 20
127.2499847412109
 11
203.2999877929688
 21
127.2499847412109
  0
LINE
  8
0
  6
CONTINUOUS
 62
     7
 10
156.7000122070313
 20
135.7499694824219
 11
203.2999877929688
 21
135.7499694824219
  0
ARC
  8
0
  6
CONTINUOUS
 62
     7
 10
-19
 20
7.990013122558594
 40
2.000000000000001
 50
180.000008651422
 51
264.2717978763881
  0
CIRCLE
  8
0
  6
CONTINUOUS
 62
     7
 10
151.5
 20
25.19999694824219
 40
1.5
  0
CIRCLE
  8
0
  6
CONTINUOUS
 62
     7
 10
151.5
 20
26.09999084472656
 40
0.5
  0
ARC
  8
0
  6
CONTINUOUS
 62
     7
 10
-10.655517578125
 20
11.47600555419922
 40
1.650000095367432
 50
7.057315158030487
 51
52.94269163426354
  0
ARC
  8
0
  6
CONTINUOUS
 62
     7
 10
-7.6500244140625
 20
16.68599700927734
 40
1.650000095367431
 50
225.9543683307249
 51
314.0456300754134
  0
ARC
  8
0
  6
CONTINUOUS
 62
     7
 10
-7.85595703125
 20
7.666038513183594
 40
1
 50
300.0016853870728
 51
29.99910266495022
  0
ARC
  8
0
  6
CONTINUOUS
 62
     7
 10
10.65554809570313
 20
11.47600555419922
 40
1.650000095367432
 50
127.0572962992199
 51
172.9427120490407
  0
ARC
  8
0
  6
CONTINUOUS
 62
     7
 10
7.6500244140625
 20
16.68599700927734
 40
1.650000095367432
 50
225.9543546703465
 51
314.0456300754134
  0
ARC
  8
0
  6
CONTINUOUS
 62
     7
 10
7.85595703125
 20
7.666038513183594
 40
0.9999999999999992
 50
150.0008989289116
 51
239.9982854709376
  0
ARC
  8
0
  6
CONTINUOUS
 62
     7
 10
19.00003051757813
 20
7.990013122558594
 40
2
 50
269.9999974955218
 51
8.65142218360576E-006
  0
ARC
  8
0
  6
CONTINUOUS
 62
     7
 10
143.5000915527344
 20
22.50010681152344
 40
3.999999999999998
 50
89.99998201391055
 51
118.4958044387708
  0
ARC
  8
0
  6
CONTINUOUS
 62
     7
 10
148.3999328613281
 20
26.090087890625
 40
1.900939941406258
 50
181.8086700643981
 51
209.7770652815498
  0
ARC
  8
0
  6
CONTINUOUS
 62
     7
 10
149.8000793457031
 20
23.03009033203125
 40
3.317879676818847
 50
156.8212116453844
 51
173.9458482720621
  0
ARC
  8
0
  6
CONTINUOUS
 62
     7
 10
149.8000793457031
 20
21.9700927734375
 40
3.318496704101556
 50
186.054315652478
 51
203.2036639035728
  0
ARC
  8
0
  6
CONTINUOUS
 62
     7
 10
148.4000549316406
 20
18.91009521484375
 40
1.896939277648924
 50
150.4422930738344
 51
178.1912206525752
  0
ARC
  8
0
  6
CONTINUOUS
 62
     7
 10
143.5000915527344
 20
22.50010681152344
 40
3.982465744018556
 50
241.5040862782025
 51
269.9999087030627
  0
ARC
  8
0
  6
CONTINUOUS
 62
     7
 10
-7.6500244140625
 20
17.22339630126953
 40
0.5373978614807135
 50
231.9896327643749
 51
308.0103656417633
  0
ARC
  8
0
  6
CONTINUOUS
 62
     7
 10
-10.655517578125
 20
11.47599792480469
 40
0.350000083446502
 50
338.8312032431159
 51
81.16876598313748
  0
ARC
  8
0
  6
CONTINUOUS
 62
     7
 10
10.655517578125
 20
11.47599792480469
 40
0.3500000834465026
 50
98.83123219562964
 51
201.1687966431984
  0
ARC
  8
0
  6
CONTINUOUS
 62
     7
 10
7.6500244140625
 20
17.22339630126953
 40
0.5373978614807135
 50
231.9896327643749
 51
308.0103656417633
  0
CIRCLE
  8
0
  6
CONTINUOUS
 62
     7
 10
-12.50003051757813
 20
23.79999542236328
 40
1.200000047683716
  0
ARC
  8
0
  6
CONTINUOUS
 62
     7
 10
7.610000610351563
 20
20.20999145507813
 40
0.9683421850204466
 50
215.3314570768741
 51
278.2972225067941
  0
ARC
  8
0
  6
CONTINUOUS
 62
     7
 10
6.620010375976563
 20
18.41999816894531
 40
1.246148109436035
 50
80.76452806729958
 51
142.1250351177266
  0
ARC
  8
0
  6
CONTINUOUS
 62
     7
 10
6.620010375976563
 20
26.58000183105469
 40
1.254199028015136
 50
217.8749648822735
 51
279.2353626496737
  0
ARC
  8
0
  6
CONTINUOUS
 62
     7
 10
7.610000610351563
 20
24.78999328613281
 40
0.9701611399650563
 50
81.7028867762326
 51
144.668542923126
  0
ARC
  8
0
  6
CONTINUOUS
 62
     7
 10
0
 20
22.5
 40
4
 50
240.0000239814524
 51
241.0449882829511
  0
ARC
  8
0
  6
CONTINUOUS
 62
     7
 10
0
 20
22.5
 40
3.998106002807619
 50
61.09402038976974
 51
298.9059076658729
  0
CIRCLE
  8
0
  6
CONTINUOUS
 62
     7
 10
164
 20
92.99996948242188
 40
2.75
  0
CIRCLE
  8
0
  6
CONTINUOUS
 62
     7
 10
90
 20
117.5
 40
3
  0
CIRCLE
  8
0
  6
CONTINUOUS
 62
     7
 10
90
 20
117.5
 40
4.75
  0
ARC
  8
0
  6
CONTINUOUS
 62
     7
 10
150.749755859375
 20
119.5
 40
4.249771118164054
 50
160.248928419977
 51
199.7510679375573
  0
ARC
  8
0
  6
CONTINUOUS
 62
     7
 10
150.7498779296875
 20
115.5
 40
4.249885559082021
 50
160.2495021558672
 51
199.750494201667
  0
ARC
  8
0
  6
CONTINUOUS
 62
     7
 10
140.2333526611328
 20
109.5544738769531
 40
3.299999237060557
 50
131.5803705110075
 51
157.4999548639651
  0
ARC
  8
0
  6
CONTINUOUS
 62
     7
 10
140.2333526611328
 20
109.5544738769531
 40
3.29999923706055
 50
337.5000181569006
 51
3.419602296415186
  0
ARC
  8
0
  6
CONTINUOUS
 62
     7
 10
132.3170013427734
 20
112.4005737304688
 40
6.00000000000001
 50
2.43365082934552
 51
20.87173987704913
  0
ARC
  8
0
  6
CONTINUOUS
 62
     7
 10
147.8435363769531
 20
105.9692687988281
 40
6.000000000000011
 50
114.1278165022775
 51
132.5663219780771
  0
ARC
  8
0
  6
CONTINUOUS
 62
     7
 10
137.5122985839844
 20
112.6213684082031
 40
0.7999999523162822
 50
311.5798327472963
 51
2.433049772698627
  0
ARC
  8
0
  6
CONTINUOUS
 62
     7
 10
144.3260345458984
 20
109.7990264892578
 40
0.7999999523162747
 50
132.5669776762372
 51
183.4201402735702
  0
ARC
  8
0
  6
CONTINUOUS
 62
     7
 10
143.2001037597656
 20
117.5
 40
3.999999999999998
 50
89.99998201391055
 51
180.0000186693347
  0
POLYLINE
  8
0
  6
CONTINUOUS
 62
     7
 66
     1
 10
0
 20
0
  0
VERTEX
  8
0
  6
CONTINUOUS
 62
     7
 10
138.0760109035166
 20
20.31899376736186
 42
0.06283199533731219
  0
VERTEX
  8
0
  6
CONTINUOUS
 62
     7
 10
138.6403097186882
 20
19.79282164384127
 42
0.06649698444514075
  0
VERTEX
  8
0
  6
CONTINUOUS
 62
     7
 10
139.3203100562327
 20
19.42831693870227
 42
0.06915551843218046
  0
VERTEX
  8
0
  6
CONTINUOUS
 62
     7
 10
140.0726646782232
 20
19.25945820302625
 42
0.06975294719906566
  0
VERTEX
  8
0
  6
CONTINUOUS
 62
     7
 10
140.8414195579605
 20
19.30345621215911
 42
0.06816347455753866
  0
VERTEX
  8
0
  6
CONTINUOUS
 62
     7
 10
141.5692629952014
 20
19.55527788062935
 42
0.06499586596284532
  0
VERTEX
  8
0
  6
CONTINUOUS
 62
     7
 10
142.2058286875856
 20
19.99010931471057
 42
0.06129087960767324
  0
VERTEX
  8
0
  6
CONTINUOUS
 62
     7
 10
142.7138861948102
 20
20.57021029194642
 42
0.05807959718015938
  0
VERTEX
  8
0
  6
CONTINUOUS
 62
     7
 10
143.070883354874
 20
21.25420421773739
 42
0.05590537556071261
  0
VERTEX
  8
0
  6
CONTINUOUS
 62
     7
 10
143.2645421112217
 20
22.00134814399174
 42
0.05496367752692518
  0
VERTEX
  8
0
  6
CONTINUOUS
 62
     7
 10
143.2895570760955
 20
22.77207063443798
 42
0.05547385665545537
  0
VERTEX
  8
0
  6
CONTINUOUS
 62
     7
 10
143.1454782740433
 20
23.52995994626402
 42
0.05728037912747029
  0
VERTEX
  8
0
  6
CONTINUOUS
 62
     7
 10
142.8360689084245
 20
24.23640173692389
 42
0.06026825000631115
  0
VERTEX
  8
0
  6
CONTINUOUS
 62
     7
 10
142.3708302528406
 20
24.8517110066724
 42
0.063952398305464
  0
VERTEX
  8
0
  6
CONTINUOUS
 62
     7
 10
141.7686241080456
 20
25.33408989051059
 42
0.06744492301947791
  0
VERTEX
  8
0
  6
CONTINUOUS
 62
     7
 10
141.0619670097498
 20
25.64355224125531
 42
0.06944156007691724
  0
VERTEX
  8
0
  6
CONTINUOUS
 62
     7
 10
140.3000793457031
 20
25.75010681152344
 42
0
  0
SEQEND
  8
0
  0
POLYLINE
  8
0
  6
CONTINUOUS
 62
     7
 66
     1
 10
0
 20
0
  0
VERTEX
  8
0
  6
CONTINUOUS
 62
     7
 10
159.5
 20
18.96275329589844
 42
0.1986910089493592
  0
VERTEX
  8
0
  6
CONTINUOUS
 62
     7
 10
159.7680379857735
 20
18.40592720579172
 42
0.07317077126568704
  0
VERTEX
  8
0
  6
CONTINUOUS
 62
     7
 10
160.2836765138946
 20
18.03917750802959
 42
0.03714819737628437
  0
VERTEX
  8
0
  6
CONTINUOUS
 62
     7
 10
160.8656882782002
 20
17.78751479768479
 42
0.0242677034058537
  0
VERTEX
  8
0
  6
CONTINUOUS
 62
     7
 10
161.4739640628622
 20
17.60728296366519
 42
0.01837458237901022
  0
VERTEX
  8
0
  6
CONTINUOUS
 62
     7
 10
162.0962707074527
 20
17.4786756134937
 42
0.01529660650542978
  0
VERTEX
  8
0
  6
CONTINUOUS
 62
     7
 10
162.7260161245754
 20
17.39189799778289
 42
0.01367304490846587
  0
VERTEX
  8
0
  6
CONTINUOUS
 62
     7
 10
163.359802608867
 20
17.3415497130211
 42
0.01295993510859273
  0
VERTEX
  8
0
  6
CONTINUOUS
 62
     7
 10
163.9954214516299
 20
17.32489098448755
 42
0.0129355665337779
  0
VERTEX
  8
0
  6
CONTINUOUS
 62
     7
 10
164.6301085654991
 20
17.3410261840285
 42
0.01363946389727538
  0
VERTEX
  8
0
  6
CONTINUOUS
 62
     7
 10
165.2632353080407
 20
17.3907484868016
 42
0.01527058174098995
  0
VERTEX
  8
0
  6
CONTINUOUS
 62
     7
 10
165.8935018241128
 20
17.47694330624972
 42
0.01831580690419231
  0
VERTEX
  8
0
  6
CONTINUOUS
 62
     7
 10
166.5162328929474
 20
17.60486966846414
 42
0.02420000867312741
  0
VERTEX
  8
0
  6
CONTINUOUS
 62
     7
 10
167.1260873905004
 20
17.784616509414
 42
0.03701089181687815
  0
VERTEX
  8
0
  6
CONTINUOUS
 62
     7
 10
167.7101451242435
 20
18.03589268532384
 42
0.07278992356868176
  0
VERTEX
  8
0
  6
CONTINUOUS
 62
     7
 10
168.2283132311907
 20
18.40226714125103
 42
0.1981676661105657
  0
VERTEX
  8
0
  6
CONTINUOUS
 62
     7
 10
168.4999919690024
 20
18.95965893112145
 42
0
  0
SEQEND
  8
0
  0
POLYLINE
  8
0
  6
CONTINUOUS
 62
     7
 66
     1
 10
0
 20
0
  0
VERTEX
  8
0
  6
CONTINUOUS
 62
     7
 10
161.1715087890625
 20
7.990005493164063
 42
0.102292935333595
  0
VERTEX
  8
0
  6
CONTINUOUS
 62
     7
 10
161.2644843267343
 20
7.549567700355928
 42
0.07880934906990662
  0
VERTEX
  8
0
  6
CONTINUOUS
 62
     7
 10
161.5086576604948
 20
7.16990605190647
 42
0.05646114498018794
  0
VERTEX
  8
0
  6
CONTINUOUS
 62
     7
 10
161.8453491247604
 20
6.867891619525213
 42
0.04222029737375783
  0
VERTEX
  8
0
  6
CONTINUOUS
 62
     7
 10
162.235085146007
 20
6.636504270688496
 42
0.03376174505920489
  0
VERTEX
  8
0
  6
CONTINUOUS
 62
     7
 10
162.655540106016
 20
6.466127704331001
 42
0.02880690998934756
  0
VERTEX
  8
0
  6
CONTINUOUS
 62
     7
 10
163.0941777962605
 20
6.349171522921299
 42
0.02602954529119948
  0
VERTEX
  8
0
  6
CONTINUOUS
 62
     7
 10
163.5430632007997
 20
6.280700611038884
 42
0.02477364475069437
  0
VERTEX
  8
0
  6
CONTINUOUS
 62
     7
 10
163.9966182974688
 20
6.257951067023275
 42
0.02471938016928062
  0
VERTEX
  8
0
  6
CONTINUOUS
 62
     7
 10
164.4493941776959
 20
6.279950839969077
 42
0.02597018088939686
  0
VERTEX
  8
0
  6
CONTINUOUS
 62
     7
 10
164.8979612130121
 20
6.347551391676443
 42
0.02876817359058376
  0
VERTEX
  8
0
  6
CONTINUOUS
 62
     7
 10
165.3372273439018
 20
6.463740887772745
 42
0.03378602351146527
  0
VERTEX
  8
0
  6
CONTINUOUS
 62
     7
 10
165.75953696712
 20
6.633875395049759
 42
0.04212795926238159
  0
VERTEX
  8
0
  6
CONTINUOUS
 62
     7
 10
166.1501902638526
 20
6.864675154299497
 42
0.05638865161025509
  0
VERTEX
  8
0
  6
CONTINUOUS
 62
     7
 10
166.4884115957064
 20
7.166549773840727
 42
0.0788877346850365
  0
VERTEX
  8
0
  6
CONTINUOUS
 62
     7
 10
166.7344423897625
 20
7.547010024726297
 42
0.1028622061241196
  0
VERTEX
  8
0
  6
CONTINUOUS
 62
     7
 10
166.8285217285156
 20
7.990005493164063
 42
0
  0
SEQEND
  8
0
  0
POLYLINE
  8
0
  6
CONTINUOUS
 62
     7
 66
     1
 10
0
 20
0
  0
VERTEX
  8
0
  6
CONTINUOUS
 62
     7
 10
166.8285217285156
 20
14.25460815429688
 42
0.2020822810983354
  0
VERTEX
  8
0
  6
CONTINUOUS
 62
     7
 10
166.6572316197777
 20
14.60079126459557
 42
0.07205725900456053
  0
VERTEX
  8
0
  6
CONTINUOUS
 62
     7
 10
166.3324712263654
 20
14.82602391322149
 42
0.03646116482820595
  0
VERTEX
  8
0
  6
CONTINUOUS
 62
     7
 10
165.9665618007591
 20
14.98065560536693
 42
0.02376907281973746
  0
VERTEX
  8
0
  6
CONTINUOUS
 62
     7
 10
165.5848344823425
 20
15.09129711293533
 42
0.01798428956856069
  0
VERTEX
  8
0
  6
CONTINUOUS
 62
     7
 10
165.1946462164644
 20
15.17023386425434
 42
0.01496700814898745
  0
VERTEX
  8
0
  6
CONTINUOUS
 62
     7
 10
164.7999816214931
 20
15.22351122442068
 42
0.01337568935688877
  0
VERTEX
  8
0
  6
CONTINUOUS
 62
     7
 10
164.4028875530666
 20
15.25445537165913
 42
0.01267641146426584
  0
VERTEX
  8
0
  6
CONTINUOUS
 62
     7
 10
164.0046649470089
 20
15.26475387517215
 42
0.01262832935837136
  0
VERTEX
  8
0
  6
CONTINUOUS
 62
     7
 10
163.607679259925
 20
15.25499113893666
 42
0.01333122947318211
  0
VERTEX
  8
0
  6
CONTINUOUS
 62
     7
 10
163.2109907851246
 20
15.22465782034159
 42
0.014944897615649
  0
VERTEX
  8
0
  6
CONTINUOUS
 62
     7
 10
162.8153155330534
 20
15.17188225857676
 42
0.01789097055285566
  0
VERTEX
  8
0
  6
CONTINUOUS
 62
     7
 10
162.4248112890922
 20
15.093614772025
 42
0.02363133284791869
  0
VERTEX
  8
0
  6
CONTINUOUS
 62
     7
 10
162.0419965464681
 20
14.98359471802383
 42
0.03615671526986834
  0
VERTEX
  8
0
  6
CONTINUOUS
 62
     7
 10
161.6745924935654
 20
14.82967353233485
 42
0.07146202033222643
  0
VERTEX
  8
0
  6
CONTINUOUS
 62
     7
 10
161.3467465033388
 20
14.60463547459784
 42
0.200859866476039
  0
VERTEX
  8
0
  6
CONTINUOUS
 62
     7
 10
161.1715257428442
 20
14.2581056163198
 42
0
  0
SEQEND
  8
0
  0
POLYLINE
  8
0
  6
CONTINUOUS
 62
     7
 66
     1
 10
0
 20
0
 70
     1
  0
VERTEX
  8
0
  6
CONTINUOUS
 62
     7
 10
139.2000427246094
 20
25.00010681152344
 42
0.1103802930352565
  0
VERTEX
  8
0
  6
CONTINUOUS
 62
     7
 10
138.2878847395184
 20
24.79508476363319
 42
0.1025054584206236
  0
VERTEX
  8
0
  6
CONTINUOUS
 62
     7
 10
137.5405535165783
 20
24.23106883183285
 42
0.09328796686792973
  0
VERTEX
  8
0
  6
CONTINUOUS
 62
     7
 10
137.0629491343929
 20
23.42417305564381
 42
0.08782097040116582
  0
VERTEX
  8
0
  6
CONTINUOUS
 62
     7
 10
136.9000549316406
 20
22.50006103515625
 42
0.08777590666230169
  0
VERTEX
  8
0
  6
CONTINUOUS
 62
     7
 10
137.0627885637545
 20
21.57644201669638
 42
0.09326281334992038
  0
VERTEX
  8
0
  6
CONTINUOUS
 62
     7
 10
137.5401021193183
 20
20.76964318360266
 42
0.1026299541905664
  0
VERTEX
  8
0
  6
CONTINUOUS
 62
     7
 10
138.288322741586
 20
20.20492618963208
 42
0.1103270871009159
  0
VERTEX
  8
0
  6
CONTINUOUS
 62
     7
 10
139.2001037597656
 20
20.00010681152344
 42
0.110377194187662
  0
VERTEX
  8
0
  6
CONTINUOUS
 62
     7
 10
140.1122638266168
 20
20.20512195924512
 42
0.1025068047155654
  0
VERTEX
  8
0
  6
CONTINUOUS
 62
     7
 10
140.8596010839705
 20
20.76912964838148
 42
0.09329115047894923
  0
VERTEX
  8
0
  6
CONTINUOUS
 62
     7
 10
141.3372061138202
 20
21.57602458257647
 42
0.08781982039157454
  0
VERTEX
  8
0
  6
CONTINUOUS
 62
     7
 10
141.5000915527344
 20
22.50010681152344
 42
0.08777408846815474
  0
VERTEX
  8
0
  6
CONTINUOUS
 62
     7
 10
141.3373598282138
 20
23.42372630009481
 42
0.09325934615334007
  0
VERTEX
  8
0
  6
CONTINUOUS
 62
     7
 10
140.8600568255554
 20
24.23053181504833
 42
0.1026282815495494
  0
VERTEX
  8
0
  6
CONTINUOUS
 62
     7
 10
140.1118496920007
 20
24.79526733876723
 42
0.1103337798160318
  0
SEQEND
  8
0
  0
POLYLINE
  8
0
  6
CONTINUOUS
 62
     7
 66
     1
 10
0
 20
0
  0
VERTEX
  8
0
  6
CONTINUOUS
 62
     7
 10
140.3000793457031
 20
25.75010681152344
 42
0.01434921821699805
  0
VERTEX
  8
0
  6
CONTINUOUS
 62
     7
 10
140.141198464148
 20
25.74554582288148
 42
0.014260561119669
  0
VERTEX
  8
0
  6
CONTINUOUS
 62
     7
 10
139.9835875795044
 20
25.73197049206374
 42
0.01417567788701096
  0
VERTEX
  8
0
  6
CONTINUOUS
 62
     7
 10
139.8274886903899
 20
25.70952785416056
 42
0.01415086977520999
  0
VERTEX
  8
0
  6
CONTINUOUS
 62
     7
 10
139.6725266914301
 20
25.67820462740313
 42
0.01410158157410164
  0
VERTEX
  8
0
  6
CONTINUOUS
 62
     7
 10
139.5192648520806
 20
25.63809709362262
 42
0.01402957762196566
  0
VERTEX
  8
0
  6
CONTINUOUS
 62
     7
 10
139.3682481581005
 20
25.58935307436956
 42
0.01393699710416336
  0
VERTEX
  8
0
  6
CONTINUOUS
 62
     7
 10
139.2199978318555
 20
25.53216771771504
 42
0.01382627699996558
  0
VERTEX
  8
0
  6
CONTINUOUS
 62
     7
 10
139.0750067124921
 20
25.46677850806008
 42
0.01370006726524623
  0
VERTEX
  8
0
  6
CONTINUOUS
 62
     7
 10
138.9337356133124
 20
25.39345971648404
 42
0.01356114429489218
  0
VERTEX
  8
0
  6
CONTINUOUS
 62
     7
 10
138.7966107203079
 20
25.31251652584494
 42
0.01332237275214015
  0
VERTEX
  8
0
  6
CONTINUOUS
 62
     7
 10
138.6649008544772
 20
25.22489824809871
 42
0.0132878014970359
  0
VERTEX
  8
0
  6
CONTINUOUS
 62
     7
 10
138.5368800837423
 20
25.12953520385954
 42
0.01315486993259569
  0
VERTEX
  8
0
  6
CONTINUOUS
 62
     7
 10
138.4138278551036
 20
25.02732990192748
 42
0.01293833503393548
  0
VERTEX
  8
0
  6
CONTINUOUS
 62
     7
 10
138.2967835913457
 20
24.91931557366782
 42
0.01278034264627673
  0
VERTEX
  8
0
  6
CONTINUOUS
 62
     7
 10
138.1854471840204
 20
24.80542660009975
 42
0.01262533130947344
  0
VERTEX
  8
0
  6
CONTINUOUS
 62
     7
 10
138.0800377528012
 20
24.68602955153478
 42
0
  0
SEQEND
  8
0
  0
POLYLINE
  8
0
  6
CONTINUOUS
 62
     7
 66
     1
 10
0
 20
0
  0
VERTEX
  8
0
  6
CONTINUOUS
 62
     7
 10
193.1714935302734
 20
7.990005493164063
 42
0.1022937417275178
  0
VERTEX
  8
0
  6
CONTINUOUS
 62
     7
 10
193.2644697352959
 20
7.549568679623646
 42
0.07880924346811032
  0
VERTEX
  8
0
  6
CONTINUOUS
 62
     7
 10
193.5086438678889
 20
7.169908439019709
 42
0.05646072913423045
  0
VERTEX
  8
0
  6
CONTINUOUS
 62
     7
 10
193.8453353966651
 20
6.867895165859784
 42
0.0422198891221774
  0
VERTEX
  8
0
  6
CONTINUOUS
 62
     7
 10
194.2350708771411
 20
6.636508308502786
 42
0.03376142830530456
  0
VERTEX
  8
0
  6
CONTINUOUS
 62
     7
 10
194.6555251909095
 20
6.466131451726998
 42
0.02880665412258293
  0
VERTEX
  8
0
  6
CONTINUOUS
 62
     7
 10
195.0941618986263
 20
6.349174463517292
 42
0.02602936893449532
  0
VERTEX
  8
0
  6
CONTINUOUS
 62
     7
 10
195.5430463582149
 20
6.280702254061495
 42
0.02477356868039021
  0
VERTEX
  8
0
  6
CONTINUOUS
 62
     7
 10
195.9966009001959
 20
6.257951079793076
 42
0.02471946283106026
  0
VERTEX
  8
0
  6
CONTINUOUS
 62
     7
 10
196.4493761964618
 20
6.279949154366245
 42
0.02597046719383836
  0
VERTEX
  8
0
  6
CONTINUOUS
 62
     7
 10
196.8979427289017
 20
6.347548284817388
 42
0.02876864440319711
  0
VERTEX
  8
0
  6
CONTINUOUS
 62
     7
 10
197.3372083259529
 20
6.463736973265407
 42
0.03378667679240353
  0
VERTEX
  8
0
  6
CONTINUOUS
 62
     7
 10
197.7595171048749
 20
6.633871546659203
 42
0.04212877444584919
  0
VERTEX
  8
0
  6
CONTINUOUS
 62
     7
 10
198.1501688702515
 20
6.864672389788128
 42
0.05638946075159235
  0
VERTEX
  8
0
  6
CONTINUOUS
 62
     7
 10
198.4883874800661
 20
7.166548893513586
 42
0.0788877850510397
  0
VERTEX
  8
0
  6
CONTINUOUS
 62
     7
 10
198.7344143742235
 20
7.547010723818546
 42
0.1028599922455625
  0
VERTEX
  8
0
  6
CONTINUOUS
 62
     7
 10
198.8284912109375
 20
7.990005493164063
 42
0
  0
SEQEND
  8
0
  0
POLYLINE
  8
0
  6
CONTINUOUS
 62
     7
 66
     1
 10
0
 20
0
  0
VERTEX
  8
0
  6
CONTINUOUS
 62
     7
 10
191.5
 20
18.96275329589844
 42
0.198691009228464
  0
VERTEX
  8
0
  6
CONTINUOUS
 62
     7
 10
191.768037986939
 20
18.40592720461823
 42
0.07317077113995002
  0
VERTEX
  8
0
  6
CONTINUOUS
 62
     7
 10
192.2836765158594
 20
18.03917750698227
 42
0.03714819734988975
  0
VERTEX
  8
0
  6
CONTINUOUS
 62
     7
 10
192.8656882811781
 20
17.78751479663269
 42
0.0242677033797952
  0
VERTEX
  8
0
  6
CONTINUOUS
 62
     7
 10
193.4739640664212
 20
17.60728296278655
 42
0.01837458236155518
  0
VERTEX
  8
0
  6
CONTINUOUS
 62
     7
 10
194.0962707112675
 20
17.47867561284543
 42
0.01529660649284713
  0
VERTEX
  8
0
  6
CONTINUOUS
 62
     7
 10
194.7260161284488
 20
17.39189799736674
 42
0.01367304490065754
  0
VERTEX
  8
0
  6
CONTINUOUS
 62
     7
 10
195.3598026127044
 20
17.34154971282035
 42
0.01295993510450131
  0
VERTEX
  8
0
  6
CONTINUOUS
 62
     7
 10
195.9954214553722
 20
17.32489098448616
 42
0.01293556658771734
  0
VERTEX
  8
0
  6
CONTINUOUS
 62
     7
 10
196.6301085717242
 20
17.34102618434892
 42
0.01363946390407143
  0
VERTEX
  8
0
  6
CONTINUOUS
 62
     7
 10
197.2632353140694
 20
17.39074848744338
 42
0.01527058174628073
  0
VERTEX
  8
0
  6
CONTINUOUS
 62
     7
 10
197.8935018294652
 20
17.47694330715335
 42
0.01831580691036344
  0
VERTEX
  8
0
  6
CONTINUOUS
 62
     7
 10
198.5162328973681
 20
17.60486966954933
 42
0.02420000868275334
  0
VERTEX
  8
0
  6
CONTINUOUS
 62
     7
 10
199.1260873937732
 20
17.78461651056442
 42
0.03701089184523895
  0
VERTEX
  8
0
  6
CONTINUOUS
 62
     7
 10
199.7101451263899
 20
18.03589268646202
 42
0.07278992364777792
  0
VERTEX
  8
0
  6
CONTINUOUS
 62
     7
 10
200.2283132322553
 20
18.40226714231494
 42
0.1981676663161089
  0
VERTEX
  8
0
  6
CONTINUOUS
 62
     7
 10
200.4999919690075
 20
18.95965893211651
 42
0
  0
SEQEND
  8
0
  0
POLYLINE
  8
0
  6
CONTINUOUS
 62
     7
 66
     1
 10
0
 20
0
  0
VERTEX
  8
0
  6
CONTINUOUS
 62
     7
 10
198.8284912109375
 20
14.25460815429688
 42
0.2020803274214701
  0
VERTEX
  8
0
  6
CONTINUOUS
 62
     7
 10
198.6572040816116
 20
14.60079211989095
 42
0.07205842200151874
  0
VERTEX
  8
0
  6
CONTINUOUS
 62
     7
 10
198.3324459312473
 20
14.82602639006309
 42
0.03646186780077766
  0
VERTEX
  8
0
  6
CONTINUOUS
 62
     7
 10
197.9665377728609
 20
14.98065880234195
 42
0.02376950347831736
  0
VERTEX
  8
0
  6
CONTINUOUS
 62
     7
 10
197.5848114048328
 20
15.09130032035397
 42
0.01798457419463781
  0
VERTEX
  8
0
  6
CONTINUOUS
 62
     7
 10
197.1946239378787
 20
15.17023661724647
 42
0.01496719558112094
  0
VERTEX
  8
0
  6
CONTINUOUS
 62
     7
 10
196.7999600837
 20
15.22351321145146
 42
0.01337579568188127
  0
VERTEX
  8
0
  6
CONTINUOUS
 62
     7
 10
196.4028667876709
 20
15.25445640245958
 42
0.01267642597028066
  0
VERTEX
  8
0
  6
CONTINUOUS
 62
     7
 10
196.0046452642038
 20
15.26475388674102
 42
0.01262828221495278
  0
VERTEX
  8
0
  6
CONTINUOUS
 62
     7
 10
195.6076605646069
 20
15.25499022060479
 42
0.01333115572812037
  0
VERTEX
  8
0
  6
CONTINUOUS
 62
     7
 10
195.2109729924338
 20
15.22465610931141
 42
0.01494479211691403
  0
VERTEX
  8
0
  6
CONTINUOUS
 62
     7
 10
194.8152986693478
 20
15.17187994557552
 42
0.01789082423302783
  0
VERTEX
  8
0
  6
CONTINUOUS
 62
     7
 10
194.4247953475453
 20
15.09361211469362
 42
0.02363112014127408
  0
VERTEX
  8
0
  6
CONTINUOUS
 62
     7
 10
194.0419814734864
 20
14.98359206398507
 42
0.03615637284463248
  0
VERTEX
  8
0
  6
CONTINUOUS
 62
     7
 10
193.674578111998
 20
14.82967137992354
 42
0.07146140510191941
  0
VERTEX
  8
0
  6
CONTINUOUS
 62
     7
 10
193.3467322572429
 20
14.60463455145689
 42
0.2008602180068916
  0
VERTEX
  8
0
  6
CONTINUOUS
 62
     7
 10
193.1715104891206
 20
14.25810611602246
 42
0
  0
SEQEND
  8
0
  0
POLYLINE
  8
0
  6
CONTINUOUS
 62
     7
 66
     1
 10
0
 20
0
  0
VERTEX
  8
0
  6
CONTINUOUS
 62
     7
 10
6.819992065429688
 20
25.3499755859375
 42
0.1885745464290924
  0
VERTEX
  8
0
  6
CONTINUOUS
 62
     7
 10
6.460261538522269
 20
25.19028703984911
 42
0.07574466113817051
  0
VERTEX
  8
0
  6
CONTINUOUS
 62
     7
 10
6.216026985965466
 20
24.87245062832676
 42
0.03933594534512958
  0
VERTEX
  8
0
  6
CONTINUOUS
 62
     7
 10
6.046165317503697
 20
24.50711706913912
 42
0.02577125752711498
  0
VERTEX
  8
0
  6
CONTINUOUS
 62
     7
 10
5.924010893244023
 20
24.12296641807139
 42
0.01950521772357141
  0
VERTEX
  8
0
  6
CONTINUOUS
 62
     7
 10
5.836520256462827
 20
23.72875464113595
 42
0.01621461060574423
  0
VERTEX
  8
0
  6
CONTINUOUS
 62
     7
 10
5.777160254708039
 20
23.32916366168362
 42
0.01446653763775834
  0
VERTEX
  8
0
  6
CONTINUOUS
 62
     7
 10
5.74229278684315
 20
22.92663897834303
 42
0.01369126526824787
  0
VERTEX
  8
0
  6
CONTINUOUS
 62
     7
 10
5.730044907543697
 20
22.5224948995088
 42
0.01360481565905948
  0
VERTEX
  8
0
  6
CONTINUOUS
 62
     7
 10
5.739761797781866
 20
22.11964974889296
 42
0.01431525852917508
  0
VERTEX
  8
0
  6
CONTINUOUS
 62
     7
 10
5.771912195952454
 20
21.71739843680845
 42
0.01598185402869716
  0
VERTEX
  8
0
  6
CONTINUOUS
 62
     7
 10
5.828423911626819
 20
21.31658057188146
 42
0.01902675483979401
  0
VERTEX
  8
0
  6
CONTINUOUS
 62
     7
 10
5.912486364333772
 20
20.92142739773306
 42
0.02487977718038427
  0
VERTEX
  8
0
  6
CONTINUOUS
 62
     7
 10
6.030502851315639
 20
20.5350316284218
 42
0.03729615370149705
  0
VERTEX
  8
0
  6
CONTINUOUS
 62
     7
 10
6.194578623268982
 20
20.16584860095529
 42
0.06998284816467812
  0
VERTEX
  8
0
  6
CONTINUOUS
 62
     7
 10
6.430164842897741
 20
19.83851861784649
 42
0.1738206340218296
  0
VERTEX
  8
0
  6
CONTINUOUS
 62
     7
 10
6.779932678960282
 20
19.6519216751302
 42
0
  0
SEQEND
  8
0
  0
POLYLINE
  8
0
  6
CONTINUOUS
 62
     7
 66
     1
 10
0
 20
0
 70
     1
  0
VERTEX
  8
0
  6
CONTINUOUS
 62
     7
 10
10.52000427246094
 20
25
 42
0.2551592727854082
  0
VERTEX
  8
0
  6
CONTINUOUS
 62
     7
 10
9.990194421972644
 20
24.57511190027379
 42
0.06319138472293086
  0
VERTEX
  8
0
  6
CONTINUOUS
 62
     7
 10
9.736099333476973
 20
23.9122252544633
 42
0.03518638918170088
  0
VERTEX
  8
0
  6
CONTINUOUS
 62
     7
 10
9.609369637790104
 20
23.21217549301894
 42
0.02798531261536286
  0
VERTEX
  8
0
  6
CONTINUOUS
 62
     7
 10
9.57000732421875
 20
22.5
 42
0.02789942790998758
  0
VERTEX
  8
0
  6
CONTINUOUS
 62
     7
 10
9.609140981222662
 20
21.789852439692
 42
0.03516017990499044
  0
VERTEX
  8
0
  6
CONTINUOUS
 62
     7
 10
9.735634869873794
 20
21.08956192317742
 42
0.06315573245377393
  0
VERTEX
  8
0
  6
CONTINUOUS
 62
     7
 10
9.989666863013213
 20
20.42582168183449
 42
0.2552844263599412
  0
VERTEX
  8
0
  6
CONTINUOUS
 62
     7
 10
10.52000427246094
 20
20
 42
0.2551594730477805
  0
VERTEX
  8
0
  6
CONTINUOUS
 62
     7
 10
11.04981459858741
 20
20.42488747333301
 42
0.06319156037849921
  0
VERTEX
  8
0
  6
CONTINUOUS
 62
     7
 10
11.30390981534024
 20
21.08777405749937
 42
0.03518647356580567
  0
VERTEX
  8
0
  6
CONTINUOUS
 62
     7
 10
11.4306393075316
 20
21.7878238524152
 42
0.02798539198552158
  0
VERTEX
  8
0
  6
CONTINUOUS
 62
     7
 10
11.47000122070313
 20
22.5
 42
0.02789946216537668
  0
VERTEX
  8
0
  6
CONTINUOUS
 62
     7
 10
11.4308677871041
 20
23.2101475710854
 42
0.03516022448293893
  0
VERTEX
  8
0
  6
CONTINUOUS
 62
     7
 10
11.3043740106433
 20
23.91043810603362
 42
0.06315580443698367
  0
VERTEX
  8
0
  6
CONTINUOUS
 62
     7
 10
11.05034197507806
 20
24.57417832508457
 42
0.2552843239603102
  0
SEQEND
  8
0
  0
TEXT
  8
0
  6
CONTINUOUS
 62
     7
 10
-11.28550004959106
 20
-31.79999995231628
 40
3.599999904632568
 41
1.028555623563721
  1
SSR20XTB
  0
ENDSEC
  0
EOF
