  0
SECTION
  2
HEADER
  0
ENDSEC
  0
SECTION
  2
TABLES
  0
TABLE
  2
LTYPE
 70
    22
  0
LTYPE
  2
CONTINUOUS
 70
    64
  3
Solid line
 72
    65
 73
     0
 40
0.000000
  0
LTYPE
  2
DASHED
 70
    64
  3
__ __ __ __ __ __ __ __ __ __ __ __ __ __ __
 72
    65
 73
     2
 40
3.500000
 49
2.000000
 49
-1.500000
  0
LTYPE
  2
CENTER
 70
    64
  3
____ _ ____ _ ____ _ ____ _ ____ _ ____ _ ____
 72
    65
 73
     4
 40
17.500000
 49
13.000000
 49
-1.500000
 49
1.500000
 49
-1.500000
  0
LTYPE
  2
PHANTOM
 70
    64
  3
_____ _ _ _____ _ _ _____ _ _ _____ _ _ ____  
 72
    65
 73
     6
 40
15.500000
 49
8.000000
 49
-1.500000
 49
1.500000
 49
-1.500000
 49
1.500000
 49
-1.500000
  0
LTYPE
  2
DOT
 70
    64
  3
. . . . . . . . . . . . . . . . . . . . . . . .
 72
    65
 73
     2
 40
0.25
 49
0.0
 49
-0.25
  0
ENDTAB
  0
TABLE
  2
LAYER
 70
     1
  0
LAYER
  2
0
 70
     0
 62
     7
  6
CONTINUOUS
  0
ENDTAB
  0
TABLE
  2
STYLE
 70
     1
  0
STYLE
  2
STANDARD
 70
     0
 40
0.000000
 41
1.000000
 50
0.000000
 71
     0
 42
0.200000
  3
txt
  0
ENDTAB
  0
TABLE
  2
VIEW
 70
     0
  0
ENDTAB
  0
ENDSEC
  0
SECTION
  2
BLOCKS
  0
ENDSEC
  0
SECTION
  2
ENTITIES
  0
LINE
  8
0
  6
CONTINUOUS
 62
     7
 10
70
 20
0
 11
290
 21
0
  0
LINE
  8
0
  6
CONTINUOUS
 62
     7
 10
70
 20
15.5
 11
156.1499938964844
 21
15.5
  0
LINE
  8
0
  6
CONTINUOUS
 62
     7
 10
70
 20
15.5
 11
70
 21
0
  0
LINE
  8
0
  6
CONTINUOUS
 62
     7
 10
203.8500061035156
 20
15.5
 11
290
 21
15.5
  0
LINE
  8
0
  6
CENTER
 62
     7
 10
90
 20
16.5
 11
90
 21
-1
  0
LINE
  8
0
  6
DASHED
 62
     7
 10
87
 20
7
 11
87
 21
0
  0
LINE
  8
0
  6
DASHED
 62
     7
 10
93
 20
7
 11
93
 21
0
  0
LINE
  8
0
  6
DASHED
 62
     7
 10
85.25
 20
7
 11
94.75
 21
7
  0
LINE
  8
0
  6
DASHED
 62
     7
 10
85.25
 20
15.5
 11
85.25
 21
7
  0
LINE
  8
0
  6
DASHED
 62
     7
 10
94.75
 20
15.5
 11
94.75
 21
7
  0
LINE
  8
0
  6
CONTINUOUS
 62
     7
 10
203.8500061035156
 20
27.59999084472656
 11
203.8500061035156
 21
5.999984741210938
  0
LINE
  8
0
  6
CONTINUOUS
 62
     7
 10
201.2000122070313
 20
27.59999084472656
 11
193.9000091552734
 21
27.59999084472656
  0
LINE
  8
0
  6
CONTINUOUS
 62
     7
 10
165.1000061035156
 20
17
 11
166.1000061035156
 21
17
  0
LINE
  8
0
  6
CENTER
 62
     7
 10
160.1285095214844
 20
22.5
 11
144.2000427246094
 21
22.5
  0
LINE
  8
0
  6
CONTINUOUS
 62
     7
 10
152.8999938964844
 20
18.5
 11
155.8999938964844
 21
18.5
  0
LINE
  8
0
  6
CENTER
 62
     7
 10
161.9143676757813
 20
26.09999084472656
 11
159.9090881347656
 21
26.09999084472656
  0
LINE
  8
0
  6
CONTINUOUS
 62
     7
 10
158.7999877929688
 20
27.59999084472656
 11
166.1000061035156
 21
27.59999084472656
  0
LINE
  8
0
  6
CONTINUOUS
 62
     7
 10
156.1499938964844
 20
27.59999084472656
 11
158.3999938964844
 21
27.59999084472656
  0
LINE
  8
0
  6
CENTER
 62
     7
 10
160.8999938964844
 20
23.43841552734375
 11
160.8999938964844
 21
27.02967834472656
  0
LINE
  8
0
  6
CENTER
 62
     7
 10
159.0999755859375
 20
25.19999694824219
 11
162.6949462890625
 21
25.19999694824219
  0
LINE
  8
0
  6
CONTINUOUS
 62
     7
 10
158.3999938964844
 20
27.59999084472656
 11
158.3999938964844
 21
5.999984741210938
  0
LINE
  8
0
  6
CONTINUOUS
 62
     7
 10
158.7999877929688
 20
27.60000610351563
 11
158.3999938964844
 21
27.20000267028809
  0
LINE
  8
0
  6
CONTINUOUS
 62
     7
 10
158.3999938964844
 20
6.500001430511475
 11
158.9000091552734
 21
5.999990463256836
  0
LINE
  8
0
  6
CONTINUOUS
 62
     7
 10
194.9000091552734
 20
17
 11
194.9000091552734
 21
6
  0
LINE
  8
0
  6
CONTINUOUS
 62
     7
 10
156.1499938964844
 20
5.999984741210938
 11
158.3999938964844
 21
5.999984741210938
  0
LINE
  8
0
  6
CONTINUOUS
 62
     7
 10
193.9000091552734
 20
20.5
 11
166.1000061035156
 21
20.5
  0
LINE
  8
0
  6
CONTINUOUS
 62
     7
 10
193.9000091552734
 20
28
 11
193.9000091552734
 21
17
  0
LINE
  8
0
  6
CONTINUOUS
 62
     7
 10
156.1499938964844
 20
27.59999084472656
 11
156.1499938964844
 21
5.999984741210938
  0
LINE
  8
0
  6
CONTINUOUS
 62
     7
 10
193.9000091552734
 20
28
 11
166.1000061035156
 21
28
  0
LINE
  8
0
  6
CONTINUOUS
 62
     7
 10
201.6000061035156
 20
6.499996185302734
 11
201.1000061035156
 21
5.999995708465576
  0
LINE
  8
0
  6
CONTINUOUS
 62
     7
 10
201.2000122070313
 20
27.59999465942383
 11
201.6000061035156
 21
27.20000267028809
  0
LINE
  8
0
  6
CONTINUOUS
 62
     7
 10
201.6000061035156
 20
27.59999084472656
 11
201.6000061035156
 21
5.999984741210938
  0
LINE
  8
0
  6
CENTER
 62
     7
 10
200.9000244140625
 20
25.19999694824219
 11
197.3050537109375
 21
25.19999694824219
  0
LINE
  8
0
  6
CENTER
 62
     7
 10
199.1000061035156
 20
23.43841552734375
 11
199.1000061035156
 21
27.02967834472656
  0
LINE
  8
0
  6
CONTINUOUS
 62
     7
 10
203.8500061035156
 20
27.59999084472656
 11
201.6000061035156
 21
27.59999084472656
  0
LINE
  8
0
  6
CONTINUOUS
 62
     7
 10
201.1000061035156
 20
6
 11
158.8999938964844
 21
6
  0
LINE
  8
0
  6
CONTINUOUS
 62
     7
 10
155.8999938964844
 20
18.3800048828125
 11
155.8999938964844
 21
26.61997985839844
  0
LINE
  8
0
  6
CONTINUOUS
 62
     7
 10
166.1000061035156
 20
28
 11
166.1000061035156
 21
17
  0
LINE
  8
0
  6
CONTINUOUS
 62
     7
 10
203.8500061035156
 20
5.999984741210938
 11
201.6000061035156
 21
5.999984741210938
  0
LINE
  8
0
  6
CONTINUOUS
 62
     7
 10
194.9000091552734
 20
17
 11
193.9000091552734
 21
17
  0
LINE
  8
0
  6
CONTINUOUS
 62
     7
 10
165.1000061035156
 20
17
 11
165.1000061035156
 21
6
  0
LINE
  8
0
  6
CONTINUOUS
 62
     7
 10
152.8999938964844
 20
26.5
 11
155.8999938964844
 21
26.5
  0
LINE
  8
0
  6
CONTINUOUS
 62
     7
 10
156.1499938964844
 20
18.12999153137207
 11
155.8999786376953
 21
18.38000679016113
  0
LINE
  8
0
  6
CONTINUOUS
 62
     7
 10
155.8999938964844
 20
26.61998748779297
 11
156.1499938964844
 21
26.86999320983887
  0
LINE
  8
0
  6
CONTINUOUS
 62
     7
 10
154
 20
19
 11
148.7999877929688
 21
19
  0
LINE
  8
0
  6
CONTINUOUS
 62
     7
 10
154
 20
18.95999145507813
 11
154
 21
19
  0
LINE
  8
0
  6
CONTINUOUS
 62
     7
 10
155.5000152587891
 20
22.50002098083496
 11
154.0000152587891
 21
19.00002288818359
  0
LINE
  8
0
  6
CONTINUOUS
 62
     7
 10
154.6000366210938
 20
22.50001525878906
 11
153.0000457763672
 21
19.00002098083496
  0
LINE
  8
0
  6
CONTINUOUS
 62
     7
 10
148.7999725341797
 20
18.9999942779541
 11
148.3999786376953
 21
19.57999992370606
  0
LINE
  8
0
  6
CONTINUOUS
 62
     7
 10
148.7999725341797
 20
25.99995231628418
 11
148.3999786376953
 21
25.41994667053223
  0
LINE
  8
0
  6
CONTINUOUS
 62
     7
 10
154
 20
26
 11
148.7999877929688
 21
26
  0
LINE
  8
0
  6
CONTINUOUS
 62
     7
 10
154.6000366210938
 20
22.50002861022949
 11
153.0000305175781
 21
26.00003814697266
  0
LINE
  8
0
  6
CONTINUOUS
 62
     7
 10
155.4999847412109
 20
22.49999237060547
 11
153.9999847412109
 21
25.99999809265137
  0
LINE
  8
0
  6
CONTINUOUS
 62
     7
 10
19.80000686645508
 20
27.60001373291016
 11
20.60001182556152
 21
26.80000877380371
  0
LINE
  8
0
  6
CONTINUOUS
 62
     7
 10
21.00000381469727
 20
17.65000343322754
 11
20.60001182556152
 21
18.04999542236328
  0
LINE
  8
0
  6
CONTINUOUS
 62
     7
 10
11.34163761138916
 20
6.000000953674316
 11
8.265698432922363
 21
7.775895118713379
  0
LINE
  8
0
  6
CONTINUOUS
 62
     7
 10
20.60000610351563
 20
26.79999542236328
 11
20.60000610351563
 21
18.05000305175781
  0
LINE
  8
0
  6
CENTER
 62
     7
 10
0
 20
29
 11
0
 21
-1
  0
LINE
  8
0
  6
CONTINUOUS
 62
     7
 10
-10
 20
5.273483276367188
 11
-10
 21
1.180068969726563
  0
LINE
  8
0
  6
CONTINUOUS
 62
     7
 10
10
 20
5.273483276367188
 11
10
 21
1.180000305175781
  0
LINE
  8
0
  6
CONTINUOUS
 62
     7
 10
6.5029296875
 20
15.5
 11
-6.5029296875
 21
15.5
  0
LINE
  8
0
  6
CONTINUOUS
 62
     7
 10
9.99998950958252
 20
5.273487567901611
 11
7.355953216552734
 21
6.800022602081299
  0
LINE
  8
0
  6
CONTINUOUS
 62
     7
 10
9.999963760375977
 20
13.3795223236084
 11
9.661218643188477
 21
12.79279899597168
  0
LINE
  8
0
  6
CONTINUOUS
 62
     7
 10
10
 20
14.54010009765625
 11
10
 21
13.37956237792969
  0
LINE
  8
0
  6
CONTINUOUS
 62
     7
 10
9.999991416931152
 20
14.54011821746826
 11
9.040105819702148
 21
15.50000381469727
  0
LINE
  8
0
  6
CONTINUOUS
 62
     7
 10
8.820041656494141
 20
3.644099342636764E-005
 11
9.999992370605469
 21
1.179985880851746
  0
LINE
  8
0
  6
CONTINUOUS
 62
     7
 10
9.0400390625
 20
15.5
 11
8.797119140625
 21
15.5
  0
LINE
  8
0
  6
CONTINUOUS
 62
     7
 10
9.018030166625977
 20
11.6787633895874
 11
6.989953994750977
 21
8.166032791137695
  0
LINE
  8
0
  6
DASHED
 62
     7
 10
4.75
 20
7.000002861022949
 11
-4.75
 21
7.000002861022949
  0
LINE
  8
0
  6
DASHED
 62
     7
 10
-3
 20
7.000002861022949
 11
-3
 21
0.1000183448195458
  0
LINE
  8
0
  6
DASHED
 62
     7
 10
3
 20
7.000002861022949
 11
3
 21
0.1000659987330437
  0
LINE
  8
0
  6
CONTINUOUS
 62
     7
 10
2.5
 20
0.5999984741210938
 11
-2.5
 21
0.5999984741210938
  0
LINE
  8
0
  6
CONTINUOUS
 62
     7
 10
-2.4999680519104
 20
0.6000502705574036
 11
-3.100042104721069
 21
-2.377082273596898E-005
  0
LINE
  8
0
  6
CONTINUOUS
 62
     7
 10
3.100046634674072
 20
1.938755121955182E-005
 11
2.500058889389038
 21
0.6000071167945862
  0
LINE
  8
0
  6
DASHED
 62
     7
 10
-4.75
 20
15.5
 11
-4.75
 21
7.000002861022949
  0
LINE
  8
0
  6
DASHED
 62
     7
 10
4.75
 20
15.5
 11
4.75
 21
7.000002861022949
  0
LINE
  8
0
  6
CONTINUOUS
 62
     7
 10
-10.00009346008301
 20
5.273431777954102
 11
-7.356030941009522
 21
6.799982070922852
  0
LINE
  8
0
  6
CONTINUOUS
 62
     7
 10
-10.00001525878906
 20
13.37949752807617
 11
-9.661270141601563
 21
12.79277324676514
  0
LINE
  8
0
  6
CONTINUOUS
 62
     7
 10
-10
 20
14.54010009765625
 11
-10
 21
13.37956237792969
  0
LINE
  8
0
  6
CONTINUOUS
 62
     7
 10
-9.999964714050293
 20
14.54013919830322
 11
-9.040122985839844
 21
15.49998188018799
  0
LINE
  8
0
  6
CONTINUOUS
 62
     7
 10
-8.819972991943359
 20
6.03804292040877E-005
 11
-9.999923706054688
 21
1.180009841918945
  0
LINE
  8
0
  6
CONTINUOUS
 62
     7
 10
-9.0400390625
 20
15.5
 11
-8.797119140625
 21
15.5
  0
LINE
  8
0
  6
CONTINUOUS
 62
     7
 10
-9.018081665039063
 20
11.67873859405518
 11
-6.990005493164063
 21
8.166007995605469
  0
LINE
  8
0
  6
CONTINUOUS
 62
     7
 10
-19.50002098083496
 20
27.99996948242188
 11
-21.00003814697266
 21
26.49996185302734
  0
LINE
  8
0
  6
CENTER
 62
     7
 10
-16
 20
29
 11
-16
 21
13.75869655609131
  0
LINE
  8
0
  6
DASHED
 62
     7
 10
-18.5
 20
20
 11
-13.5
 21
20
  0
LINE
  8
0
  6
DASHED
 62
     7
 10
-13.5
 20
28
 11
-13.5
 21
20
  0
LINE
  8
0
  6
DASHED
 62
     7
 10
-18.5
 20
28
 11
-18.5
 21
20
  0
LINE
  8
0
  6
DASHED
 62
     7
 10
-18.14999961853027
 20
16
 11
-13.85000038146973
 21
16
  0
LINE
  8
0
  6
DASHED
 62
     7
 10
-13.85000038146973
 20
19.39372062683106
 11
-13.49997329711914
 21
19.99998664855957
  0
LINE
  8
0
  6
DASHED
 62
     7
 10
-18.14999961853027
 20
19.39363479614258
 11
-18.50006675720215
 21
19.99996757507324
  0
LINE
  8
0
  6
CONTINUOUS
 62
     7
 10
21
 20
26.50000762939453
 11
21
 21
20.81478881835938
  0
LINE
  8
0
  6
CONTINUOUS
 62
     7
 10
-19
 20
6
 11
-8.741640090942383
 21
6
  0
LINE
  8
0
  6
CONTINUOUS
 62
     7
 10
21
 20
17.82130432128906
 11
21
 21
8
  0
LINE
  8
0
  6
CONTINUOUS
 62
     7
 10
-5.7999267578125
 20
28
 11
-19.5
 21
28
  0
LINE
  8
0
  6
CONTINUOUS
 62
     7
 10
19.50003623962402
 20
27.99998283386231
 11
21.00005149841309
 21
26.49997520446777
  0
LINE
  8
0
  6
CENTER
 62
     7
 10
16
 20
29
 11
16
 21
13.75851440429688
  0
LINE
  8
0
  6
CONTINUOUS
 62
     7
 10
-21
 20
26.50000762939453
 11
-21
 21
19.800048828125
  0
LINE
  8
0
  6
CONTINUOUS
 62
     7
 10
19
 20
6
 11
8.74163818359375
 21
6
  0
LINE
  8
0
  6
CONTINUOUS
 62
     7
 10
-21
 20
17.87728881835938
 11
-21
 21
8
  0
LINE
  8
0
  6
CONTINUOUS
 62
     7
 10
4.99983549118042
 20
27.6999683380127
 11
5.299872398376465
 21
28.0000057220459
  0
LINE
  8
0
  6
CONTINUOUS
 62
     7
 10
5.2998046875
 20
28
 11
19.5
 21
28
  0
LINE
  8
0
  6
CONTINUOUS
 62
     7
 10
-7.319093704223633
 20
16.79998016357422
 11
7.319093704223633
 21
16.79998016357422
  0
LINE
  8
0
  6
CONTINUOUS
 62
     7
 10
11.300048828125
 20
15.0786075592041
 11
9.578676223754883
 21
16.79998016357422
  0
LINE
  8
0
  6
CONTINUOUS
 62
     7
 10
11.300048828125
 20
15.0786075592041
 11
11.300048828125
 21
13.03154277801514
  0
LINE
  8
0
  6
CONTINUOUS
 62
     7
 10
11.300048828125
 20
13.03154373168945
 11
10.60161590576172
 21
11.82182312011719
  0
LINE
  8
0
  6
CONTINUOUS
 62
     7
 10
10.32907390594482
 20
11.34976482391357
 11
8.265698432922363
 21
7.775895118713379
  0
LINE
  8
0
  6
CONTINUOUS
 62
     7
 10
7.980955123901367
 20
16.79998016357422
 11
9.578676223754883
 21
16.79998016357422
  0
LINE
  8
0
  6
CONTINUOUS
 62
     7
 10
-5.499927520751953
 20
27.69999122619629
 11
-5.799942970275879
 21
28.0000057220459
  0
LINE
  8
0
  6
CONTINUOUS
 62
     7
 10
19.79998779296875
 20
27.59999847412109
 11
-19.80002212524414
 21
27.59999847412109
  0
LINE
  8
0
  6
CONTINUOUS
 62
     7
 10
4.9998779296875
 20
27.69999694824219
 11
-5.4998779296875
 21
27.69999694824219
  0
LINE
  8
0
  6
CONTINUOUS
 62
     7
 10
21.00000381469727
 20
20.81480598449707
 11
20.8314151763916
 21
20.64621925354004
  0
LINE
  8
0
  6
CONTINUOUS
 62
     7
 10
20.6849365234375
 20
20.29265594482422
 11
20.6849365234375
 21
18.99711608886719
  0
LINE
  8
0
  6
CONTINUOUS
 62
     7
 10
-20.699951171875
 20
19.29290008544922
 11
-20.699951171875
 21
18.99711608886719
  0
LINE
  8
0
  6
CONTINUOUS
 62
     7
 10
20.9999942779541
 20
17.82131004333496
 11
20.6849365234375
 21
18.99711990356445
  0
LINE
  8
0
  6
CONTINUOUS
 62
     7
 10
-20.99998664855957
 20
19.80003356933594
 11
-20.84640884399414
 21
19.64645385742188
  0
LINE
  8
0
  6
CONTINUOUS
 62
     7
 10
-20.99999237060547
 20
17.87729263305664
 11
-20.699951171875
 21
18.99706268310547
  0
LINE
  8
0
  6
CONTINUOUS
 62
     7
 10
-3.0999755859375
 20
0
 11
-8.819911956787109
 21
0
  0
LINE
  8
0
  6
CONTINUOUS
 62
     7
 10
8.8199462890625
 20
0
 11
3.10009765625
 21
0
  0
LINE
  8
0
  6
DASHED
 62
     7
 10
-18.14999961853027
 20
28
 11
-18.14999961853027
 21
16
  0
LINE
  8
0
  6
DASHED
 62
     7
 10
-13.85000038146973
 20
28
 11
-13.85000038146973
 21
16
  0
LINE
  8
0
  6
DASHED
 62
     7
 10
-18.14999961853027
 20
16
 11
-15.99999904632568
 21
14.75869655609131
  0
LINE
  8
0
  6
DASHED
 62
     7
 10
-13.85000038146973
 20
16
 11
-16
 21
14.75869655609131
  0
LINE
  8
0
  6
CENTER
 62
     7
 10
15
 20
23.79999542236328
 11
10
 21
23.79999542236328
  0
LINE
  8
0
  6
CENTER
 62
     7
 10
12.5
 20
26.29999542236328
 11
12.5
 21
21.29999542236328
  0
LINE
  8
0
  6
CONTINUOUS
 62
     7
 10
-19.80000686645508
 20
27.60001373291016
 11
-20.60001182556152
 21
26.80000877380371
  0
LINE
  8
0
  6
CONTINUOUS
 62
     7
 10
-21.00000381469727
 20
17.65000343322754
 11
-20.60001182556152
 21
18.04999542236328
  0
LINE
  8
0
  6
CONTINUOUS
 62
     7
 10
-11.34163761138916
 20
6.000000953674316
 11
-8.265698432922363
 21
7.775895118713379
  0
LINE
  8
0
  6
CONTINUOUS
 62
     7
 10
-20.60000610351563
 20
26.79999542236328
 11
-20.60000610351563
 21
18.05000305175781
  0
LINE
  8
0
  6
CENTER
 62
     7
 10
-15
 20
23.79999542236328
 11
-10
 21
23.79999542236328
  0
LINE
  8
0
  6
CENTER
 62
     7
 10
-12.5
 20
26.29999542236328
 11
-12.5
 21
21.29999542236328
  0
LINE
  8
0
  6
CONTINUOUS
 62
     7
 10
-11.300048828125
 20
15.0786075592041
 11
-9.578593254089356
 21
16.80006408691406
  0
LINE
  8
0
  6
CONTINUOUS
 62
     7
 10
-11.300048828125
 20
15.0786075592041
 11
-11.300048828125
 21
13.03128051757813
  0
LINE
  8
0
  6
CONTINUOUS
 62
     7
 10
-11.29990100860596
 20
13.03128814697266
 11
-10.60165882110596
 21
11.82189655303955
  0
LINE
  8
0
  6
CONTINUOUS
 62
     7
 10
-10.32901477813721
 20
11.34966373443604
 11
-8.265698432922363
 21
7.775895118713379
  0
LINE
  8
0
  6
CONTINUOUS
 62
     7
 10
-7.98095703125
 20
16.79998016357422
 11
-9.57861328125
 21
16.79998016357422
  0
LINE
  8
0
  6
CENTER
 62
     7
 10
-6.3699951171875
 20
22.5
 11
13.30998229980469
 21
22.5
  0
LINE
  8
0
  6
CONTINUOUS
 62
     7
 10
1.779998779296875
 20
26
 11
5.8599853515625
 21
26
  0
LINE
  8
0
  6
CONTINUOUS
 62
     7
 10
1.779998779296875
 20
19
 11
5.8599853515625
 21
19
  0
LINE
  8
0
  6
CONTINUOUS
 62
     7
 10
1.129988670349121
 20
22.49996185302734
 11
1.779982566833496
 21
18.99996185302734
  0
LINE
  8
0
  6
CONTINUOUS
 62
     7
 10
1.129988670349121
 20
22.49997901916504
 11
1.779979705810547
 21
25.99996376037598
  0
LINE
  8
0
  6
CONTINUOUS
 62
     7
 10
3.440002679824829
 20
22.49995994567871
 11
4.090013980865479
 21
18.99994659423828
  0
LINE
  8
0
  6
CONTINUOUS
 62
     7
 10
3.439975500106812
 20
22.49997138977051
 11
4.089986801147461
 21
25.99998474121094
  0
LINE
  8
0
  6
CONTINUOUS
 62
     7
 10
5.950003623962402
 20
19.4699821472168
 11
5.859991550445557
 21
18.99997711181641
  0
LINE
  8
0
  6
CONTINUOUS
 62
     7
 10
5.950027465820313
 20
25.52000236511231
 11
5.860019683837891
 21
25.9999942779541
  0
LINE
  8
0
  6
CONTINUOUS
 62
     7
 10
7.765948295593262
 20
19.2542896270752
 11
10.51998043060303
 21
19.99996376037598
  0
LINE
  8
0
  6
CONTINUOUS
 62
     7
 10
7.749973773956299
 20
25.74999237060547
 11
10.51998615264893
 21
24.99999046325684
  0
LINE
  8
0
  6
CONTINUOUS
 62
     7
 10
0.0004939555074088275
 20
17.88089179992676
 11
1.947718739509583
 21
19
  0
LINE
  8
0
  6
CONTINUOUS
 62
     7
 10
0.0005121983704157174
 20
17.88090324401856
 11
-4.000515460968018
 21
20.19089698791504
  0
LINE
  8
0
  6
CONTINUOUS
 62
     7
 10
-4.000481605529785
 20
20.19089317321777
 11
-4.000998497009277
 21
24.80999183654785
  0
LINE
  8
0
  6
CONTINUOUS
 62
     7
 10
-4.00101375579834
 20
24.81000137329102
 11
-0.0004912655567750335
 21
27.11910820007324
  0
LINE
  8
0
  6
CONTINUOUS
 62
     7
 10
-0.000516552769113332
 20
27.11909866333008
 11
1.937821745872498
 21
25.99999809265137
  0
LINE
  8
0
  6
CONTINUOUS
 62
     7
 10
290
 20
15.5
 11
290
 21
0
  0
LINE
  8
0
  6
CENTER
 62
     7
 10
150
 20
16.5
 11
150
 21
-1
  0
LINE
  8
0
  6
CENTER
 62
     7
 10
210
 20
16.5
 11
210
 21
-1
  0
LINE
  8
0
  6
CENTER
 62
     7
 10
270
 20
16.5
 11
270
 21
-1
  0
LINE
  8
0
  6
CENTER
 62
     7
 10
180
 20
29
 11
180
 21
13.75869655609131
  0
LINE
  8
0
  6
DASHED
 62
     7
 10
177.5
 20
20
 11
182.5
 21
20
  0
LINE
  8
0
  6
DASHED
 62
     7
 10
182.5
 20
28
 11
182.5
 21
20
  0
LINE
  8
0
  6
DASHED
 62
     7
 10
177.5
 20
28
 11
177.5
 21
20
  0
LINE
  8
0
  6
DASHED
 62
     7
 10
177.8500061035156
 20
28
 11
177.8500061035156
 21
16
  0
LINE
  8
0
  6
DASHED
 62
     7
 10
182.1500091552734
 20
28
 11
182.1500091552734
 21
16
  0
LINE
  8
0
  6
DASHED
 62
     7
 10
177.8500061035156
 20
16
 11
182.1500091552734
 21
16
  0
LINE
  8
0
  6
DASHED
 62
     7
 10
182.1500091552734
 20
19.39372444152832
 11
182.5000305175781
 21
19.99998474121094
  0
LINE
  8
0
  6
DASHED
 62
     7
 10
177.8500061035156
 20
15.99999618530273
 11
180.0000152587891
 21
14.75869369506836
  0
LINE
  8
0
  6
DASHED
 62
     7
 10
177.8500061035156
 20
19.39363288879395
 11
177.4999389648438
 21
19.99996757507324
  0
LINE
  8
0
  6
DASHED
 62
     7
 10
182.1500091552734
 20
16.00000190734863
 11
180.0000152587891
 21
14.75870037078857
  0
LINE
  8
0
  6
CONTINUOUS
 62
     7
 10
193.9000091552734
 20
88
 11
166.1000061035156
 21
88
  0
LINE
  8
0
  6
CENTER
 62
     7
 10
291
 20
109
 11
69
 21
109
  0
LINE
  8
0
  6
CONTINUOUS
 62
     7
 10
156.1499938964844
 20
130
 11
203.8500061035156
 21
130
  0
LINE
  8
0
  6
CONTINUOUS
 62
     7
 10
156.1499938964844
 20
88
 11
203.8500061035156
 21
88
  0
LINE
  8
0
  6
CONTINUOUS
 62
     7
 10
156.1499938964844
 20
130
 11
156.1499938964844
 21
88
  0
LINE
  8
0
  6
CONTINUOUS
 62
     7
 10
158.3999938964844
 20
130
 11
158.3999938964844
 21
88
  0
LINE
  8
0
  6
CONTINUOUS
 62
     7
 10
166.1000061035156
 20
130
 11
166.1000061035156
 21
88
  0
LINE
  8
0
  6
CONTINUOUS
 62
     7
 10
193.9000091552734
 20
130
 11
193.9000091552734
 21
88
  0
LINE
  8
0
  6
CONTINUOUS
 62
     7
 10
201.6000061035156
 20
130
 11
201.6000061035156
 21
88
  0
LINE
  8
0
  6
CONTINUOUS
 62
     7
 10
203.8500061035156
 20
130
 11
203.8500061035156
 21
88
  0
LINE
  8
0
  6
CONTINUOUS
 62
     7
 10
166.1000061035156
 20
114.7999267578125
 11
193.9000091552734
 21
114.7999267578125
  0
LINE
  8
0
  6
CONTINUOUS
 62
     7
 10
166.1000061035156
 20
103.7001953125
 11
193.9000091552734
 21
103.7001953125
  0
LINE
  8
0
  6
CENTER
 62
     7
 10
183.5
 20
93
 11
176.5
 21
93
  0
LINE
  8
0
  6
CENTER
 62
     7
 10
180
 20
96.5
 11
180
 21
89.5
  0
LINE
  8
0
  6
CONTINUOUS
 62
     7
 10
70
 20
119
 11
156.1499938964844
 21
119
  0
LINE
  8
0
  6
CONTINUOUS
 62
     7
 10
70
 20
99
 11
147.537841796875
 21
99
  0
LINE
  8
0
  6
CONTINUOUS
 62
     7
 10
70
 20
117.7971572875977
 11
156.1499938964844
 21
117.7971572875977
  0
LINE
  8
0
  6
CONTINUOUS
 62
     7
 10
70
 20
115.5029296875
 11
156.1499938964844
 21
115.5029296875
  0
LINE
  8
0
  6
CONTINUOUS
 62
     7
 10
70
 20
102.4971084594727
 11
146.6653900146484
 21
102.4971084594727
  0
LINE
  8
0
  6
CONTINUOUS
 62
     7
 10
70
 20
100.2028427124023
 11
146.4342651367188
 21
100.2028427124023
  0
LINE
  8
0
  6
CONTINUOUS
 62
     7
 10
70
 20
119
 11
70
 21
99
  0
LINE
  8
0
  6
CONTINUOUS
 62
     7
 10
290
 20
119
 11
290
 21
99
  0
LINE
  8
0
  6
CONTINUOUS
 62
     7
 10
203.8500061035156
 20
99
 11
290
 21
99
  0
LINE
  8
0
  6
CONTINUOUS
 62
     7
 10
203.8500061035156
 20
100.2028427124023
 11
290
 21
100.2028427124023
  0
LINE
  8
0
  6
CONTINUOUS
 62
     7
 10
203.8500061035156
 20
102.4971084594727
 11
290
 21
102.4971084594727
  0
LINE
  8
0
  6
CONTINUOUS
 62
     7
 10
203.8500061035156
 20
115.5029296875
 11
290
 21
115.5029296875
  0
LINE
  8
0
  6
CONTINUOUS
 62
     7
 10
203.8500061035156
 20
117.7971572875977
 11
290
 21
117.7971572875977
  0
LINE
  8
0
  6
CONTINUOUS
 62
     7
 10
203.8500061035156
 20
119
 11
290
 21
119
  0
LINE
  8
0
  6
CENTER
 62
     7
 10
90
 20
114.75
 11
90
 21
103.25
  0
LINE
  8
0
  6
CENTER
 62
     7
 10
150
 20
114.75
 11
150
 21
103.25
  0
LINE
  8
0
  6
CENTER
 62
     7
 10
210
 20
114.75
 11
210
 21
103.25
  0
LINE
  8
0
  6
CENTER
 62
     7
 10
270
 20
114.75
 11
270
 21
103.25
  0
LINE
  8
0
  6
CONTINUOUS
 62
     7
 10
155.9000091552734
 20
104.9999847412109
 11
155.9000091552734
 21
112.9999847412109
  0
LINE
  8
0
  6
CONTINUOUS
 62
     7
 10
152.60009765625
 20
113
 11
155.9000091552734
 21
113
  0
LINE
  8
0
  6
CONTINUOUS
 62
     7
 10
154.2201232910156
 20
105
 11
155.9000091552734
 21
105
  0
LINE
  8
0
  6
CONTINUOUS
 62
     7
 10
148.60009765625
 20
109
 11
148.60009765625
 21
107.327880859375
  0
LINE
  8
0
  6
CONTINUOUS
 62
     7
 10
155.8999938964844
 20
113
 11
156.1499938964844
 21
113
  0
LINE
  8
0
  6
CONTINUOUS
 62
     7
 10
155.8999938964844
 20
105
 11
156.1499938964844
 21
105
  0
LINE
  8
0
  6
CENTER
 62
     7
 10
148.15185546875
 20
97.47788238525391
 11
153.0171661376953
 21
109.2237701416016
  0
LINE
  8
0
  6
CONTINUOUS
 62
     7
 10
146.3827819824219
 20
99.47843933105469
 11
150.8174133300781
 21
97.64156341552734
  0
LINE
  8
0
  6
CONTINUOUS
 62
     7
 10
146.5845489501953
 20
102.3173446655273
 11
152.6821441650391
 21
99.79163360595703
  0
LINE
  8
0
  6
CONTINUOUS
 62
     7
 10
146.3827819824219
 20
99.47844696044922
 11
146.5845489501953
 21
102.3173446655273
  0
LINE
  8
0
  6
CONTINUOUS
 62
     7
 10
150.8174133300781
 20
97.64155578613281
 11
152.6821594238281
 21
99.79163360595703
  0
LINE
  8
0
  6
CONTINUOUS
 62
     7
 10
147.3232574462891
 20
106.0381774902344
 11
147.7379302978516
 21
107.0392532348633
  0
LINE
  8
0
  6
CONTINUOUS
 62
     7
 10
154.7908477783203
 20
102.9449996948242
 11
155.2055053710938
 21
103.9460678100586
  0
LINE
  8
0
  6
CONTINUOUS
 62
     7
 10
148.5173645019531
 20
107.3620910644531
 11
147.7379302978516
 21
107.0392379760742
  0
LINE
  8
0
  6
CONTINUOUS
 62
     7
 10
148.9605560302734
 20
104.7105941772461
 11
149.8331298828125
 21
106.8171615600586
  0
LINE
  8
0
  6
CONTINUOUS
 62
     7
 10
152.6943359375
 20
103.1640090942383
 11
153.5669097900391
 21
105.2705764770508
  0
LINE
  8
0
  6
CONTINUOUS
 62
     7
 10
148.5173797607422
 20
107.3621597290039
 11
154.8826904296875
 21
104.7255630493164
  0
LINE
  8
0
  6
CONTINUOUS
 62
     7
 10
155.2055206298828
 20
103.9460601806641
 11
154.8826446533203
 21
104.7255096435547
  0
LINE
  8
0
  6
CONTINUOUS
 62
     7
 10
147.7148284912109
 20
103.7394866943359
 11
152.8885345458984
 21
101.5964508056641
  0
LINE
  8
0
  6
CONTINUOUS
 62
     7
 10
147.5530548095703
 20
105.2935943603516
 11
154.1018371582031
 21
102.5810012817383
  0
LINE
  8
0
  6
CONTINUOUS
 62
     7
 10
153.9692687988281
 20
102.4971084594727
 11
156.1499938964844
 21
102.4971084594727
  0
LINE
  8
0
  6
CONTINUOUS
 62
     7
 10
152.8215637207031
 20
100.2028427124023
 11
156.1499938964844
 21
100.2028427124023
  0
LINE
  8
0
  6
CONTINUOUS
 62
     7
 10
151.9955749511719
 20
99
 11
156.1499938964844
 21
99
  0
LINE
  8
0
  6
CENTER
 62
     7
 10
183.5
 20
125
 11
176.5
 21
125
  0
LINE
  8
0
  6
CENTER
 62
     7
 10
180
 20
121.5
 11
180
 21
128.5
  0
LINE
  8
0
  6
CONTINUOUS
 62
     7
 10
70
 20
14.54010009765625
 11
156.1499938964844
 21
14.54010009765625
  0
LINE
  8
0
  6
CONTINUOUS
 62
     7
 10
70
 20
12.79273509979248
 11
156.1499938964844
 21
12.79273509979248
  0
LINE
  8
0
  6
CONTINUOUS
 62
     7
 10
70
 20
11.67874908447266
 11
156.1499938964844
 21
11.67874908447266
  0
LINE
  8
0
  6
CONTINUOUS
 62
     7
 10
70
 20
5.273483276367188
 11
290
 21
5.273483276367188
  0
LINE
  8
0
  6
CONTINUOUS
 62
     7
 10
203.8500061035156
 20
14.54010009765625
 11
290
 21
14.54010009765625
  0
LINE
  8
0
  6
CONTINUOUS
 62
     7
 10
203.8500061035156
 20
12.79273509979248
 11
290
 21
12.79273509979248
  0
LINE
  8
0
  6
CONTINUOUS
 62
     7
 10
203.8500061035156
 20
11.67874908447266
 11
290
 21
11.67874908447266
  0
CIRCLE
  8
0
  6
CONTINUOUS
 62
     7
 10
160.8999938964844
 20
25.19999694824219
 40
1.5
  0
CIRCLE
  8
0
  6
CONTINUOUS
 62
     7
 10
160.8999938964844
 20
26.09999084472656
 40
0.5
  0
ARC
  8
0
  6
CONTINUOUS
 62
     7
 10
152.9000854492188
 20
22.50006103515625
 40
3.999999999999998
 50
89.99998201391055
 51
118.4958044387708
  0
ARC
  8
0
  6
CONTINUOUS
 62
     7
 10
157.7999267578125
 20
26.09005737304688
 40
1.900939941406258
 50
181.8086700643981
 51
209.7770652815498
  0
ARC
  8
0
  6
CONTINUOUS
 62
     7
 10
159.2000732421875
 20
23.03005981445313
 40
3.317879676818847
 50
156.8212116453844
 51
173.9458482720621
  0
ARC
  8
0
  6
CONTINUOUS
 62
     7
 10
159.2000732421875
 20
21.97006225585938
 40
3.318496704101556
 50
186.054315652478
 51
203.2036639035728
  0
ARC
  8
0
  6
CONTINUOUS
 62
     7
 10
157.800048828125
 20
18.91006469726563
 40
1.896939277648924
 50
150.4422930738344
 51
178.1912206525752
  0
ARC
  8
0
  6
CONTINUOUS
 62
     7
 10
152.9000854492188
 20
22.50006103515625
 40
3.982465744018556
 50
241.5040862782025
 51
269.9999087030627
  0
ARC
  8
0
  6
CONTINUOUS
 62
     7
 10
-21.199951171875
 20
19.29290008544922
 40
0.4999999999999986
 50
9.601154686178962E-005
 51
45.00006955413088
  0
ARC
  8
0
  6
CONTINUOUS
 62
     7
 10
21.1849365234375
 20
20.29265594482422
 40
0.4999999999999991
 50
134.9999320397311
 51
179.9999093863078
  0
ARC
  8
0
  6
CONTINUOUS
 62
     7
 10
19
 20
8
 40
2
 50
270.000004325711
 51
359.9999776882003
  0
ARC
  8
0
  6
CONTINUOUS
 62
     7
 10
-19
 20
8
 40
2.000000000000001
 50
179.999991348578
 51
269.9999733624886
  0
ARC
  8
0
  6
CONTINUOUS
 62
     7
 10
7.85595703125
 20
7.666030883789063
 40
0.9999999999999991
 50
149.9999973439412
 51
239.9982854709376
  0
ARC
  8
0
  6
CONTINUOUS
 62
     7
 10
7.6500244140625
 20
16.68599700927734
 40
1.650000095367432
 50
225.9543546703465
 51
314.0456300754134
  0
ARC
  8
0
  6
CONTINUOUS
 62
     7
 10
10.655517578125
 20
11.47599792480469
 40
1.650000095367432
 50
127.0572962992199
 51
172.9427120490407
  0
ARC
  8
0
  6
CONTINUOUS
 62
     7
 10
-7.85595703125
 20
7.666030883789063
 40
1
 50
300.0016853870728
 51
29.99910266495022
  0
ARC
  8
0
  6
CONTINUOUS
 62
     7
 10
-7.6500244140625
 20
16.68599700927734
 40
1.650000095367431
 50
225.9543683307249
 51
314.0456300754134
  0
ARC
  8
0
  6
CONTINUOUS
 62
     7
 10
-10.655517578125
 20
11.47599792480469
 40
1.650000095367432
 50
7.057315158030487
 51
52.94269163426354
  0
ARC
  8
0
  6
CONTINUOUS
 62
     7
 10
10.655517578125
 20
11.47599792480469
 40
0.3500000834465032
 50
98.85901740517326
 51
201.1409841128981
  0
ARC
  8
0
  6
CONTINUOUS
 62
     7
 10
7.6500244140625
 20
17.22339630126953
 40
0.5373978614807115
 50
231.9897557077798
 51
308.0102426983584
  0
CIRCLE
  8
0
  6
CONTINUOUS
 62
     7
 10
-12.5
 20
23.79999542236328
 40
1.200000047683716
  0
ARC
  8
0
  6
CONTINUOUS
 62
     7
 10
-10.655517578125
 20
11.47599792480469
 40
0.350000083446502
 50
338.8312032431159
 51
81.16876598313748
  0
ARC
  8
0
  6
CONTINUOUS
 62
     7
 10
-7.6500244140625
 20
17.22339630126953
 40
0.5373978614807135
 50
231.9896327643749
 51
308.0103656417633
  0
ARC
  8
0
  6
CONTINUOUS
 62
     7
 10
7.610000610351563
 20
20.20999145507813
 40
0.9683421850204466
 50
215.3314570768741
 51
278.2972225067941
  0
ARC
  8
0
  6
CONTINUOUS
 62
     7
 10
6.620010375976563
 20
18.41999816894531
 40
1.246148109436035
 50
80.76452806729958
 51
142.1250351177266
  0
ARC
  8
0
  6
CONTINUOUS
 62
     7
 10
6.620010375976563
 20
26.58000183105469
 40
1.254199028015136
 50
217.8749648822735
 51
279.2353626496737
  0
ARC
  8
0
  6
CONTINUOUS
 62
     7
 10
7.610000610351563
 20
24.78999328613281
 40
0.9701611399650563
 50
81.7028867762326
 51
144.668542923126
  0
ARC
  8
0
  6
CONTINUOUS
 62
     7
 10
0
 20
22.5
 40
4
 50
240.0000239814524
 51
241.0449882829511
  0
ARC
  8
0
  6
CONTINUOUS
 62
     7
 10
0
 20
22.5
 40
3.998106002807619
 50
61.09402038976974
 51
298.9059076658729
  0
CIRCLE
  8
0
  6
CONTINUOUS
 62
     7
 10
180
 20
93
 40
2.5
  0
CIRCLE
  8
0
  6
CONTINUOUS
 62
     7
 10
180
 20
93
 40
2.150000095367432
  0
CIRCLE
  8
0
  6
CONTINUOUS
 62
     7
 10
90
 20
109
 40
3
  0
CIRCLE
  8
0
  6
CONTINUOUS
 62
     7
 10
90
 20
109
 40
4.75
  0
ARC
  8
0
  6
CONTINUOUS
 62
     7
 10
160.1497497558594
 20
111
 40
4.249771118164054
 50
160.248928419977
 51
199.7510679375573
  0
ARC
  8
0
  6
CONTINUOUS
 62
     7
 10
160.1498718261719
 20
107
 40
4.249885559082021
 50
160.2495021558672
 51
199.750494201667
  0
ARC
  8
0
  6
CONTINUOUS
 62
     7
 10
149.6333465576172
 20
101.0544738769531
 40
3.299999237060557
 50
131.5803705110075
 51
157.4999548639651
  0
ARC
  8
0
  6
CONTINUOUS
 62
     7
 10
149.6333465576172
 20
101.0544738769531
 40
3.29999923706055
 50
337.5000181569006
 51
3.419602296415186
  0
ARC
  8
0
  6
CONTINUOUS
 62
     7
 10
141.7169952392578
 20
103.9005737304688
 40
6.00000000000001
 50
2.43365082934552
 51
20.87173987704913
  0
ARC
  8
0
  6
CONTINUOUS
 62
     7
 10
157.2435302734375
 20
97.46926879882813
 40
6.000000000000011
 50
114.1278165022775
 51
132.5663219780771
  0
ARC
  8
0
  6
CONTINUOUS
 62
     7
 10
146.9122924804688
 20
104.1213684082031
 40
0.7999999523162822
 50
311.5798327472963
 51
2.433049772698627
  0
ARC
  8
0
  6
CONTINUOUS
 62
     7
 10
153.7260284423828
 20
101.2990264892578
 40
0.7999999523162747
 50
132.5669776762372
 51
183.4201402735702
  0
ARC
  8
0
  6
CONTINUOUS
 62
     7
 10
152.60009765625
 20
109
 40
3.999999999999998
 50
89.99998201391055
 51
180.0000186693347
  0
POLYLINE
  8
0
  6
CONTINUOUS
 62
     7
 66
     1
 10
0
 20
0
 70
     1
  0
VERTEX
  8
0
  6
CONTINUOUS
 62
     7
 10
148.6000366210938
 20
25.00006103515625
 42
0.1103792069011655
  0
VERTEX
  8
0
  6
CONTINUOUS
 62
     7
 10
147.6878835202527
 20
24.79504397983117
 42
0.1025079115437869
  0
VERTEX
  8
0
  6
CONTINUOUS
 62
     7
 10
146.9405572523643
 20
24.23103209572347
 42
0.09328970627921369
  0
VERTEX
  8
0
  6
CONTINUOUS
 62
     7
 10
146.4629633113476
 20
23.42413753531276
 42
0.08781808333509583
  0
VERTEX
  8
0
  6
CONTINUOUS
 62
     7
 10
146.3000793457031
 20
22.50004577636719
 42
0.08777216599341857
  0
VERTEX
  8
0
  6
CONTINUOUS
 62
     7
 10
146.4628052928801
 20
21.57643116546896
 42
0.09326016812896593
  0
VERTEX
  8
0
  6
CONTINUOUS
 62
     7
 10
146.9400993573985
 20
20.76962747453088
 42
0.1026304021237596
  0
VERTEX
  8
0
  6
CONTINUOUS
 62
     7
 10
147.688300897127
 20
20.20489527196633
 42
0.1103330629974726
  0
VERTEX
  8
0
  6
CONTINUOUS
 62
     7
 10
148.60009765625
 20
20.00006103515625
 42
0.1103791909465677
  0
VERTEX
  8
0
  6
CONTINUOUS
 62
     7
 10
149.5122508138286
 20
20.20507785388427
 42
0.1025079515030628
  0
VERTEX
  8
0
  6
CONTINUOUS
 62
     7
 10
150.2595771937318
 20
20.76908958155984
 42
0.09328976182267072
  0
VERTEX
  8
0
  6
CONTINUOUS
 62
     7
 10
150.737171135815
 20
21.5759841337653
 42
0.08781815429829071
  0
VERTEX
  8
0
  6
CONTINUOUS
 62
     7
 10
150.9000549316406
 20
22.50007629394531
 42
0.08777019070463729
  0
VERTEX
  8
0
  6
CONTINUOUS
 62
     7
 10
150.7373327282342
 20
23.42369184108316
 42
0.09326040932572406
  0
VERTEX
  8
0
  6
CONTINUOUS
 62
     7
 10
150.2600448535565
 20
24.23049924063247
 42
0.1026327075676655
  0
VERTEX
  8
0
  6
CONTINUOUS
 62
     7
 10
149.5118449035894
 20
24.79523303806501
 42
0.1103324991485005
  0
SEQEND
  8
0
  0
POLYLINE
  8
0
  6
CONTINUOUS
 62
     7
 66
     1
 10
0
 20
0
  0
VERTEX
  8
0
  6
CONTINUOUS
 62
     7
 10
147.4760048000009
 20
20.31894799099466
 42
0.06283199533745665
  0
VERTEX
  8
0
  6
CONTINUOUS
 62
     7
 10
148.0403036151726
 20
19.79277586747407
 42
0.06649698444599272
  0
VERTEX
  8
0
  6
CONTINUOUS
 62
     7
 10
148.7203039527171
 20
19.42827116233508
 42
0.06915551843242565
  0
VERTEX
  8
0
  6
CONTINUOUS
 62
     7
 10
149.4726585747076
 20
19.25941242665906
 42
0.06975294720069492
  0
VERTEX
  8
0
  6
CONTINUOUS
 62
     7
 10
150.2414134544449
 20
19.30341043579193
 42
0.06816347455688661
  0
VERTEX
  8
0
  6
CONTINUOUS
 62
     7
 10
150.9692568916858
 20
19.55523210426217
 42
0.06499586596220693
  0
VERTEX
  8
0
  6
CONTINUOUS
 62
     7
 10
151.60582258407
 20
19.99006353834339
 42
0.06129087960825562
  0
VERTEX
  8
0
  6
CONTINUOUS
 62
     7
 10
152.1138800912945
 20
20.57016451557925
 42
0.05807959718043922
  0
VERTEX
  8
0
  6
CONTINUOUS
 62
     7
 10
152.4708772513583
 20
21.25415844137022
 42
0.05590537556194814
  0
VERTEX
  8
0
  6
CONTINUOUS
 62
     7
 10
152.664536007706
 20
22.00130236762457
 42
0.05496367752774722
  0
VERTEX
  8
0
  6
CONTINUOUS
 62
     7
 10
152.6895509725799
 20
22.77202485807081
 42
0.05547385665483753
  0
VERTEX
  8
0
  6
CONTINUOUS
 62
     7
 10
152.5454721705276
 20
23.52991416989685
 42
0.05728037912838263
  0
VERTEX
  8
0
  6
CONTINUOUS
 62
     7
 10
152.2360628049088
 20
24.23635596055672
 42
0.06026825000606643
  0
VERTEX
  8
0
  6
CONTINUOUS
 62
     7
 10
151.7708241493249
 20
24.85166523030523
 42
0.06395239830586609
  0
VERTEX
  8
0
  6
CONTINUOUS
 62
     7
 10
151.16861800453
 20
25.33404411414341
 42
0.06744492301980731
  0
VERTEX
  8
0
  6
CONTINUOUS
 62
     7
 10
150.4619609062341
 20
25.64350646488813
 42
0.06944156007713802
  0
VERTEX
  8
0
  6
CONTINUOUS
 62
     7
 10
149.7000732421875
 20
25.75006103515625
 42
0
  0
SEQEND
  8
0
  0
POLYLINE
  8
0
  6
CONTINUOUS
 62
     7
 66
     1
 10
0
 20
0
  0
VERTEX
  8
0
  6
CONTINUOUS
 62
     7
 10
149.7000732421875
 20
25.75006103515625
 42
0.01434921821316583
  0
VERTEX
  8
0
  6
CONTINUOUS
 62
     7
 10
149.5411923606324
 20
25.74550004651429
 42
0.0142605611196061
  0
VERTEX
  8
0
  6
CONTINUOUS
 62
     7
 10
149.3835814759888
 20
25.73192471569655
 42
0.0141756778854731
  0
VERTEX
  8
0
  6
CONTINUOUS
 62
     7
 10
149.2274825868742
 20
25.70948207779337
 42
0.01415086978215672
  0
VERTEX
  8
0
  6
CONTINUOUS
 62
     7
 10
149.0725205879145
 20
25.67815885103594
 42
0.01410158156945099
  0
VERTEX
  8
0
  6
CONTINUOUS
 62
     7
 10
148.919258748565
 20
25.63805131725543
 42
0.01402957761491464
  0
VERTEX
  8
0
  6
CONTINUOUS
 62
     7
 10
148.7682420545849
 20
25.58930729800238
 42
0.0139369971180122
  0
VERTEX
  8
0
  6
CONTINUOUS
 62
     7
 10
148.6199917283399
 20
25.53212194134786
 42
0.01382627699820021
  0
VERTEX
  8
0
  6
CONTINUOUS
 62
     7
 10
148.4750006089765
 20
25.46673273169289
 42
0.01370006726207328
  0
VERTEX
  8
0
  6
CONTINUOUS
 62
     7
 10
148.3337295097968
 20
25.39341394011685
 42
0.01356114429879211
  0
VERTEX
  8
0
  6
CONTINUOUS
 62
     7
 10
148.1966046167923
 20
25.31247074947775
 42
0.01332237275996772
  0
VERTEX
  8
0
  6
CONTINUOUS
 62
     7
 10
148.0648947509616
 20
25.22485247173152
 42
0.0132878014964617
  0
VERTEX
  8
0
  6
CONTINUOUS
 62
     7
 10
147.9368739802266
 20
25.12948942749235
 42
0.01315486993357908
  0
VERTEX
  8
0
  6
CONTINUOUS
 62
     7
 10
147.813821751588
 20
25.0272841255603
 42
0.0129383350338402
  0
VERTEX
  8
0
  6
CONTINUOUS
 62
     7
 10
147.6967774878301
 20
24.91926979730063
 42
0.01278034265203695
  0
VERTEX
  8
0
  6
CONTINUOUS
 62
     7
 10
147.5854410805048
 20
24.80538082373256
 42
0.01262533131069754
  0
VERTEX
  8
0
  6
CONTINUOUS
 62
     7
 10
147.4800316492856
 20
24.6859837751676
 42
0
  0
SEQEND
  8
0
  0
POLYLINE
  8
0
  6
CONTINUOUS
 62
     7
 66
     1
 10
0
 20
0
  0
VERTEX
  8
0
  6
CONTINUOUS
 62
     7
 10
6.819992065429688
 20
25.3499755859375
 42
0.1885745464290924
  0
VERTEX
  8
0
  6
CONTINUOUS
 62
     7
 10
6.460261538522269
 20
25.19028703984911
 42
0.07574466113817051
  0
VERTEX
  8
0
  6
CONTINUOUS
 62
     7
 10
6.216026985965466
 20
24.87245062832676
 42
0.03933594534512958
  0
VERTEX
  8
0
  6
CONTINUOUS
 62
     7
 10
6.046165317503697
 20
24.50711706913912
 42
0.02577125752711498
  0
VERTEX
  8
0
  6
CONTINUOUS
 62
     7
 10
5.924010893244023
 20
24.12296641807139
 42
0.01950521772357141
  0
VERTEX
  8
0
  6
CONTINUOUS
 62
     7
 10
5.836520256462827
 20
23.72875464113595
 42
0.01621461060574423
  0
VERTEX
  8
0
  6
CONTINUOUS
 62
     7
 10
5.777160254708039
 20
23.32916366168362
 42
0.01446653763775834
  0
VERTEX
  8
0
  6
CONTINUOUS
 62
     7
 10
5.74229278684315
 20
22.92663897834303
 42
0.01369126526824787
  0
VERTEX
  8
0
  6
CONTINUOUS
 62
     7
 10
5.730044907543697
 20
22.5224948995088
 42
0.01360481565905948
  0
VERTEX
  8
0
  6
CONTINUOUS
 62
     7
 10
5.739761797781866
 20
22.11964974889296
 42
0.01431525852917508
  0
VERTEX
  8
0
  6
CONTINUOUS
 62
     7
 10
5.771912195952454
 20
21.71739843680845
 42
0.01598185402869716
  0
VERTEX
  8
0
  6
CONTINUOUS
 62
     7
 10
5.828423911626819
 20
21.31658057188146
 42
0.01902675483979401
  0
VERTEX
  8
0
  6
CONTINUOUS
 62
     7
 10
5.912486364333772
 20
20.92142739773306
 42
0.02487977718038427
  0
VERTEX
  8
0
  6
CONTINUOUS
 62
     7
 10
6.030502851315639
 20
20.5350316284218
 42
0.03729615370149705
  0
VERTEX
  8
0
  6
CONTINUOUS
 62
     7
 10
6.194578623268982
 20
20.16584860095529
 42
0.06998284816467812
  0
VERTEX
  8
0
  6
CONTINUOUS
 62
     7
 10
6.430164842897741
 20
19.83851861784649
 42
0.1738206340218296
  0
VERTEX
  8
0
  6
CONTINUOUS
 62
     7
 10
6.779932678960282
 20
19.6519216751302
 42
0
  0
SEQEND
  8
0
  0
POLYLINE
  8
0
  6
CONTINUOUS
 62
     7
 66
     1
 10
0
 20
0
 70
     1
  0
VERTEX
  8
0
  6
CONTINUOUS
 62
     7
 10
10.52000427246094
 20
25
 42
0.2551592727854082
  0
VERTEX
  8
0
  6
CONTINUOUS
 62
     7
 10
9.990194421972644
 20
24.57511190027379
 42
0.06319138472293086
  0
VERTEX
  8
0
  6
CONTINUOUS
 62
     7
 10
9.736099333476973
 20
23.9122252544633
 42
0.03518638918170088
  0
VERTEX
  8
0
  6
CONTINUOUS
 62
     7
 10
9.609369637790104
 20
23.21217549301894
 42
0.02798531261536286
  0
VERTEX
  8
0
  6
CONTINUOUS
 62
     7
 10
9.57000732421875
 20
22.5
 42
0.02789942790998758
  0
VERTEX
  8
0
  6
CONTINUOUS
 62
     7
 10
9.609140981222662
 20
21.789852439692
 42
0.03516017990499044
  0
VERTEX
  8
0
  6
CONTINUOUS
 62
     7
 10
9.735634869873794
 20
21.08956192317742
 42
0.06315573245377393
  0
VERTEX
  8
0
  6
CONTINUOUS
 62
     7
 10
9.989666863013213
 20
20.42582168183449
 42
0.2552844263599412
  0
VERTEX
  8
0
  6
CONTINUOUS
 62
     7
 10
10.52000427246094
 20
20
 42
0.2551594730477805
  0
VERTEX
  8
0
  6
CONTINUOUS
 62
     7
 10
11.04981459858741
 20
20.42488747333301
 42
0.06319156037849921
  0
VERTEX
  8
0
  6
CONTINUOUS
 62
     7
 10
11.30390981534024
 20
21.08777405749937
 42
0.03518647356580567
  0
VERTEX
  8
0
  6
CONTINUOUS
 62
     7
 10
11.4306393075316
 20
21.7878238524152
 42
0.02798539198552158
  0
VERTEX
  8
0
  6
CONTINUOUS
 62
     7
 10
11.47000122070313
 20
22.5
 42
0.02789946216537668
  0
VERTEX
  8
0
  6
CONTINUOUS
 62
     7
 10
11.4308677871041
 20
23.2101475710854
 42
0.03516022448293893
  0
VERTEX
  8
0
  6
CONTINUOUS
 62
     7
 10
11.3043740106433
 20
23.91043810603362
 42
0.06315580443698367
  0
VERTEX
  8
0
  6
CONTINUOUS
 62
     7
 10
11.05034197507806
 20
24.57417832508457
 42
0.2552843239603102
  0
SEQEND
  8
0
  0
TEXT
  8
0
  6
CONTINUOUS
 62
     7
 10
-11.28550004959106
 20
-31.79999995231628
 40
3.599999904632568
 41
0.9988017189174334
  1
SSR20XV
  0
ENDSEC
  0
EOF
