  0
SECTION
  2
HEADER
  0
ENDSEC
  0
SECTION
  2
TABLES
  0
TABLE
  2
LTYPE
 70
    22
  0
LTYPE
  2
CONTINUOUS
 70
    64
  3
Solid line
 72
    65
 73
     0
 40
0.000000
  0
LTYPE
  2
DASHED
 70
    64
  3
__ __ __ __ __ __ __ __ __ __ __ __ __ __ __
 72
    65
 73
     2
 40
3.500000
 49
2.000000
 49
-1.500000
  0
LTYPE
  2
CENTER
 70
    64
  3
____ _ ____ _ ____ _ ____ _ ____ _ ____ _ ____
 72
    65
 73
     4
 40
17.500000
 49
13.000000
 49
-1.500000
 49
1.500000
 49
-1.500000
  0
LTYPE
  2
PHANTOM
 70
    64
  3
_____ _ _ _____ _ _ _____ _ _ _____ _ _ ____  
 72
    65
 73
     6
 40
15.500000
 49
8.000000
 49
-1.500000
 49
1.500000
 49
-1.500000
 49
1.500000
 49
-1.500000
  0
LTYPE
  2
DOT
 70
    64
  3
. . . . . . . . . . . . . . . . . . . . . . . .
 72
    65
 73
     2
 40
0.25
 49
0.0
 49
-0.25
  0
ENDTAB
  0
TABLE
  2
LAYER
 70
     1
  0
LAYER
  2
0
 70
     0
 62
     7
  6
CONTINUOUS
  0
ENDTAB
  0
TABLE
  2
STYLE
 70
     1
  0
STYLE
  2
STANDARD
 70
     0
 40
0.000000
 41
1.000000
 50
0.000000
 71
     0
 42
0.200000
  3
txt
  0
ENDTAB
  0
TABLE
  2
VIEW
 70
     0
  0
ENDTAB
  0
ENDSEC
  0
SECTION
  2
BLOCKS
  0
ENDSEC
  0
SECTION
  2
ENTITIES
  0
LINE
  8
0
  6
CONTINUOUS
 62
     7
 10
101.1501235961914
 20
20
 11
128.6496429443359
 21
20
  0
LINE
  8
0
  6
CONTINUOUS
 62
     7
 10
91.34999847412109
 20
12.00002956390381
 11
91.34999847412109
 21
3.370003700256348
  0
LINE
  8
0
  6
CONTINUOUS
 62
     7
 10
92.95009613037109
 20
19.39999389648438
 11
92.95009613037109
 21
3.370003700256348
  0
LINE
  8
0
  6
CONTINUOUS
 62
     7
 10
93.75005340576172
 20
19.49998474121094
 11
93.75005340576172
 21
3.200011253356934
  0
LINE
  8
0
  6
CONTINUOUS
 62
     7
 10
92.95009613037109
 20
19.39999389648438
 11
93.75005340576172
 21
19.39999389648438
  0
LINE
  8
0
  6
CONTINUOUS
 62
     7
 10
91.35030364990234
 20
11.99945259094238
 11
92.95030212402344
 21
13.59945678710938
  0
LINE
  8
0
  6
CONTINUOUS
 62
     7
 10
91.34999847412109
 20
3.370003700256348
 11
93.75005340576172
 21
3.370003700256348
  0
LINE
  8
0
  6
CONTINUOUS
 62
     7
 10
43.65000152587891
 20
11.50000953674316
 11
91.34999847412109
 21
11.50000953674316
  0
LINE
  8
0
  6
CONTINUOUS
 62
     7
 10
43.65000152587891
 20
9.289397239685059
 11
91.34999847412109
 21
9.289397239685059
  0
LINE
  8
0
  6
CONTINUOUS
 62
     7
 10
43.65000152587891
 20
7.379393577575684
 11
91.34999847412109
 21
7.379393577575684
  0
LINE
  8
0
  6
CONTINUOUS
 62
     7
 10
43.65000152587891
 20
6.310016632080078
 11
91.34999847412109
 21
6.310016632080078
  0
LINE
  8
0
  6
CONTINUOUS
 62
     7
 10
43.65000152587891
 20
4.240009307861328
 11
91.34999847412109
 21
4.240009307861328
  0
LINE
  8
0
  6
CONTINUOUS
 62
     7
 10
43.65000152587891
 20
-1.095143488782924E-005
 11
203.6498565673828
 21
-1.095143488782924E-005
  0
LINE
  8
0
  6
CONTINUOUS
 62
     7
 10
43.65000152587891
 20
11.50000953674316
 11
43.65000152587891
 21
1.956614141818136E-005
  0
LINE
  8
0
  6
CONTINUOUS
 62
     7
 10
93.75005340576172
 20
19.49998474121094
 11
101.1501235961914
 21
19.49998474121094
  0
LINE
  8
0
  6
CONTINUOUS
 62
     7
 10
93.75005340576172
 20
3.800017356872559
 11
136.0496368408203
 21
3.800017356872559
  0
LINE
  8
0
  6
CONTINUOUS
 62
     7
 10
101.1501235961914
 20
20
 11
101.1501235961914
 21
3.800017356872559
  0
LINE
  8
0
  6
CONTINUOUS
 62
     7
 10
93.75005340576172
 20
3.200011253356934
 11
136.0496368408203
 21
3.200011253356934
  0
LINE
  8
0
  6
CONTINUOUS
 62
     7
 10
101.1501235961914
 20
11.75000953674316
 11
128.6496429443359
 21
11.75000953674316
  0
LINE
  8
0
  6
CONTINUOUS
 62
     7
 10
91.65016937255859
 20
64.75
 11
91.65016937255859
 21
69.24998474121094
  0
LINE
  8
0
  6
CONTINUOUS
 62
     7
 10
91.65016937255859
 20
68.74998474121094
 11
89.65016937255859
 21
68.74998474121094
  0
LINE
  8
0
  6
CONTINUOUS
 62
     7
 10
91.65016937255859
 20
65.25
 11
89.65016937255859
 21
65.25
  0
LINE
  8
0
  6
CONTINUOUS
 62
     7
 10
92.95012664794922
 20
69.24998474121094
 11
91.65016937255859
 21
69.24998474121094
  0
LINE
  8
0
  6
CONTINUOUS
 62
     7
 10
92.95009613037109
 20
64.75
 11
91.65016937255859
 21
64.75
  0
LINE
  8
0
  6
CONTINUOUS
 62
     7
 10
88.15016937255859
 20
66.09860229492188
 11
88.15016937255859
 21
67.9013671875
  0
LINE
  8
0
  6
CONTINUOUS
 62
     7
 10
138.4496154785156
 20
3.370003700256348
 11
138.4496154785156
 21
12.00002956390381
  0
LINE
  8
0
  6
CONTINUOUS
 62
     7
 10
136.8496246337891
 20
3.370003700256348
 11
136.8496246337891
 21
19.39999389648438
  0
LINE
  8
0
  6
CONTINUOUS
 62
     7
 10
136.0496368408203
 20
3.200011253356934
 11
136.0496368408203
 21
19.49998474121094
  0
LINE
  8
0
  6
CONTINUOUS
 62
     7
 10
136.0496368408203
 20
19.39999389648438
 11
136.8496246337891
 21
19.39999389648438
  0
LINE
  8
0
  6
CONTINUOUS
 62
     7
 10
136.8502197265625
 20
13.59940624237061
 11
138.4501800537109
 21
11.99943447113037
  0
LINE
  8
0
  6
CONTINUOUS
 62
     7
 10
136.0496368408203
 20
3.370003700256348
 11
138.4496154785156
 21
3.370003700256348
  0
LINE
  8
0
  6
CONTINUOUS
 62
     7
 10
138.4496154785156
 20
11.49997901916504
 11
203.6498565673828
 21
11.49997901916504
  0
LINE
  8
0
  6
CONTINUOUS
 62
     7
 10
138.4496154785156
 20
9.289366722106934
 11
203.6498565673828
 21
9.289366722106934
  0
LINE
  8
0
  6
CONTINUOUS
 62
     7
 10
138.4496154785156
 20
7.379363059997559
 11
203.6498565673828
 21
7.379363059997559
  0
LINE
  8
0
  6
CONTINUOUS
 62
     7
 10
138.4496154785156
 20
6.309986114501953
 11
203.6498565673828
 21
6.309986114501953
  0
LINE
  8
0
  6
CONTINUOUS
 62
     7
 10
138.4496154785156
 20
4.239978790283203
 11
203.6498565673828
 21
4.239978790283203
  0
LINE
  8
0
  6
CONTINUOUS
 62
     7
 10
128.6496429443359
 20
19.49998474121094
 11
136.0496368408203
 21
19.49998474121094
  0
LINE
  8
0
  6
CONTINUOUS
 62
     7
 10
128.6496429443359
 20
3.800017356872559
 11
128.6496429443359
 21
20
  0
LINE
  8
0
  6
CONTINUOUS
 62
     7
 10
43.65000152587891
 20
2.796639442443848
 11
104.1932907104492
 21
2.796639442443848
  0
LINE
  8
0
  6
DASHED
 62
     7
 10
112.9002227783203
 20
12.99996852874756
 11
116.9002227783203
 21
12.99996852874756
  0
LINE
  8
0
  6
CENTER
 62
     7
 10
114.9002227783203
 20
20.81303405761719
 11
114.9002227783203
 21
9.259551048278809
  0
LINE
  8
0
  6
DASHED
 62
     7
 10
116.9002227783203
 20
20
 11
116.9002227783203
 21
12.99997901916504
  0
LINE
  8
0
  6
DASHED
 62
     7
 10
112.9002227783203
 20
20
 11
112.9002227783203
 21
12.99952983856201
  0
LINE
  8
0
  6
DASHED
 62
     7
 10
116.5213165283203
 20
20
 11
116.5213165283203
 21
10.99997901916504
  0
LINE
  8
0
  6
DASHED
 62
     7
 10
113.279296875
 20
20
 11
113.279296875
 21
10.99997901916504
  0
LINE
  8
0
  6
DASHED
 62
     7
 10
113.279296875
 20
10.99997901916504
 11
116.5213165283203
 21
10.99997901916504
  0
LINE
  8
0
  6
DASHED
 62
     7
 10
113.2794494628906
 20
10.99965190887451
 11
114.9004364013672
 21
10.06377792358398
  0
LINE
  8
0
  6
DASHED
 62
     7
 10
114.9001541137695
 20
10.06375217437744
 11
116.5211563110352
 21
10.9996337890625
  0
LINE
  8
0
  6
DASHED
 62
     7
 10
116.9004745483398
 20
12.99962329864502
 11
116.5214767456055
 21
12.34317970275879
  0
LINE
  8
0
  6
DASHED
 62
     7
 10
112.9001388549805
 20
12.999680519104
 11
113.2792053222656
 21
12.34311771392822
  0
LINE
  8
0
  6
CONTINUOUS
 62
     7
 10
203.6498565673828
 20
-1.095143488782924E-005
 11
203.6498565673828
 21
11.49997901916504
  0
LINE
  8
0
  6
CENTER
 62
     7
 10
63.65015411376953
 20
13.25000953674316
 11
63.65015411376953
 21
-1.749990463256836
  0
LINE
  8
0
  6
DASHED
 62
     7
 10
61.40032196044922
 20
6.200000762939453
 11
61.40032196044922
 21
-1.095143488782924E-005
  0
LINE
  8
0
  6
DASHED
 62
     7
 10
65.90032196044922
 20
6.200000762939453
 11
65.90032196044922
 21
-1.095143488782924E-005
  0
LINE
  8
0
  6
DASHED
 62
     7
 10
59.90032196044922
 20
11.50000953674316
 11
59.90032196044922
 21
6.200000762939453
  0
LINE
  8
0
  6
DASHED
 62
     7
 10
67.40032196044922
 20
11.50000953674316
 11
67.40032196044922
 21
6.200000762939453
  0
LINE
  8
0
  6
DASHED
 62
     7
 10
59.90032196044922
 20
6.200000762939453
 11
67.40032196044922
 21
6.200000762939453
  0
LINE
  8
0
  6
CONTINUOUS
 62
     7
 10
59.90032196044922
 20
11.35000514984131
 11
59.90048980712891
 21
11.35000514984131
  0
LINE
  8
0
  6
CONTINUOUS
 62
     7
 10
43.65000152587891
 20
77.5
 11
43.65000152587891
 21
62.5
  0
LINE
  8
0
  6
CONTINUOUS
 62
     7
 10
43.65000152587891
 20
77.5
 11
91.34999847412109
 21
77.5
  0
LINE
  8
0
  6
CONTINUOUS
 62
     7
 10
43.65000152587891
 20
62.5
 11
91.34999847412109
 21
62.5
  0
LINE
  8
0
  6
CONTINUOUS
 62
     7
 10
92.95009613037109
 20
84
 11
92.95009613037109
 21
53
  0
LINE
  8
0
  6
CONTINUOUS
 62
     7
 10
101.1501235961914
 20
52.5
 11
128.6496429443359
 21
52.5
  0
LINE
  8
0
  6
CONTINUOUS
 62
     7
 10
101.1501235961914
 20
84.5
 11
128.6496429443359
 21
84.5
  0
LINE
  8
0
  6
CONTINUOUS
 62
     7
 10
101.1501235961914
 20
75.59991455078125
 11
128.6496429443359
 21
75.59991455078125
  0
LINE
  8
0
  6
CONTINUOUS
 62
     7
 10
101.1501235961914
 20
69.39988708496094
 11
128.6496429443359
 21
69.39988708496094
  0
LINE
  8
0
  6
CONTINUOUS
 62
     7
 10
101.1501235961914
 20
61.59996032714844
 11
128.6496429443359
 21
61.59996032714844
  0
LINE
  8
0
  6
CONTINUOUS
 62
     7
 10
101.1501235961914
 20
80.39999389648438
 11
128.6496429443359
 21
80.39999389648438
  0
LINE
  8
0
  6
CONTINUOUS
 62
     7
 10
138.4497222900391
 20
77.5
 11
203.6498565673828
 21
77.5
  0
LINE
  8
0
  6
CONTINUOUS
 62
     7
 10
138.4497222900391
 20
62.5
 11
203.6498565673828
 21
62.5
  0
LINE
  8
0
  6
CONTINUOUS
 62
     7
 10
203.6498565673828
 20
77.5
 11
203.6498565673828
 21
62.5
  0
LINE
  8
0
  6
CENTER
 62
     7
 10
41.65000152587891
 20
70
 11
205.6498565673828
 21
70
  0
LINE
  8
0
  6
CONTINUOUS
 62
     7
 10
93.75005340576172
 20
84.14990234375
 11
101.1501235961914
 21
84.14990234375
  0
LINE
  8
0
  6
CONTINUOUS
 62
     7
 10
92.95009613037109
 20
84
 11
93.75005340576172
 21
84
  0
LINE
  8
0
  6
CONTINUOUS
 62
     7
 10
93.75005340576172
 20
52.84992980957031
 11
101.1501235961914
 21
52.84992980957031
  0
LINE
  8
0
  6
CONTINUOUS
 62
     7
 10
136.8496246337891
 20
84
 11
136.8496246337891
 21
53
  0
LINE
  8
0
  6
CONTINUOUS
 62
     7
 10
136.8496246337891
 20
53
 11
135.9934387207031
 21
53
  0
LINE
  8
0
  6
CONTINUOUS
 62
     7
 10
136.0497131347656
 20
52.84992980957031
 11
128.6496429443359
 21
52.84992980957031
  0
LINE
  8
0
  6
CONTINUOUS
 62
     7
 10
136.0497131347656
 20
84.14990234375
 11
128.6496429443359
 21
84.14990234375
  0
LINE
  8
0
  6
CONTINUOUS
 62
     7
 10
136.8496246337891
 20
84
 11
135.9935150146484
 21
84
  0
LINE
  8
0
  6
CONTINUOUS
 62
     7
 10
43.65000152587891
 20
74.999755859375
 11
91.34999847412109
 21
74.999755859375
  0
LINE
  8
0
  6
CONTINUOUS
 62
     7
 10
138.4497222900391
 20
74.999755859375
 11
203.6498565673828
 21
74.999755859375
  0
LINE
  8
0
  6
CENTER
 62
     7
 10
114.9002227783203
 20
60.5
 11
114.9002227783203
 21
54.5
  0
LINE
  8
0
  6
CENTER
 62
     7
 10
111.9002227783203
 20
57.5
 11
117.9002227783203
 21
57.5
  0
LINE
  8
0
  6
CENTER
 62
     7
 10
114.9002227783203
 20
75.5
 11
114.9002227783203
 21
69.5
  0
LINE
  8
0
  6
CENTER
 62
     7
 10
111.9002227783203
 20
72.5
 11
117.9002227783203
 21
72.5
  0
LINE
  8
0
  6
CONTINUOUS
 62
     7
 10
91.34999847412109
 20
77.99995422363281
 11
91.34999847412109
 21
68.74998474121094
  0
LINE
  8
0
  6
CONTINUOUS
 62
     7
 10
91.34999847412109
 20
77.99996185302734
 11
92.95008850097656
 21
79.59984588623047
  0
LINE
  8
0
  6
CONTINUOUS
 62
     7
 10
91.34998321533203
 20
61.99994277954102
 11
92.95008850097656
 21
60.39998245239258
  0
LINE
  8
0
  6
CONTINUOUS
 62
     7
 10
91.65012359619141
 20
17.24998474121094
 11
89.65012359619141
 21
17.24998474121094
  0
LINE
  8
0
  6
CONTINUOUS
 62
     7
 10
91.65012359619141
 20
13.74999904632568
 11
89.65012359619141
 21
13.74999904632568
  0
LINE
  8
0
  6
CONTINUOUS
 62
     7
 10
88.15012359619141
 20
14.59860134124756
 11
88.15012359619141
 21
16.4013671875
  0
LINE
  8
0
  6
CONTINUOUS
 62
     7
 10
92.60085296630859
 20
13.24999904632568
 11
91.65012359619141
 21
13.24999904632568
  0
LINE
  8
0
  6
CONTINUOUS
 62
     7
 10
92.95009613037109
 20
17.74998474121094
 11
91.65012359619141
 21
17.74998474121094
  0
LINE
  8
0
  6
CONTINUOUS
 62
     7
 10
91.65012359619141
 20
13.24999904632568
 11
91.65012359619141
 21
17.74998474121094
  0
LINE
  8
0
  6
CONTINUOUS
 62
     7
 10
91.34999847412109
 20
65.25
 11
91.34999847412109
 21
61.99993896484375
  0
LINE
  8
0
  6
CONTINUOUS
 62
     7
 10
138.4497375488281
 20
61.99994659423828
 11
136.8496246337891
 21
60.39998626708984
  0
LINE
  8
0
  6
CONTINUOUS
 62
     7
 10
138.4497222900391
 20
77.99995422363281
 11
138.4497222900391
 21
61.99993896484375
  0
LINE
  8
0
  6
CONTINUOUS
 62
     7
 10
138.4497375488281
 20
77.99996185302734
 11
136.8496246337891
 21
79.59986114501953
  0
LINE
  8
0
  6
CONTINUOUS
 62
     7
 10
101.1501235961914
 20
84.5
 11
101.1501235961914
 21
52.5
  0
LINE
  8
0
  6
CONTINUOUS
 62
     7
 10
128.6496429443359
 20
84.5
 11
128.6496429443359
 21
52.5
  0
LINE
  8
0
  6
CENTER
 62
     7
 10
63.65015411376953
 20
74.75
 11
63.65015411376953
 21
65.25
  0
LINE
  8
0
  6
CENTER
 62
     7
 10
183.650146484375
 20
74.75
 11
183.650146484375
 21
65.25
  0
LINE
  8
0
  6
CONTINUOUS
 62
     7
 10
93.75005340576172
 20
84.14990234375
 11
93.75005340576172
 21
52.84992980957031
  0
LINE
  8
0
  6
CONTINUOUS
 62
     7
 10
-6.699869155883789
 20
0
 11
-2.5
 21
0
  0
LINE
  8
0
  6
CONTINUOUS
 62
     7
 10
-7.5
 20
9.581675529479981
 11
-7.5
 21
0.7999979853630066
  0
LINE
  8
0
  6
CONTINUOUS
 62
     7
 10
7.5
 20
10.93999195098877
 11
7.5
 21
9.289256095886231
  0
LINE
  8
0
  6
CONTINUOUS
 62
     7
 10
-4.999836921691895
 20
11.5
 11
6.940103530883789
 21
11.5
  0
LINE
  8
0
  6
CONTINUOUS
 62
     7
 10
5
 20
6.30999755859375
 11
5
 21
4.239990234375
  0
LINE
  8
0
  6
CONTINUOUS
 62
     7
 10
7.5
 20
2.79662036895752
 11
7.5
 21
0.7999979853630066
  0
LINE
  8
0
  6
CONTINUOUS
 62
     7
 10
-7.499898910522461
 20
9.581576347351074
 11
-7.254642963409424
 21
9.769767761230469
  0
LINE
  8
0
  6
CONTINUOUS
 62
     7
 10
6.940013408660889
 20
11.49998950958252
 11
7.500036239624023
 21
10.93996620178223
  0
LINE
  8
0
  6
CONTINUOUS
 62
     7
 10
5.000067710876465
 20
6.309952259063721
 11
5.858476638793945
 21
7.332964420318604
  0
LINE
  8
0
  6
CONTINUOUS
 62
     7
 10
-7.499881267547607
 20
0.7998982667922974
 11
-6.699896812438965
 21
-8.47656701807864E-005
  0
LINE
  8
0
  6
CONTINUOUS
 62
     7
 10
7.500109672546387
 20
0.7998989820480347
 11
6.700110912322998
 21
-9.892715752357617E-005
  0
LINE
  8
0
  6
CONTINUOUS
 62
     7
 10
2.5
 20
0
 11
6.700032234191895
 21
0
  0
LINE
  8
0
  6
CONTINUOUS
 62
     7
 10
-2.499938726425171
 20
-5.46223163837567E-005
 11
-1.999934673309326
 21
0.4999492764472961
  0
LINE
  8
0
  6
CONTINUOUS
 62
     7
 10
2.000076293945313
 20
0.4999276995658875
 11
2.500022888183594
 21
-1.888178849185351E-005
  0
LINE
  8
0
  6
CONTINUOUS
 62
     7
 10
-2
 20
0.5
 11
2
 21
0.5
  0
LINE
  8
0
  6
CONTINUOUS
 62
     7
 10
-5.358182430267334
 20
11.22497272491455
 11
-4.999904632568359
 21
11.4998893737793
  0
LINE
  8
0
  6
CONTINUOUS
 62
     7
 10
7.37945032119751
 20
9.145589828491211
 11
7.5
 21
9.289255142211914
  0
LINE
  8
0
  6
CONTINUOUS
 62
     7
 10
-13.89990234375
 20
20
 11
-10.39990234375
 21
20
  0
LINE
  8
0
  6
CONTINUOUS
 62
     7
 10
-14.5
 20
19.39999389648438
 11
-14.5
 21
13.75
  0
LINE
  8
0
  6
CONTINUOUS
 62
     7
 10
17.5
 20
19.39999389648438
 11
17.5
 21
11.75
  0
LINE
  8
0
  6
CONTINUOUS
 62
     7
 10
17.25
 20
11.5
 11
17.25
 21
4.599995613098145
  0
LINE
  8
0
  6
CONTINUOUS
 62
     7
 10
-14.25
 20
13.5
 11
-14.25
 21
10.08999633789063
  0
LINE
  8
0
  6
CONTINUOUS
 62
     7
 10
-10
 20
19.5999755859375
 11
-6
 21
19.5999755859375
  0
LINE
  8
0
  6
CONTINUOUS
 62
     7
 10
1
 20
19.5999755859375
 11
8
 21
19.5999755859375
  0
LINE
  8
0
  6
CONTINUOUS
 62
     7
 10
8.000000953674316
 20
19.59997177124023
 11
8.400014877319336
 21
19.99998664855957
  0
LINE
  8
0
  6
CONTINUOUS
 62
     7
 10
-5.9999098777771
 20
19.59993171691895
 11
-5.59990406036377
 21
19.99993705749512
  0
LINE
  8
0
  6
CONTINUOUS
 62
     7
 10
0.6001131534576416
 20
19.9998950958252
 11
1.000046968460083
 21
19.59996032714844
  0
LINE
  8
0
  6
CONTINUOUS
 62
     7
 10
-10.39998912811279
 20
19.99999237060547
 11
-9.999943733215332
 21
19.59994697570801
  0
LINE
  8
0
  6
CONTINUOUS
 62
     7
 10
-5.599934577941895
 20
20
 11
0.60009765625
 21
20
  0
LINE
  8
0
  6
CONTINUOUS
 62
     7
 10
8.400065422058106
 20
20
 11
16.90005493164063
 21
20
  0
LINE
  8
0
  6
CONTINUOUS
 62
     7
 10
17.25007438659668
 20
11.49991893768311
 11
17.50006866455078
 21
11.74991416931152
  0
LINE
  8
0
  6
CONTINUOUS
 62
     7
 10
-14.49994468688965
 20
13.74995136260986
 11
-14.24997138977051
 21
13.49997806549072
  0
LINE
  8
0
  6
CONTINUOUS
 62
     7
 10
-13.89996528625488
 20
19.99998474121094
 11
-14.49996566772461
 21
19.39998054504395
  0
LINE
  8
0
  6
CONTINUOUS
 62
     7
 10
16.90008926391602
 20
19.9998893737793
 11
17.50004768371582
 21
19.39993095397949
  0
LINE
  8
0
  6
CONTINUOUS
 62
     7
 10
16.02000427246094
 20
3.369985103607178
 11
17.25002098083496
 21
4.600003719329834
  0
LINE
  8
0
  6
CONTINUOUS
 62
     7
 10
-14.24989795684815
 20
10.08990859985352
 11
-12.95997333526611
 21
8.79998779296875
  0
LINE
  8
0
  6
CENTER
 62
     7
 10
0
 20
20.87225341796875
 11
0
 21
-0.9647013545036316
  0
LINE
  8
0
  6
CONTINUOUS
 62
     7
 10
-13.19987010955811
 20
19.39999389648438
 11
16.19999694824219
 21
19.39999389648438
  0
LINE
  8
0
  6
CONTINUOUS
 62
     7
 10
-14
 20
18.5999755859375
 11
-14
 21
9.840011596679688
  0
LINE
  8
0
  6
CONTINUOUS
 62
     7
 10
-12.95997333526611
 20
8.79998779296875
 11
-7.5
 21
8.79998779296875
  0
LINE
  8
0
  6
CONTINUOUS
 62
     7
 10
6.506998062133789
 20
3.36998462677002
 11
16.01998901367188
 21
3.36998462677002
  0
LINE
  8
0
  6
CONTINUOUS
 62
     7
 10
-13.99988842010498
 20
18.59989738464356
 11
-13.199875831604
 21
19.3998966217041
  0
LINE
  8
0
  6
CONTINUOUS
 62
     7
 10
17
 20
18.59999084472656
 11
17
 21
4.349982261657715
  0
LINE
  8
0
  6
CONTINUOUS
 62
     7
 10
-3.634518623352051
 20
13.59999561309815
 11
1.375325202941895
 21
13.59999561309815
  0
LINE
  8
0
  6
CONTINUOUS
 62
     7
 10
7.809906005859375
 20
13.59995365142822
 11
9.313733100891113
 21
12.0961275100708
  0
LINE
  8
0
  6
CONTINUOUS
 62
     7
 10
9.60009765625
 20
10.4470100402832
 11
9.60009765625
 21
8.525044441223145
  0
LINE
  8
0
  6
CONTINUOUS
 62
     7
 10
7.100014686584473
 20
5.545653343200684
 11
9.60009765625
 21
8.52513599395752
  0
LINE
  8
0
  6
CONTINUOUS
 62
     7
 10
7.10009765625
 20
5.545654296875
 11
7.10009765625
 21
5.452432632446289
  0
LINE
  8
0
  6
CONTINUOUS
 62
     7
 10
7.100019931793213
 20
5.452436923980713
 11
10.7069091796875
 21
3.369998455047607
  0
LINE
  8
0
  6
CONTINUOUS
 62
     7
 10
-9.599964141845703
 20
10.61725425720215
 11
-6.346251487731934
 21
13.11391639709473
  0
LINE
  8
0
  6
CONTINUOUS
 62
     7
 10
-9.599934577941895
 20
10.61727905273438
 11
-9.599934577941895
 21
8.79998779296875
  0
LINE
  8
0
  6
CONTINUOUS
 62
     7
 10
8.597493171691895
 20
3.199991226196289
 11
15.2000322341919
 21
3.199991226196289
  0
LINE
  8
0
  6
CONTINUOUS
 62
     7
 10
15.2000322341919
 20
3.36998462677002
 11
15.2000322341919
 21
3.199991226196289
  0
LINE
  8
0
  6
CONTINUOUS
 62
     7
 10
8.142251968383789
 20
3.369940042495728
 11
8.297442436218262
 21
3.280340433120728
  0
LINE
  8
0
  6
CONTINUOUS
 62
     7
 10
4.624836921691895
 20
13.59999561309815
 11
7.809895515441895
 21
13.59999561309815
  0
LINE
  8
0
  6
CENTER
 62
     7
 10
-2.5
 20
20.7764892578125
 11
-2.5
 21
11.30851268768311
  0
LINE
  8
0
  6
CONTINUOUS
 62
     7
 10
5.000045776367188
 20
4.239979267120361
 11
7.500017642974854
 21
2.796619892120361
  0
LINE
  8
0
  6
DASHED
 62
     7
 10
-2.25
 20
6.199991226196289
 11
-2.25
 21
0.2498841285705566
  0
LINE
  8
0
  6
DASHED
 62
     7
 10
2.25
 20
6.199991226196289
 11
2.25
 21
0.2500043511390686
  0
LINE
  8
0
  6
DASHED
 62
     7
 10
-3.75
 20
11.5
 11
-3.75
 21
6.199991226196289
  0
LINE
  8
0
  6
DASHED
 62
     7
 10
3.75
 20
11.5
 11
3.75
 21
6.199991226196289
  0
LINE
  8
0
  6
DASHED
 62
     7
 10
-3.75
 20
6.199991226196289
 11
3.75
 21
6.199991226196289
  0
LINE
  8
0
  6
CONTINUOUS
 62
     7
 10
-3.75
 20
11.34999561309815
 11
-3.749836921691895
 21
11.34999561309815
  0
LINE
  8
0
  6
CENTER
 62
     7
 10
12.5
 20
20.81304931640625
 11
12.5
 21
8.117893218994141
  0
LINE
  8
0
  6
CONTINUOUS
 62
     7
 10
16.19999504089356
 20
19.39998817443848
 11
16.9999942779541
 21
18.5999870300293
  0
LINE
  8
0
  6
CONTINUOUS
 62
     7
 10
136.0497131347656
 20
84.14990234375
 11
136.0497131347656
 21
52.84992980957031
  0
LINE
  8
0
  6
CONTINUOUS
 62
     7
 10
92.95009613037109
 20
53
 11
93.75005340576172
 21
53
  0
LINE
  8
0
  6
CENTER
 62
     7
 10
123.6501541137695
 20
13.25000953674316
 11
123.6501541137695
 21
-1.749990463256836
  0
LINE
  8
0
  6
CENTER
 62
     7
 10
183.650146484375
 20
13.25000953674316
 11
183.650146484375
 21
-1.749990463256836
  0
LINE
  8
0
  6
CENTER
 62
     7
 10
123.6501541137695
 20
74.75
 11
123.6501541137695
 21
65.25
  0
LINE
  8
0
  6
CONTINUOUS
 62
     7
 10
9.950032234191895
 20
2.5
 11
12.4500322341919
 21
2.5
  0
LINE
  8
0
  6
CONTINUOUS
 62
     7
 10
12.9500322341919
 20
3.199991226196289
 11
12.9500322341919
 21
3.199991226196289
  0
LINE
  8
0
  6
CONTINUOUS
 62
     7
 10
9.450032234191895
 20
3.199991226196289
 11
9.450032234191895
 21
3.199991226196289
  0
LINE
  8
0
  6
CONTINUOUS
 62
     7
 10
-9.950032234191895
 20
8
 11
-12.4500322341919
 21
8
  0
LINE
  8
0
  6
CONTINUOUS
 62
     7
 10
104.6500549316406
 20
2.500020027160645
 11
107.1500549316406
 21
2.500020027160645
  0
LINE
  8
0
  6
CONTINUOUS
 62
     7
 10
122.6500549316406
 20
2.500020027160645
 11
125.1500549316406
 21
2.500020027160645
  0
LINE
  8
0
  6
CONTINUOUS
 62
     7
 10
107.606819152832
 20
2.796639442443848
 11
122.1932907104492
 21
2.796639442443848
  0
LINE
  8
0
  6
CONTINUOUS
 62
     7
 10
125.606819152832
 20
2.796639442443848
 11
203.6498565673828
 21
2.796639442443848
  0
LINE
  8
0
  6
CENTER
 62
     7
 10
3
 20
18.99998092651367
 11
3
 21
11.99997997283936
  0
LINE
  8
0
  6
CENTER
 62
     7
 10
-0.5
 20
15.49997997283936
 11
6.5
 21
15.49997997283936
  0
LINE
  8
0
  6
CENTER
 62
     7
 10
93.5081787109375
 20
15.49999237060547
 11
87.29027557373047
 21
15.49999237060547
  0
LINE
  8
0
  6
CENTER
 62
     7
 10
93.50822448730469
 20
67
 11
87.29032135009766
 21
67
  0
LINE
  8
0
  6
CONTINUOUS
 62
     7
 10
-12.9500322341919
 20
8.79998779296875
 11
-12.9500322341919
 21
8.5
  0
LINE
  8
0
  6
CONTINUOUS
 62
     7
 10
-9.450032234191895
 20
8.79998779296875
 11
-9.450032234191895
 21
8.5
  0
LINE
  8
0
  6
CONTINUOUS
 62
     7
 10
9.450032234191895
 20
3.199991226196289
 11
9.450032234191895
 21
3
  0
LINE
  8
0
  6
CONTINUOUS
 62
     7
 10
12.9500322341919
 20
3.199991226196289
 11
12.9500322341919
 21
3
  0
LINE
  8
0
  6
CONTINUOUS
 62
     7
 10
104.1500549316406
 20
3.200011253356934
 11
104.1500549316406
 21
3.000020027160645
  0
LINE
  8
0
  6
CONTINUOUS
 62
     7
 10
107.6500549316406
 20
3.200011253356934
 11
107.6500549316406
 21
3.000020027160645
  0
LINE
  8
0
  6
CONTINUOUS
 62
     7
 10
122.1500549316406
 20
3.200011253356934
 11
122.1500549316406
 21
3.000020027160645
  0
LINE
  8
0
  6
CONTINUOUS
 62
     7
 10
125.6500549316406
 20
3.200011253356934
 11
125.6500549316406
 21
3.000020027160645
  0
ARC
  8
0
  6
CONTINUOUS
 62
     7
 10
89.65016937255859
 20
67
 40
1.75
 50
211.0028110300002
 51
270.0000726276028
  0
ARC
  8
0
  6
CONTINUOUS
 62
     7
 10
88.76686859130859
 20
67
 40
0.7939993739128129
 50
140.9593677132149
 51
219.0405603424268
  0
ARC
  8
0
  6
CONTINUOUS
 62
     7
 10
89.65016937255859
 20
67
 40
1.750000000000001
 50
89.9999820139105
 51
148.9972436115133
  0
CIRCLE
  8
0
  6
CONTINUOUS
 62
     7
 10
114.9002227783203
 20
57.5
 40
2
  0
CIRCLE
  8
0
  6
CONTINUOUS
 62
     7
 10
114.9002227783203
 20
57.5
 40
1.620999336242676
  0
CIRCLE
  8
0
  6
CONTINUOUS
 62
     7
 10
63.65015411376953
 20
70
 40
3.75
  0
CIRCLE
  8
0
  6
CONTINUOUS
 62
     7
 10
63.65015411376953
 20
70
 40
2.25
  0
ARC
  8
0
  6
CONTINUOUS
 62
     7
 10
89.65012359619141
 20
15.49999904632568
 40
1.75
 50
211.0028110300002
 51
270.0000726276028
  0
ARC
  8
0
  6
CONTINUOUS
 62
     7
 10
88.76682281494141
 20
15.49999904632568
 40
0.7939993739128085
 50
140.9593677132153
 51
219.0405603424271
  0
ARC
  8
0
  6
CONTINUOUS
 62
     7
 10
89.65012359619141
 20
15.49999904632568
 40
1.750000000000001
 50
89.9999820139105
 51
148.9972436115131
  0
CIRCLE
  8
0
  6
CONTINUOUS
 62
     7
 10
3
 20
15.49997997283936
 40
0.5
  0
CIRCLE
  8
0
  6
CONTINUOUS
 62
     7
 10
3
 20
15.49997997283936
 40
2.5
  0
ARC
  8
0
  6
CONTINUOUS
 62
     7
 10
8.597493171691895
 20
3.799997329711914
 40
0.5999999642372133
 50
240.0000239814524
 51
270.0000179860894
  0
CIRCLE
  8
0
  6
CONTINUOUS
 62
     7
 10
3
 20
15.49997997283936
 40
1.75
  0
CIRCLE
  8
0
  6
CONTINUOUS
 62
     7
 10
12.5
 20
11.79999351501465
 40
3.19999885559082
  0
CIRCLE
  8
0
  6
CONTINUOUS
 62
     7
 10
12.5
 20
11.79999351501465
 40
2
  0
CIRCLE
  8
0
  6
CONTINUOUS
 62
     7
 10
-5.5
 20
16.19998168945313
 40
3.19999885559082
  0
CIRCLE
  8
0
  6
CONTINUOUS
 62
     7
 10
-5.5
 20
16.19998168945313
 40
2
  0
ARC
  8
0
  6
CONTINUOUS
 62
     7
 10
7.5
 20
7.5
 40
1.649999618530273
 50
94.1897293338232
 51
185.8102147094544
  0
ARC
  8
0
  6
CONTINUOUS
 62
     7
 10
-7
 20
11.39999961853027
 40
1.649999618530274
 50
261.1221039519609
 51
353.8778931261479
  0
ARC
  8
0
  6
CONTINUOUS
 62
     7
 10
9.950032234191895
 20
3
 40
0.5000000000000003
 50
179.999991348578
 51
270.0000006832452
  0
ARC
  8
0
  6
CONTINUOUS
 62
     7
 10
12.4500322341919
 20
3
 40
0.5
 50
269.9999974955217
 51
0
  0
ARC
  8
0
  6
CONTINUOUS
 62
     7
 10
-9.950032234191895
 20
8.5
 40
0.5000000000000004
 50
269.9999974955217
 51
359.9995628678931
  0
ARC
  8
0
  6
CONTINUOUS
 62
     7
 10
-12.4500322341919
 20
8.5
 40
0.5000000000000006
 50
180.0004321231506
 51
269.9999974955217
  0
ARC
  8
0
  6
CONTINUOUS
 62
     7
 10
104.6500549316406
 20
3.000020027160645
 40
0.5000000000000057
 50
179.999991348578
 51
270.0000006832446
  0
ARC
  8
0
  6
CONTINUOUS
 62
     7
 10
107.1500549316406
 20
3.000020027160645
 40
0.5
 50
269.9999974955215
 51
0
  0
ARC
  8
0
  6
CONTINUOUS
 62
     7
 10
122.6500549316406
 20
3.000020027160645
 40
0.5000000000000057
 50
179.999991348578
 51
270.0000006832446
  0
ARC
  8
0
  6
CONTINUOUS
 62
     7
 10
125.1500549316406
 20
3.000020027160645
 40
0.5
 50
269.9999974955215
 51
0
  0
TEXT
  8
0
  6
CONTINUOUS
 62
     7
 10
-1.599999904632568
 20
-16.79999971389771
 40
3.59999942779541
 41
1.039215701857426
  1
GSR15V
  0
ENDSEC
  0
EOF
