  0
SECTION
  2
HEADER
  0
ENDSEC
  0
SECTION
  2
TABLES
  0
TABLE
  2
LTYPE
 70
    22
  0
LTYPE
  2
CONTINUOUS
 70
    64
  3
Solid line
 72
    65
 73
     0
 40
0.000000
  0
LTYPE
  2
DASHED
 70
    64
  3
__ __ __ __ __ __ __ __ __ __ __ __ __ __ __
 72
    65
 73
     2
 40
3.500000
 49
2.000000
 49
-1.500000
  0
LTYPE
  2
CENTER
 70
    64
  3
____ _ ____ _ ____ _ ____ _ ____ _ ____ _ ____
 72
    65
 73
     4
 40
17.500000
 49
13.000000
 49
-1.500000
 49
1.500000
 49
-1.500000
  0
LTYPE
  2
PHANTOM
 70
    64
  3
_____ _ _ _____ _ _ _____ _ _ _____ _ _ ____  
 72
    65
 73
     6
 40
15.500000
 49
8.000000
 49
-1.500000
 49
1.500000
 49
-1.500000
 49
1.500000
 49
-1.500000
  0
LTYPE
  2
DOT
 70
    64
  3
. . . . . . . . . . . . . . . . . . . . . . . .
 72
    65
 73
     2
 40
0.25
 49
0.0
 49
-0.25
  0
ENDTAB
  0
TABLE
  2
LAYER
 70
     1
  0
LAYER
  2
0
 70
     0
 62
     7
  6
CONTINUOUS
  0
ENDTAB
  0
TABLE
  2
STYLE
 70
     1
  0
STYLE
  2
STANDARD
 70
     0
 40
0.000000
 41
1.000000
 50
0.000000
 71
     0
 42
0.200000
  3
txt
  0
ENDTAB
  0
TABLE
  2
VIEW
 70
     0
  0
ENDTAB
  0
ENDSEC
  0
SECTION
  2
BLOCKS
  0
ENDSEC
  0
SECTION
  2
ENTITIES
  0
LINE
  8
0
  6
CENTER
 62
     7
 10
144.2630310058594
 20
29.79341125488281
 11
144.2630310058594
 21
14.4080810546875
  0
LINE
  8
0
  6
DASHED
 62
     7
 10
147.2630310058594
 20
29.5
 11
147.2630310058594
 21
19.5
  0
LINE
  8
0
  6
DASHED
 62
     7
 10
141.2630310058594
 20
29.49996948242188
 11
141.2630310058594
 21
19.5
  0
LINE
  8
0
  6
DASHED
 62
     7
 10
146.7630310058594
 20
29.49998474121094
 11
146.7630310058594
 21
16.5
  0
LINE
  8
0
  6
DASHED
 62
     7
 10
141.7630310058594
 20
29.49998474121094
 11
141.7630310058594
 21
16.5
  0
LINE
  8
0
  6
DASHED
 62
     7
 10
147.2630310058594
 20
19.5
 11
141.2630310058594
 21
19.5
  0
LINE
  8
0
  6
DASHED
 62
     7
 10
136.2630310058594
 20
16.5
 11
131.2630310058594
 21
16.5
  0
LINE
  8
0
  6
DASHED
 62
     7
 10
144.2630462646484
 20
15.05661582946777
 11
141.7630462646484
 21
16.49999046325684
  0
LINE
  8
0
  6
DASHED
 62
     7
 10
146.7630462646484
 20
16.49995994567871
 11
144.2630462646484
 21
15.05658531188965
  0
LINE
  8
0
  6
DASHED
 62
     7
 10
147.2630462646484
 20
19.49998664855957
 11
146.7630462646484
 21
18.63396263122559
  0
LINE
  8
0
  6
DASHED
 62
     7
 10
141.7630615234375
 20
18.63395690917969
 11
141.2630615234375
 21
19.49998283386231
  0
LINE
  8
0
  6
CONTINUOUS
 62
     7
 10
164.863037109375
 20
29.49998474121094
 11
164.863037109375
 21
4.699996948242188
  0
LINE
  8
0
  6
CONTINUOUS
 62
     7
 10
123.6630401611328
 20
29.49998474121094
 11
123.6630401611328
 21
4.699996948242188
  0
LINE
  8
0
  6
CONTINUOUS
 62
     7
 10
164.863037109375
 20
4.699996948242188
 11
123.6630401611328
 21
4.699996948242188
  0
LINE
  8
0
  6
CONTINUOUS
 62
     7
 10
164.863037109375
 20
16.5
 11
123.6630401611328
 21
16.5
  0
LINE
  8
0
  6
CONTINUOUS
 62
     7
 10
164.863037109375
 20
29.49998474121094
 11
123.6630401611328
 21
29.49998474121094
  0
LINE
  8
0
  6
CONTINUOUS
 62
     7
 10
175.2630462646484
 20
28.89999389648438
 11
175.2630462646484
 21
3.999990940093994
  0
LINE
  8
0
  6
CONTINUOUS
 62
     7
 10
175.2630462646484
 20
28.89999389648438
 11
164.863037109375
 21
28.89999389648438
  0
LINE
  8
0
  6
CONTINUOUS
 62
     7
 10
175.2630462646484
 20
4.79998779296875
 11
164.863037109375
 21
4.79998779296875
  0
LINE
  8
0
  6
CONTINUOUS
 62
     7
 10
111.7630157470703
 20
28.69999694824219
 11
111.7630157470703
 21
4.199996948242188
  0
LINE
  8
0
  6
CONTINUOUS
 62
     7
 10
178.7630462646484
 20
17.00001525878906
 11
178.7630462646484
 21
4.199996948242188
  0
LINE
  8
0
  6
CONTINUOUS
 62
     7
 10
178.7631683349609
 20
28.69999694824219
 11
175.2630462646484
 21
28.69999694824219
  0
LINE
  8
0
  6
CONTINUOUS
 62
     7
 10
178.7630462646484
 20
4.199996948242188
 11
175.2630462646484
 21
4.199996948242188
  0
LINE
  8
0
  6
CONTINUOUS
 62
     7
 10
178.7630310058594
 20
16.99997520446777
 11
176.7630310058594
 21
18.99997711181641
  0
LINE
  8
0
  6
CONTINUOUS
 62
     7
 10
113.2630157470703
 20
3.999990940093994
 11
113.2630157470703
 21
28.89999389648438
  0
LINE
  8
0
  6
CONTINUOUS
 62
     7
 10
123.6630249023438
 20
28.89999389648438
 11
113.2630157470703
 21
28.89999389648438
  0
LINE
  8
0
  6
CONTINUOUS
 62
     7
 10
123.6630249023438
 20
4.79998779296875
 11
113.2630157470703
 21
4.79998779296875
  0
LINE
  8
0
  6
CONTINUOUS
 62
     7
 10
176.7630462646484
 20
4.199996948242188
 11
176.7630462646484
 21
28.69999694824219
  0
LINE
  8
0
  6
CONTINUOUS
 62
     7
 10
109.7630157470703
 20
4.199996948242188
 11
109.7630157470703
 21
17.00001525878906
  0
LINE
  8
0
  6
CONTINUOUS
 62
     7
 10
113.2630157470703
 20
28.69999694824219
 11
109.7630310058594
 21
28.69999694824219
  0
LINE
  8
0
  6
CONTINUOUS
 62
     7
 10
113.2630157470703
 20
4.199996948242188
 11
109.7630157470703
 21
4.199996948242188
  0
LINE
  8
0
  6
CONTINUOUS
 62
     7
 10
111.7630386352539
 20
18.9999885559082
 11
109.7630386352539
 21
16.99998664855957
  0
LINE
  8
0
  6
CONTINUOUS
 62
     7
 10
109.7630310058594
 20
18.37995910644531
 11
109.7630310058594
 21
26.61991882324219
  0
LINE
  8
0
  6
CONTINUOUS
 62
     7
 10
106.7630310058594
 20
26.49993896484375
 11
109.7630310058594
 21
26.49993896484375
  0
LINE
  8
0
  6
CONTINUOUS
 62
     7
 10
110.6429748535156
 20
17.87995910644531
 11
110.2630310058594
 21
17.87995910644531
  0
LINE
  8
0
  6
CONTINUOUS
 62
     7
 10
111.7630310058594
 20
20.18995666503906
 11
110.2630310058594
 21
20.18995666503906
  0
LINE
  8
0
  6
CONTINUOUS
 62
     7
 10
110.2631225585938
 20
17.87982368469238
 11
109.7631759643555
 21
18.37977027893066
  0
LINE
  8
0
  6
CONTINUOUS
 62
     7
 10
107.8630218505859
 20
18.99995422363281
 11
102.6630249023438
 21
18.99995422363281
  0
LINE
  8
0
  6
CONTINUOUS
 62
     7
 10
109.363037109375
 20
22.49995231628418
 11
107.863037109375
 21
18.99994850158691
  0
LINE
  8
0
  6
CONTINUOUS
 62
     7
 10
108.4630889892578
 20
22.49994850158691
 11
106.8630905151367
 21
18.99995613098145
  0
LINE
  8
0
  6
CONTINUOUS
 62
     7
 10
102.6630172729492
 20
18.99994277954102
 11
102.2630081176758
 21
19.5799732208252
  0
LINE
  8
0
  6
CONTINUOUS
 62
     7
 10
102.6631774902344
 20
25.99977111816406
 11
102.26318359375
 21
25.41976547241211
  0
LINE
  8
0
  6
CONTINUOUS
 62
     7
 10
107.8630218505859
 20
25.99993896484375
 11
102.6630249023438
 21
25.99993896484375
  0
LINE
  8
0
  6
CONTINUOUS
 62
     7
 10
108.4630661010742
 20
22.49996566772461
 11
106.8630599975586
 21
25.99997520446777
  0
LINE
  8
0
  6
CONTINUOUS
 62
     7
 10
109.3630447387695
 20
22.49994659423828
 11
107.8630599975586
 21
25.99992370605469
  0
LINE
  8
0
  6
CONTINUOUS
 62
     7
 10
106.7630310058594
 20
18.49995422363281
 11
109.7630310058594
 21
18.49995422363281
  0
LINE
  8
0
  6
CONTINUOUS
 62
     7
 10
64.26308441162109
 20
16
 11
109.7630310058594
 21
16
  0
LINE
  8
0
  6
CONTINUOUS
 62
     7
 10
64.26308441162109
 20
12.94113159179688
 11
109.7630310058594
 21
12.94113159179688
  0
LINE
  8
0
  6
CONTINUOUS
 62
     7
 10
64.26308441162109
 20
10.07733154296875
 11
109.7630310058594
 21
10.07733154296875
  0
LINE
  8
0
  6
CONTINUOUS
 62
     7
 10
64.26308441162109
 20
8.769989013671875
 11
109.7630310058594
 21
8.769989013671875
  0
LINE
  8
0
  6
CONTINUOUS
 62
     7
 10
64.26308441162109
 20
5.519989013671875
 11
109.7630310058594
 21
5.519989013671875
  0
LINE
  8
0
  6
CONTINUOUS
 62
     7
 10
64.26308441162109
 20
-0.5
 11
224.2630920410156
 21
-0.5
  0
LINE
  8
0
  6
CONTINUOUS
 62
     7
 10
178.7630615234375
 20
16
 11
224.2630920410156
 21
16
  0
LINE
  8
0
  6
CONTINUOUS
 62
     7
 10
178.7630615234375
 20
12.94113159179688
 11
224.2630920410156
 21
12.94113159179688
  0
LINE
  8
0
  6
CONTINUOUS
 62
     7
 10
178.7630615234375
 20
10.07733154296875
 11
224.2630920410156
 21
10.07733154296875
  0
LINE
  8
0
  6
CONTINUOUS
 62
     7
 10
178.7630615234375
 20
8.769989013671875
 11
224.2630920410156
 21
8.769989013671875
  0
LINE
  8
0
  6
CONTINUOUS
 62
     7
 10
178.7630615234375
 20
5.519989013671875
 11
224.2630920410156
 21
5.519989013671875
  0
LINE
  8
0
  6
CONTINUOUS
 62
     7
 10
64.26308441162109
 20
3.499267578125
 11
224.2630920410156
 21
3.499267578125
  0
LINE
  8
0
  6
CENTER
 62
     7
 10
144.2630310058594
 20
6.652664184570313
 11
144.2630310058594
 21
-1.52642822265625
  0
LINE
  8
0
  6
CONTINUOUS
 62
     7
 10
64.26308441162109
 20
67.05426025390625
 11
109.7630157470703
 21
67.05426025390625
  0
LINE
  8
0
  6
CONTINUOUS
 62
     7
 10
64.26308441162109
 20
86.47415161132813
 11
109.7630157470703
 21
86.47415161132813
  0
LINE
  8
0
  6
CONTINUOUS
 62
     7
 10
64.26308441162109
 20
90.05429077148438
 11
109.7630157470703
 21
90.05429077148438
  0
LINE
  8
0
  6
CONTINUOUS
 62
     7
 10
64.26308441162109
 20
104.0691833496094
 11
224.2630920410156
 21
104.0691833496094
  0
LINE
  8
0
  6
CENTER
 62
     7
 10
59.17311859130859
 20
110.0542907714844
 11
224.2630920410156
 21
110.0542907714844
  0
LINE
  8
0
  6
CONTINUOUS
 62
     7
 10
82.17713928222656
 20
111.6642532348633
 11
83.63301849365234
 21
107.6642532348633
  0
LINE
  8
0
  6
CONTINUOUS
 62
     7
 10
80.34907531738281
 20
111.6642684936523
 11
78.8931884765625
 21
107.6642608642578
  0
LINE
  8
0
  6
CONTINUOUS
 62
     7
 10
81.7486572265625
 20
111.964225769043
 11
82.17707824707031
 21
111.6642379760742
  0
LINE
  8
0
  6
CONTINUOUS
 62
     7
 10
80.77754974365234
 20
111.9641799926758
 11
80.34910583496094
 21
111.664176940918
  0
LINE
  8
0
  6
PHANTOM
 62
     7
 10
80.77748870849609
 20
111.9642639160156
 11
207.7486114501953
 21
111.9642639160156
  0
LINE
  8
0
  6
CONTINUOUS
 62
     7
 10
64.26309967041016
 20
111.4280090332031
 11
65.63299560546875
 21
107.6642532348633
  0
LINE
  8
0
  6
CONTINUOUS
 62
     7
 10
65.63295745849609
 20
107.6642761230469
 11
66.89321136474609
 21
107.6642761230469
  0
LINE
  8
0
  6
CONTINUOUS
 62
     7
 10
68.34907531738281
 20
111.6642608642578
 11
66.89319610595703
 21
107.6642608642578
  0
LINE
  8
0
  6
CONTINUOUS
 62
     7
 10
68.77756500244141
 20
111.9642105102539
 11
68.34911346435547
 21
111.6642074584961
  0
LINE
  8
0
  6
CONTINUOUS
 62
     7
 10
68.77748870849609
 20
111.9642639160156
 11
69.74861907958984
 21
111.9642639160156
  0
LINE
  8
0
  6
CONTINUOUS
 62
     7
 10
69.74863433837891
 20
111.9642181396484
 11
70.17710876464844
 21
111.6641998291016
  0
LINE
  8
0
  6
CONTINUOUS
 62
     7
 10
70.17710876464844
 20
111.6642532348633
 11
71.63299560546875
 21
107.6642456054688
  0
LINE
  8
0
  6
CONTINUOUS
 62
     7
 10
71.63295745849609
 20
107.6642761230469
 11
72.89321136474609
 21
107.6642761230469
  0
LINE
  8
0
  6
CONTINUOUS
 62
     7
 10
74.34909820556641
 20
111.6642532348633
 11
72.89321899414063
 21
107.6642532348633
  0
LINE
  8
0
  6
CONTINUOUS
 62
     7
 10
74.77757263183594
 20
111.9642105102539
 11
74.34912872314453
 21
111.6642074584961
  0
LINE
  8
0
  6
CONTINUOUS
 62
     7
 10
74.77748870849609
 20
111.9642639160156
 11
75.74861907958984
 21
111.9642639160156
  0
LINE
  8
0
  6
CONTINUOUS
 62
     7
 10
75.74864196777344
 20
111.964225769043
 11
76.17707061767578
 21
111.6642379760742
  0
LINE
  8
0
  6
CONTINUOUS
 62
     7
 10
76.17713928222656
 20
111.6642532348633
 11
77.63301849365234
 21
107.6642532348633
  0
LINE
  8
0
  6
CONTINUOUS
 62
     7
 10
77.63295745849609
 20
107.6642761230469
 11
78.89321136474609
 21
107.6642761230469
  0
LINE
  8
0
  6
CENTER
 62
     7
 10
61.08765029907227
 20
78.55426025390625
 11
227.1920166015625
 21
78.55426025390625
  0
LINE
  8
0
  6
CENTER
 62
     7
 10
84.26308441162109
 20
85.05426025390625
 11
84.26308441162109
 21
72.05426025390625
  0
LINE
  8
0
  6
CENTER
 62
     7
 10
144.2630920410156
 20
85.05426025390625
 11
144.2630920410156
 21
72.05426025390625
  0
LINE
  8
0
  6
CENTER
 62
     7
 10
204.2630920410156
 20
85.05426025390625
 11
204.2630920410156
 21
72.05426025390625
  0
LINE
  8
0
  6
CONTINUOUS
 62
     7
 10
64.26308441162109
 20
111.4280090332031
 11
64.26308441162109
 21
67.05426025390625
  0
LINE
  8
0
  6
CONTINUOUS
 62
     7
 10
-22.49986457824707
 20
29.5
 11
-15.99996376037598
 21
29.5
  0
LINE
  8
0
  6
CONTINUOUS
 62
     7
 10
-23.5
 20
28.49984741210938
 11
-23.5
 21
20.80000305175781
  0
LINE
  8
0
  6
CONTINUOUS
 62
     7
 10
26.5
 20
28.50003051757813
 11
26.5
 21
16.79971122741699
  0
LINE
  8
0
  6
CONTINUOUS
 62
     7
 10
-15.49996376037598
 20
29
 11
-8.999725341796875
 21
29
  0
LINE
  8
0
  6
CONTINUOUS
 62
     7
 10
1.999979496002197
 20
29
 11
13.50028800964356
 21
29
  0
LINE
  8
0
  6
CONTINUOUS
 62
     7
 10
-8.499725341796875
 20
29.5
 11
1.499979496002197
 21
29.5
  0
LINE
  8
0
  6
CONTINUOUS
 62
     7
 10
14.00028800964356
 20
29.5
 11
25.50004577636719
 21
29.5
  0
LINE
  8
0
  6
CONTINUOUS
 62
     7
 10
-15.99996376037598
 20
29.5
 11
-15.49996376037598
 21
29
  0
LINE
  8
0
  6
CONTINUOUS
 62
     7
 10
1.499980092048645
 20
29.5
 11
1.999979257583618
 21
29
  0
LINE
  8
0
  6
CONTINUOUS
 62
     7
 10
13.50028800964356
 20
29
 11
14.00028800964356
 21
29.5
  0
LINE
  8
0
  6
CONTINUOUS
 62
     7
 10
-8.999725341796875
 20
29
 11
-8.499725341796875
 21
29.5
  0
LINE
  8
0
  6
CONTINUOUS
 62
     7
 10
26.2001953125
 20
16.49990653991699
 11
26.2001953125
 21
5.700177192687988
  0
LINE
  8
0
  6
CONTINUOUS
 62
     7
 10
26.2001953125
 20
16.49990653991699
 11
26.5
 21
16.79971122741699
  0
LINE
  8
0
  6
CONTINUOUS
 62
     7
 10
-23.4998950958252
 20
20.79991722106934
 11
-23.19985771179199
 21
20.49987983703613
  0
LINE
  8
0
  6
CONTINUOUS
 62
     7
 10
-22.49986457824707
 20
29.5
 11
-23.5
 21
28.49984741210938
  0
LINE
  8
0
  6
CONTINUOUS
 62
     7
 10
25.50004577636719
 20
29.5
 11
26.5
 21
28.50003051757813
  0
LINE
  8
0
  6
CONTINUOUS
 62
     7
 10
-23.199951171875
 20
20.49998474121094
 11
-23.199951171875
 21
14.68998718261719
  0
LINE
  8
0
  6
CONTINUOUS
 62
     7
 10
26.2001953125
 20
5.700177669525147
 11
24.69999694824219
 21
4.199981212615967
  0
LINE
  8
0
  6
CONTINUOUS
 62
     7
 10
-22.89983367919922
 20
14.38986301422119
 11
-23.19986915588379
 21
14.6899003982544
  0
LINE
  8
0
  6
CENTER
 62
     7
 10
-3.5
 20
29.79341125488281
 11
-3.5
 21
16.10438537597656
  0
LINE
  8
0
  6
CONTINUOUS
 62
     7
 10
-21.6996955871582
 20
28.69998168945313
 11
25.900146484375
 21
28.69998168945313
  0
LINE
  8
0
  6
CONTINUOUS
 62
     7
 10
-21.699951171875
 20
12.69998168945313
 11
-11.5
 21
12.69998168945313
  0
LINE
  8
0
  6
CONTINUOUS
 62
     7
 10
-22.89990234375
 20
27.49977874755859
 11
-22.89990234375
 21
13.89997863769531
  0
LINE
  8
0
  6
CONTINUOUS
 62
     7
 10
25.900146484375
 20
28.69998168945313
 11
25.900146484375
 21
5.400128841400147
  0
LINE
  8
0
  6
CONTINUOUS
 62
     7
 10
10.286376953125
 20
4.199981689453125
 11
24.69999885559082
 21
4.199981689453125
  0
LINE
  8
0
  6
CONTINUOUS
 62
     7
 10
-22.89990234375
 20
27.49977874755859
 11
-21.6996955871582
 21
28.69998168945313
  0
LINE
  8
0
  6
CONTINUOUS
 62
     7
 10
-22.89995193481445
 20
13.89992618560791
 11
-21.69997596740723
 21
12.699951171875
  0
LINE
  8
0
  6
CENTER
 62
     7
 10
0
 20
31.96916198730469
 11
0
 21
-2.686767578125
  0
LINE
  8
0
  6
CONTINUOUS
 62
     7
 10
-12.6339693069458
 20
12.69998168945313
 11
-10.69396686553955
 21
14.63998508453369
  0
LINE
  8
0
  6
CONTINUOUS
 62
     7
 10
-9.122849464416504
 20
16.21110153198242
 11
-8.333950996398926
 21
17
  0
LINE
  8
0
  6
CONTINUOUS
 62
     7
 10
-8.333950996398926
 20
17
 11
11.06421756744385
 21
17
  0
LINE
  8
0
  6
CONTINUOUS
 62
     7
 10
11.06421756744385
 20
17
 11
12.5
 21
15.56421756744385
  0
LINE
  8
0
  6
CONTINUOUS
 62
     7
 10
12.5
 20
15.56421756744385
 11
12.5
 21
12.57710838317871
  0
LINE
  8
0
  6
CONTINUOUS
 62
     7
 10
11.75312232971191
 20
11.68701457977295
 11
12.5
 21
12.57710933685303
  0
LINE
  8
0
  6
CONTINUOUS
 62
     7
 10
9
 20
8.405970573425293
 11
10.15776824951172
 21
9.785745620727539
  0
LINE
  8
0
  6
CONTINUOUS
 62
     7
 10
9
 20
8.405970573425293
 11
9
 21
6.097375869750977
  0
LINE
  8
0
  6
CONTINUOUS
 62
     7
 10
9
 20
6.097375869750977
 11
12.28647994995117
 21
4.199925899505615
  0
LINE
  8
0
  6
CONTINUOUS
 62
     7
 10
-14.5
 20
13.66237831115723
 11
-14.5
 21
12.69998168945313
  0
LINE
  8
0
  6
CONTINUOUS
 62
     7
 10
-14.5
 20
13.66237831115723
 11
-12.10819816589356
 21
16.05418014526367
  0
LINE
  8
0
  6
CONTINUOUS
 62
     7
 10
-10.53708267211914
 20
17.62529563903809
 11
-9.162378311157227
 21
19
  0
LINE
  8
0
  6
CONTINUOUS
 62
     7
 10
-9.162378311157227
 20
19
 11
-3.570744037628174
 21
19
  0
LINE
  8
0
  6
CONTINUOUS
 62
     7
 10
11.89264488220215
 20
19
 11
14.50006103515625
 21
16.3925838470459
  0
LINE
  8
0
  6
CONTINUOUS
 62
     7
 10
13.28520679473877
 20
10.40143394470215
 11
14.50006103515625
 21
11.84924125671387
  0
LINE
  8
0
  6
CONTINUOUS
 62
     7
 10
11
 20
7.678030490875244
 11
11.68978118896484
 21
8.500079154968262
  0
LINE
  8
0
  6
CONTINUOUS
 62
     7
 10
11
 20
7.678030490875244
 11
11
 21
7.252076625823975
  0
LINE
  8
0
  6
CONTINUOUS
 62
     7
 10
11
 20
7.252076625823975
 11
16.28648948669434
 21
4.199921131134033
  0
LINE
  8
0
  6
CONTINUOUS
 62
     7
 10
1.780029296875
 20
25.99996948242188
 11
5.860107421875
 21
25.99996948242188
  0
LINE
  8
0
  6
CONTINUOUS
 62
     7
 10
1.780029296875
 20
18.99996948242188
 11
5.860107421875
 21
18.99996948242188
  0
LINE
  8
0
  6
CONTINUOUS
 62
     7
 10
1.130136847496033
 20
22.49996757507324
 11
1.780130624771118
 21
18.99996566772461
  0
LINE
  8
0
  6
CONTINUOUS
 62
     7
 10
1.130149245262146
 20
22.49989891052246
 11
1.780139565467835
 21
25.99987983703613
  0
LINE
  8
0
  6
CONTINUOUS
 62
     7
 10
3.440129280090332
 20
22.49992942810059
 11
4.090140819549561
 21
18.99991798400879
  0
LINE
  8
0
  6
CONTINUOUS
 62
     7
 10
3.440171480178833
 20
22.49988746643066
 11
4.090179920196533
 21
25.99988555908203
  0
LINE
  8
0
  6
CONTINUOUS
 62
     7
 10
5.950041770935059
 20
19.46992492675781
 11
5.860029697418213
 21
18.99992179870606
  0
LINE
  8
0
  6
CONTINUOUS
 62
     7
 10
5.950235366821289
 20
25.51996994018555
 11
5.860227584838867
 21
25.99996185302734
  0
LINE
  8
0
  6
CONTINUOUS
 62
     7
 10
7.766019821166992
 20
19.25425148010254
 11
10.52012538909912
 21
19.99994659423828
  0
LINE
  8
0
  6
CONTINUOUS
 62
     7
 10
7.750265598297119
 20
25.7498722076416
 11
10.52015972137451
 21
24.99990081787109
  0
LINE
  8
0
  6
CONTINUOUS
 62
     7
 10
0.0005160811124369502
 20
17.88084220886231
 11
1.947745800018311
 21
18.99995422363281
  0
LINE
  8
0
  6
CONTINUOUS
 62
     7
 10
0.0007000874611549079
 20
17.88078117370606
 11
-4.000438690185547
 21
20.19083786010742
  0
LINE
  8
0
  6
CONTINUOUS
 62
     7
 10
-4.000461101531982
 20
20.19083786010742
 11
-4.000977516174316
 21
24.80993270874023
  0
LINE
  8
0
  6
CONTINUOUS
 62
     7
 10
-4.000970840454102
 20
24.80998420715332
 11
-0.0004458925977814943
 21
27.11909103393555
  0
LINE
  8
0
  6
CONTINUOUS
 62
     7
 10
-0.0004473135923035443
 20
27.11902809143066
 11
1.937961220741272
 21
25.99988746643066
  0
LINE
  8
0
  6
CONTINUOUS
 62
     7
 10
3.57080078125
 20
19
 11
11.89264488220215
 21
19
  0
LINE
  8
0
  6
CONTINUOUS
 62
     7
 10
20.150146484375
 20
4.199981689453125
 11
20.150146484375
 21
4
  0
LINE
  8
0
  6
CONTINUOUS
 62
     7
 10
12.61628341674805
 20
4.199872970581055
 11
12.96247673034668
 21
3.999998331069946
  0
LINE
  8
0
  6
CENTER
 62
     7
 10
19.5
 20
29.79341125488281
 11
19.5
 21
10.46875
  0
LINE
  8
0
  6
CONTINUOUS
 62
     7
 10
-11.5
 20
13.25285339355469
 11
-11.5
 21
12
  0
LINE
  8
0
  6
CONTINUOUS
 62
     7
 10
-20.19915771484375
 20
11
 11
-12.5
 21
11
  0
LINE
  8
0
  6
CONTINUOUS
 62
     7
 10
-24.3955020904541
 20
14.83401584625244
 11
-23.95796775817871
 21
13.63189888000488
  0
LINE
  8
0
  6
CONTINUOUS
 62
     7
 10
-32.35001754760742
 20
16.00002098083496
 11
-33.41001892089844
 21
14.94001960754395
  0
LINE
  8
0
  6
CONTINUOUS
 62
     7
 10
-33.41000366210938
 20
0.5100024342536926
 11
-32.40000152587891
 21
-0.500000536441803
  0
LINE
  8
0
  6
CONTINUOUS
 62
     7
 10
11.5
 20
0.4999842047691345
 11
10.50001525878906
 21
-0.4999999701976776
  0
LINE
  8
0
  6
CONTINUOUS
 62
     7
 10
-25
 20
0
 11
-19
 21
0
  0
LINE
  8
0
  6
CONTINUOUS
 62
     7
 10
-14
 20
0
 11
-8
 21
0
  0
LINE
  8
0
  6
CONTINUOUS
 62
     7
 10
-3
 20
0
 11
3
 21
0
  0
LINE
  8
0
  6
CONTINUOUS
 62
     7
 10
-25.00001525878906
 20
2.023048728005961E-005
 11
-25.50001525878906
 21
-0.4999803006649017
  0
LINE
  8
0
  6
CONTINUOUS
 62
     7
 10
-14.00000286102295
 20
-1.348699129266606E-006
 11
-14.50000381469727
 21
-0.5000019073486328
  0
LINE
  8
0
  6
CONTINUOUS
 62
     7
 10
-8.000018119812012
 20
2.023048728005961E-005
 11
-7.500006675720215
 21
-0.4999910891056061
  0
LINE
  8
0
  6
CONTINUOUS
 62
     7
 10
-19.00000762939453
 20
2.023048728005961E-005
 11
-18.49999618530273
 21
-0.4999910891056061
  0
LINE
  8
0
  6
CONTINUOUS
 62
     7
 10
-33.41000366210938
 20
14.94000244140625
 11
-33.41000366210938
 21
0.5100023746490479
  0
LINE
  8
0
  6
CENTER
 62
     7
 10
-31.5
 20
17.62477111816406
 11
-31.5
 21
-3.135337829589844
  0
LINE
  8
0
  6
CONTINUOUS
 62
     7
 10
3.500035285949707
 20
-0.5
 11
10.50001525878906
 21
-0.5
  0
LINE
  8
0
  6
CONTINUOUS
 62
     7
 10
-32.40000152587891
 20
-0.5
 11
-25.5
 21
-0.5
  0
LINE
  8
0
  6
CONTINUOUS
 62
     7
 10
11.5
 20
15.15000438690186
 11
11.5
 21
12.94107913970947
  0
LINE
  8
0
  6
CONTINUOUS
 62
     7
 10
-7.919848442077637
 20
16
 11
10.65000438690186
 21
16
  0
LINE
  8
0
  6
CONTINUOUS
 62
     7
 10
8
 20
8.769941329956055
 11
8
 21
5.520025730133057
  0
LINE
  8
0
  6
CONTINUOUS
 62
     7
 10
8
 20
5.520025730133057
 11
11.5
 21
3.499300003051758
  0
LINE
  8
0
  6
CONTINUOUS
 62
     7
 10
8
 20
8.769941329956055
 11
9.097221374511719
 21
10.07755851745606
  0
LINE
  8
0
  6
CONTINUOUS
 62
     7
 10
10.65000343322754
 20
16
 11
11.5
 21
15.15000438690186
  0
LINE
  8
0
  6
CONTINUOUS
 62
     7
 10
11.5
 20
3.499300003051758
 11
11.5
 21
0.4999842643737793
  0
LINE
  8
0
  6
DASHED
 62
     7
 10
-3.5
 20
0
 11
-2.999708890914917
 21
0
  0
LINE
  8
0
  6
CONTINUOUS
 62
     7
 10
-3.499840497970581
 20
-0.5001317262649536
 11
-2.999840021133423
 21
-0.0001311609958065674
  0
LINE
  8
0
  6
CONTINUOUS
 62
     7
 10
3.000035285949707
 20
0
 11
3.500134706497192
 21
-0.5000993609428406
  0
LINE
  8
0
  6
DASHED
 62
     7
 10
-5.5
 20
16
 11
-5.5
 21
7
  0
LINE
  8
0
  6
DASHED
 62
     7
 10
5.5
 20
16
 11
5.5
 21
7
  0
LINE
  8
0
  6
DASHED
 62
     7
 10
-3.5
 20
7
 11
-3.5
 21
7.408901865346707E-007
  0
LINE
  8
0
  6
DASHED
 62
     7
 10
3.5
 20
7
 11
3.5
 21
2.501747439964674E-005
  0
LINE
  8
0
  6
DASHED
 62
     7
 10
-5.5
 20
7
 11
5.5
 21
7
  0
LINE
  8
0
  6
DASHED
 62
     7
 10
3.5
 20
2.495093394827563E-005
 11
4.000102996826172
 21
-0.5000777244567871
  0
LINE
  8
0
  6
DASHED
 62
     7
 10
-3.99998140335083
 20
-0.4999806582927704
 11
-3.5
 21
6.743495646333031E-007
  0
LINE
  8
0
  6
DASHED
 62
     7
 10
3.000035285949707
 20
0
 11
3.500025033950806
 21
0
  0
LINE
  8
0
  6
CONTINUOUS
 62
     7
 10
11.28157997131348
 20
12.68077659606934
 11
11.50000095367432
 21
12.94108009338379
  0
LINE
  8
0
  6
CONTINUOUS
 62
     7
 10
-11.5
 20
13.25285339355469
 11
-10.96429538726807
 21
13.66391372680664
  0
LINE
  8
0
  6
CONTINUOUS
 62
     7
 10
-8.136039733886719
 20
15.83411026000977
 11
-7.919848442077637
 21
16
  0
LINE
  8
0
  6
CONTINUOUS
 62
     7
 10
-32.35000610351563
 20
16
 11
-25.51492309570313
 21
16
  0
LINE
  8
0
  6
CONTINUOUS
 62
     7
 10
-18.5
 20
-0.5
 11
-14.5
 21
-0.5
  0
LINE
  8
0
  6
CONTINUOUS
 62
     7
 10
-7.5
 20
-0.5
 11
-3.499755859375
 21
-0.5
  0
LINE
  8
0
  6
CONTINUOUS
 62
     7
 10
14.50006103515625
 20
16.3925838470459
 11
14.50006103515625
 21
11.84924125671387
  0
LINE
  8
0
  6
CONTINUOUS
 62
     7
 10
12.96246337890625
 20
4
 11
20.150146484375
 21
4
  0
LINE
  8
0
  6
CONTINUOUS
 62
     7
 10
11.89999389648438
 20
22.69996643066406
 11
25.900146484375
 21
22.69996643066406
  0
LINE
  8
0
  6
CONTINUOUS
 62
     7
 10
-13.89999389648438
 20
28.69996643066406
 11
-13.89999389648438
 21
22.69996643066406
  0
LINE
  8
0
  6
CONTINUOUS
 62
     7
 10
11.89999389648438
 20
28.69998168945313
 11
11.89999389648438
 21
22.69996643066406
  0
LINE
  8
0
  6
CONTINUOUS
 62
     7
 10
-22.89999389648438
 20
22.69996643066406
 11
-13.89999389648438
 21
22.69996643066406
  0
LINE
  8
0
  6
CONTINUOUS
 62
     7
 10
178.7631683349609
 20
28.69999694824219
 11
178.7631683349609
 21
22.69999694824219
  0
LINE
  8
0
  6
CONTINUOUS
 62
     7
 10
109.7630310058594
 20
22.69999694824219
 11
111.7630310058594
 21
22.69999694824219
  0
LINE
  8
0
  6
CONTINUOUS
 62
     7
 10
109.7630310058594
 20
28.69999694824219
 11
109.7630310058594
 21
22.69999694824219
  0
LINE
  8
0
  6
CONTINUOUS
 62
     7
 10
178.7631683349609
 20
22.69999694824219
 11
176.7631683349609
 21
22.69999694824219
  0
LINE
  8
0
  6
CONTINUOUS
 62
     7
 10
109.7630157470703
 20
101.4542617797852
 11
109.7630157470703
 21
92.45426177978516
  0
LINE
  8
0
  6
CONTINUOUS
 62
     7
 10
111.7630157470703
 20
101.4542617797852
 11
111.7630157470703
 21
52.65425872802734
  0
LINE
  8
0
  6
CONTINUOUS
 62
     7
 10
113.2630157470703
 20
101.4542617797852
 11
113.2630157470703
 21
52.65425872802734
  0
LINE
  8
0
  6
CONTINUOUS
 62
     7
 10
123.6630401611328
 20
102.0542602539063
 11
123.6630401611328
 21
52.05426025390625
  0
LINE
  8
0
  6
CONTINUOUS
 62
     7
 10
164.863037109375
 20
102.0542602539063
 11
164.863037109375
 21
52.05426025390625
  0
LINE
  8
0
  6
CONTINUOUS
 62
     7
 10
175.2630462646484
 20
101.4542617797852
 11
175.2630462646484
 21
52.65425872802734
  0
LINE
  8
0
  6
CONTINUOUS
 62
     7
 10
176.7630462646484
 20
101.4542617797852
 11
176.7630462646484
 21
52.65425872802734
  0
LINE
  8
0
  6
CONTINUOUS
 62
     7
 10
178.7630462646484
 20
101.4542617797852
 11
178.7630462646484
 21
92.45426177978516
  0
LINE
  8
0
  6
CONTINUOUS
 62
     7
 10
123.6630401611328
 20
52.05426025390625
 11
164.863037109375
 21
52.05426025390625
  0
LINE
  8
0
  6
CONTINUOUS
 62
     7
 10
123.6630401611328
 20
102.0542602539063
 11
164.863037109375
 21
102.0542602539063
  0
LINE
  8
0
  6
CONTINUOUS
 62
     7
 10
123.6630401611328
 20
65.05426025390625
 11
164.863037109375
 21
65.05426025390625
  0
LINE
  8
0
  6
CONTINUOUS
 62
     7
 10
123.6630401611328
 20
76.55426025390625
 11
164.863037109375
 21
76.55426025390625
  0
LINE
  8
0
  6
CONTINUOUS
 62
     7
 10
123.6630401611328
 20
87.55426025390625
 11
164.863037109375
 21
87.55426025390625
  0
LINE
  8
0
  6
CONTINUOUS
 62
     7
 10
123.6630401611328
 20
94.05426025390625
 11
164.863037109375
 21
94.05426025390625
  0
LINE
  8
0
  6
CONTINUOUS
 62
     7
 10
178.7630462646484
 20
90.05429077148438
 11
224.2630920410156
 21
90.05429077148438
  0
LINE
  8
0
  6
CONTINUOUS
 62
     7
 10
178.7630462646484
 20
86.47415161132813
 11
224.2630920410156
 21
86.47415161132813
  0
LINE
  8
0
  6
CONTINUOUS
 62
     7
 10
178.7630462646484
 20
67.05426025390625
 11
224.2630920410156
 21
67.05426025390625
  0
LINE
  8
0
  6
CONTINUOUS
 62
     7
 10
224.2630920410156
 20
111.4280242919922
 11
224.2630920410156
 21
67.05426025390625
  0
LINE
  8
0
  6
PHANTOM
 62
     7
 10
83.63295745849609
 20
107.6642761230469
 11
204.8931884765625
 21
107.6642761230469
  0
LINE
  8
0
  6
CONTINUOUS
 62
     7
 10
206.7774963378906
 20
111.9642639160156
 11
207.7486267089844
 21
111.9642639160156
  0
LINE
  8
0
  6
CONTINUOUS
 62
     7
 10
208.1771392822266
 20
111.6642532348633
 11
209.6330261230469
 21
107.6642532348633
  0
LINE
  8
0
  6
CONTINUOUS
 62
     7
 10
206.3490753173828
 20
111.6642684936523
 11
204.8931884765625
 21
107.6642684936523
  0
LINE
  8
0
  6
CONTINUOUS
 62
     7
 10
207.7486572265625
 20
111.964241027832
 11
208.1770782470703
 21
111.6642532348633
  0
LINE
  8
0
  6
CONTINUOUS
 62
     7
 10
206.7775573730469
 20
111.9641876220703
 11
206.3491058349609
 21
111.6641845703125
  0
LINE
  8
0
  6
CONTINUOUS
 62
     7
 10
212.7775573730469
 20
111.9641876220703
 11
212.3491058349609
 21
111.6641845703125
  0
LINE
  8
0
  6
CONTINUOUS
 62
     7
 10
214.1771392822266
 20
111.6642532348633
 11
215.6330261230469
 21
107.6642532348633
  0
LINE
  8
0
  6
CONTINUOUS
 62
     7
 10
209.6329650878906
 20
107.6642761230469
 11
210.8932189941406
 21
107.6642761230469
  0
LINE
  8
0
  6
CONTINUOUS
 62
     7
 10
212.3490753173828
 20
111.6642684936523
 11
210.8931884765625
 21
107.6642684936523
  0
LINE
  8
0
  6
CONTINUOUS
 62
     7
 10
213.7486572265625
 20
111.9642333984375
 11
214.1770782470703
 21
111.6642456054688
  0
LINE
  8
0
  6
CONTINUOUS
 62
     7
 10
212.7774963378906
 20
111.9642639160156
 11
213.7486267089844
 21
111.9642639160156
  0
LINE
  8
0
  6
CONTINUOUS
 62
     7
 10
218.7774963378906
 20
111.9642639160156
 11
219.7486267089844
 21
111.9642639160156
  0
LINE
  8
0
  6
CONTINUOUS
 62
     7
 10
220.1771392822266
 20
111.6642532348633
 11
221.6330261230469
 21
107.6642532348633
  0
LINE
  8
0
  6
CONTINUOUS
 62
     7
 10
215.6329650878906
 20
107.6642761230469
 11
216.8932189941406
 21
107.6642761230469
  0
LINE
  8
0
  6
CONTINUOUS
 62
     7
 10
218.3490753173828
 20
111.6642761230469
 11
216.8931884765625
 21
107.6642761230469
  0
LINE
  8
0
  6
CONTINUOUS
 62
     7
 10
219.7486572265625
 20
111.964225769043
 11
220.1770782470703
 21
111.6642456054688
  0
LINE
  8
0
  6
CONTINUOUS
 62
     7
 10
218.7775573730469
 20
111.9641876220703
 11
218.3491058349609
 21
111.6641845703125
  0
LINE
  8
0
  6
CONTINUOUS
 62
     7
 10
221.6329650878906
 20
107.6642761230469
 11
222.8932189941406
 21
107.6642761230469
  0
LINE
  8
0
  6
CONTINUOUS
 62
     7
 10
224.2630767822266
 20
111.4280242919922
 11
222.8931884765625
 21
107.6642608642578
  0
LINE
  8
0
  6
CONTINUOUS
 62
     7
 10
109.7630157470703
 20
52.65425872802734
 11
123.6630401611328
 21
52.65425872802734
  0
LINE
  8
0
  6
CONTINUOUS
 62
     7
 10
109.7630157470703
 20
101.4542617797852
 11
123.6630401611328
 21
101.4542617797852
  0
LINE
  8
0
  6
CONTINUOUS
 62
     7
 10
164.863037109375
 20
101.4542617797852
 11
178.7630462646484
 21
101.4542617797852
  0
LINE
  8
0
  6
CONTINUOUS
 62
     7
 10
164.863037109375
 20
52.65425872802734
 11
178.7630462646484
 21
52.65425872802734
  0
LINE
  8
0
  6
CONTINUOUS
 62
     7
 10
109.7630157470703
 20
66.65425872802734
 11
111.7630157470703
 21
66.65425872802734
  0
LINE
  8
0
  6
CONTINUOUS
 62
     7
 10
176.7630462646484
 20
66.65425872802734
 11
178.7630462646484
 21
66.65425872802734
  0
LINE
  8
0
  6
CONTINUOUS
 62
     7
 10
109.7630157470703
 20
92.45426177978516
 11
111.7630157470703
 21
92.45426177978516
  0
LINE
  8
0
  6
CONTINUOUS
 62
     7
 10
176.7630462646484
 20
92.45426177978516
 11
178.7630462646484
 21
92.45426177978516
  0
LINE
  8
0
  6
CONTINUOUS
 62
     7
 10
109.7630157470703
 20
90.78425598144531
 11
111.4330139160156
 21
92.45425415039063
  0
LINE
  8
0
  6
CONTINUOUS
 62
     7
 10
109.7630157470703
 20
90.78426361083984
 11
109.7630157470703
 21
52.65425872802734
  0
LINE
  8
0
  6
CONTINUOUS
 62
     7
 10
178.7631530761719
 20
90.78426361083984
 11
177.0931549072266
 21
92.45426177978516
  0
LINE
  8
0
  6
CONTINUOUS
 62
     7
 10
178.7630462646484
 20
90.78436279296875
 11
178.7630462646484
 21
52.65425872802734
  0
LINE
  8
0
  6
CONTINUOUS
 62
     7
 10
106.4631195068359
 20
82.55426025390625
 11
111.7630157470703
 21
82.55426025390625
  0
LINE
  8
0
  6
CONTINUOUS
 62
     7
 10
108.0831451416016
 20
74.55426025390625
 11
111.7630157470703
 21
74.55426025390625
  0
LINE
  8
0
  6
CONTINUOUS
 62
     7
 10
102.4631195068359
 20
78.55426025390625
 11
102.4631195068359
 21
76.88214111328125
  0
LINE
  8
0
  6
CONTINUOUS
 62
     7
 10
100.2457962036133
 20
69.03271484375
 11
104.680419921875
 21
67.19583129882813
  0
LINE
  8
0
  6
CONTINUOUS
 62
     7
 10
100.4475555419922
 20
71.87161254882813
 11
106.545166015625
 21
69.34590148925781
  0
LINE
  8
0
  6
CONTINUOUS
 62
     7
 10
100.2458114624023
 20
69.03271484375
 11
100.4475708007813
 21
71.87160491943359
  0
LINE
  8
0
  6
CONTINUOUS
 62
     7
 10
104.680419921875
 20
67.19582366943359
 11
106.5451736450195
 21
69.34590911865234
  0
LINE
  8
0
  6
CONTINUOUS
 62
     7
 10
101.186279296875
 20
75.59244537353516
 11
101.600944519043
 21
76.59352111816406
  0
LINE
  8
0
  6
CONTINUOUS
 62
     7
 10
108.6538696289063
 20
72.499267578125
 11
109.0685195922852
 21
73.50032806396484
  0
LINE
  8
0
  6
CONTINUOUS
 62
     7
 10
102.38037109375
 20
76.91633605957031
 11
101.6009292602539
 21
76.59348297119141
  0
LINE
  8
0
  6
CONTINUOUS
 62
     7
 10
102.8235702514648
 20
74.26484680175781
 11
103.6961441040039
 21
76.37141418457031
  0
LINE
  8
0
  6
CONTINUOUS
 62
     7
 10
106.5573501586914
 20
72.71826934814453
 11
107.4299240112305
 21
74.82483673095703
  0
LINE
  8
0
  6
CONTINUOUS
 62
     7
 10
102.3803863525391
 20
76.91643524169922
 11
108.7457046508789
 21
74.27983093261719
  0
LINE
  8
0
  6
CONTINUOUS
 62
     7
 10
109.0685501098633
 20
73.50032043457031
 11
108.7456893920898
 21
74.27976989746094
  0
LINE
  8
0
  6
CONTINUOUS
 62
     7
 10
101.4160537719727
 20
74.84785461425781
 11
107.96484375
 21
72.13523864746094
  0
LINE
  8
0
  6
CONTINUOUS
 62
     7
 10
64.26308441162109
 20
16
 11
64.26308441162109
 21
-0.5
  0
LINE
  8
0
  6
CONTINUOUS
 62
     7
 10
224.2630920410156
 20
16
 11
224.2630920410156
 21
-0.5
  0
LINE
  8
0
  6
CENTER
 62
     7
 10
84.26303100585938
 20
16.76495933532715
 11
84.26303100585938
 21
-1.52642822265625
  0
LINE
  8
0
  6
DASHED
 62
     7
 10
87.76303100585938
 20
7
 11
87.76303100585938
 21
0
  0
LINE
  8
0
  6
DASHED
 62
     7
 10
80.76303100585938
 20
7
 11
80.76303100585938
 21
0
  0
LINE
  8
0
  6
DASHED
 62
     7
 10
87.76303100585938
 20
0
 11
80.76303100585938
 21
0
  0
LINE
  8
0
  6
DASHED
 62
     7
 10
87.76280212402344
 20
-0.0002326213871128857
 11
88.26276397705078
 21
-0.5002322793006897
  0
LINE
  8
0
  6
DASHED
 62
     7
 10
80.76263427734375
 20
-0.0004307512426748872
 11
80.26251220703125
 21
-0.5005483031272888
  0
LINE
  8
0
  6
DASHED
 62
     7
 10
78.76303100585938
 20
16
 11
78.76303100585938
 21
7
  0
LINE
  8
0
  6
DASHED
 62
     7
 10
89.76303100585938
 20
16
 11
89.76303100585938
 21
7
  0
LINE
  8
0
  6
DASHED
 62
     7
 10
78.76303100585938
 20
7
 11
89.76303100585938
 21
7
  0
LINE
  8
0
  6
CENTER
 62
     7
 10
204.2630310058594
 20
16.76495933532715
 11
204.2630310058594
 21
-1.52642822265625
  0
LINE
  8
0
  6
CENTER
 62
     7
 10
147.3980255126953
 20
59.05426025390625
 11
141.1280364990234
 21
59.05426025390625
  0
LINE
  8
0
  6
CENTER
 62
     7
 10
144.2630310058594
 20
62.18925857543945
 11
144.2630310058594
 21
55.91926193237305
  0
LINE
  8
0
  6
CENTER
 62
     7
 10
147.3980255126953
 20
82.05426025390625
 11
141.1280364990234
 21
82.05426025390625
  0
LINE
  8
0
  6
CONTINUOUS
 62
     7
 10
175.2630462646484
 20
3.999990940093994
 11
113.2630157470703
 21
3.999990940093994
  0
LINE
  8
0
  6
CENTER
 62
     7
 10
-5.246251106262207
 20
22.49996948242188
 11
12.717209815979
 21
22.49996948242188
  0
LINE
  8
0
  6
CENTER
 62
     7
 10
113.0569381713867
 20
22.49994659423828
 11
99.03302001953125
 21
22.49994659423828
  0
LINE
  8
0
  6
CENTER
 62
     7
 10
102.0822982788086
 20
67.19448852539063
 11
106.787727355957
 21
78.55426025390625
  0
LINE
  8
0
  6
CONTINUOUS
 62
     7
 10
-29.11000442504883
 20
16
 11
-29.11000442504883
 21
-0.5
  0
ARC
  8
0
  6
CONTINUOUS
 62
     7
 10
106.7630920410156
 20
22.50001525878906
 40
3.999999999999999
 50
90.00001616485642
 51
118.4958454199057
  0
ARC
  8
0
  6
CONTINUOUS
 62
     7
 10
113.0630798339844
 20
21.97001647949219
 40
3.318496704101556
 50
186.054315652478
 51
212.4448005675733
  0
ARC
  8
0
  6
CONTINUOUS
 62
     7
 10
111.6630859375
 20
18.9100341796875
 40
1.896939277648931
 50
137.5635615824253
 51
178.1912206525752
  0
ARC
  8
0
  6
CONTINUOUS
 62
     7
 10
106.7630920410156
 20
22.50001525878906
 40
3.982465744018555
 50
241.5040452970675
 51
269.9998745521167
  0
CIRCLE
  8
0
  6
CONTINUOUS
 62
     7
 10
84.26308441162109
 20
78.55426025390625
 40
5.5
  0
CIRCLE
  8
0
  6
CONTINUOUS
 62
     7
 10
84.26308441162109
 20
78.55426025390625
 40
3.5
  0
ARC
  8
0
  6
CONTINUOUS
 62
     7
 10
-10.599853515625
 20
16.11698913574219
 40
1.479999542236328
 50
266.3541108184608
 51
3.645889665268816
  0
ARC
  8
0
  6
CONTINUOUS
 62
     7
 10
11.5732421875
 20
10.21798706054688
 40
1.479999542236329
 50
83.0189686066457
 51
196.9810300781453
  0
ARC
  8
0
  6
CONTINUOUS
 62
     7
 10
-12.01416015625
 20
17.53118896484375
 40
1.479999542236327
 50
266.3570068186688
 51
3.642995799494871
  0
ARC
  8
0
  6
CONTINUOUS
 62
     7
 10
13.105224609375
 20
8.932418823242188
 40
1.479999542236329
 50
83.0150002667379
 51
196.9850052482422
  0
ARC
  8
0
  6
CONTINUOUS
 62
     7
 10
7.610107421875
 20
20.2099609375
 40
0.9683421850204466
 50
215.3314570768741
 51
278.2972225067941
  0
ARC
  8
0
  6
CONTINUOUS
 62
     7
 10
6.6201171875
 20
18.41996765136719
 40
1.246148109436035
 50
80.76452806729958
 51
142.1250351177266
  0
ARC
  8
0
  6
CONTINUOUS
 62
     7
 10
6.6201171875
 20
26.57997131347656
 40
1.254199028015136
 50
217.8749648822735
 51
279.2353626496737
  0
ARC
  8
0
  6
CONTINUOUS
 62
     7
 10
7.610107421875
 20
24.78996276855469
 40
0.9701611399650563
 50
81.7028867762326
 51
144.668542923126
  0
ARC
  8
0
  6
CONTINUOUS
 62
     7
 10
0
 20
22.49996948242188
 40
4
 50
240.0000239814524
 51
241.0449882829511
  0
ARC
  8
0
  6
CONTINUOUS
 62
     7
 10
0
 20
22.49996948242188
 40
3.998106002807619
 50
61.09402038976974
 51
298.9059076658729
  0
ARC
  8
0
  6
CONTINUOUS
 62
     7
 10
0
 20
22.49996948242188
 40
5.000000000000001
 50
224.4265096549064
 51
315.5734887512319
  0
ARC
  8
0
  6
CONTINUOUS
 62
     7
 10
-26.27487182617188
 20
14.15000152587891
 40
1.999999999999999
 50
19.99999941818585
 51
67.66832335271717
  0
ARC
  8
0
  6
CONTINUOUS
 62
     7
 10
-20.19915771484375
 20
15
 40
4
 50
200.0000046545132
 51
269.9999974955218
  0
ARC
  8
0
  6
CONTINUOUS
 62
     7
 10
-12.5
 20
12
 40
0.9999999999999991
 50
269.9999974955218
 51
0
  0
ARC
  8
0
  6
CONTINUOUS
 62
     7
 10
-10.599853515625
 20
16.11698913574219
 40
2.479999542236329
 50
261.5496396430578
 51
353.4503599963719
  0
ARC
  8
0
  6
CONTINUOUS
 62
     7
 10
11.5732421875
 20
10.21798706054688
 40
2.47999954223633
 50
96.75393944259692
 51
183.2460660723833
  0
CIRCLE
  8
0
  6
CONTINUOUS
 62
     7
 10
-9.099853515625
 20
23.29998779296875
 40
3.5
  0
CIRCLE
  8
0
  6
CONTINUOUS
 62
     7
 10
-9.099853515625
 20
23.29998779296875
 40
3.150000095367432
  0
CIRCLE
  8
0
  6
CONTINUOUS
 62
     7
 10
19.5
 20
16.69999694824219
 40
3.5
  0
CIRCLE
  8
0
  6
CONTINUOUS
 62
     7
 10
19.5
 20
16.69999694824219
 40
3.150000095367432
  0
ARC
  8
0
  6
CONTINUOUS
 62
     7
 10
103.4963684082031
 20
70.60873413085938
 40
3.299999237060547
 50
131.5803705110074
 51
157.4999548639652
  0
ARC
  8
0
  6
CONTINUOUS
 62
     7
 10
103.4963684082031
 20
70.60873413085938
 40
3.29999923706055
 50
337.5000181569006
 51
3.419602296415172
  0
ARC
  8
0
  6
CONTINUOUS
 62
     7
 10
95.58001708984375
 20
73.454833984375
 40
5.999999999999996
 50
2.433650829345525
 51
20.87173987704918
  0
ARC
  8
0
  6
CONTINUOUS
 62
     7
 10
111.1065521240234
 20
67.02352905273438
 40
6.000000000000004
 50
114.1278165022774
 51
132.5663219780771
  0
ARC
  8
0
  6
CONTINUOUS
 62
     7
 10
100.7753143310547
 20
73.67562866210938
 40
0.7999999523162822
 50
311.5798327472963
 51
2.433049772698627
  0
ARC
  8
0
  6
CONTINUOUS
 62
     7
 10
107.5890502929688
 20
70.85328674316406
 40
0.7999999523162843
 50
132.566977676238
 51
183.4201402735703
  0
ARC
  8
0
  6
CONTINUOUS
 62
     7
 10
106.4631195068359
 20
78.55426025390625
 40
3.999999999999998
 50
89.99998201391055
 51
180.0000186693347
  0
CIRCLE
  8
0
  6
CONTINUOUS
 62
     7
 10
144.2630310058594
 20
59.05426025390625
 40
3
  0
CIRCLE
  8
0
  6
CONTINUOUS
 62
     7
 10
144.2630310058594
 20
59.05426025390625
 40
2.75
  0
POLYLINE
  8
0
  6
CONTINUOUS
 62
     7
 66
     1
 10
0
 20
0
 70
     1
  0
VERTEX
  8
0
  6
CONTINUOUS
 62
     7
 10
102.4630737304688
 20
25.00001525878906
 42
0.110379991357431
  0
VERTEX
  8
0
  6
CONTINUOUS
 62
     7
 10
101.5509149415069
 20
24.79500760225148
 42
0.1025079525662658
  0
VERTEX
  8
0
  6
CONTINUOUS
 62
     7
 10
100.8035801783606
 20
24.23100090945212
 42
0.09329005945263932
  0
VERTEX
  8
0
  6
CONTINUOUS
 62
     7
 10
100.325976939245
 20
23.42410765726383
 42
0.08782011081069788
  0
VERTEX
  8
0
  6
CONTINUOUS
 62
     7
 10
100.1630859375
 20
22.5
 42
0.08777383747249941
  0
VERTEX
  8
0
  6
CONTINUOUS
 62
     7
 10
100.3258162657735
 20
21.576382700137
 42
0.09326043171588862
  0
VERTEX
  8
0
  6
CONTINUOUS
 62
     7
 10
100.8031186192576
 20
20.76957974174852
 42
0.1026292568409215
  0
VERTEX
  8
0
  6
CONTINUOUS
 62
     7
 10
101.551326666788
 20
20.20484987340542
 42
0.1103288145292761
  0
VERTEX
  8
0
  6
CONTINUOUS
 62
     7
 10
102.4631042480469
 20
20.00001525878906
 42
0.1103779382773467
  0
VERTEX
  8
0
  6
CONTINUOUS
 62
     7
 10
103.3752614024901
 20
20.20503174790582
 42
0.1025061540274367
  0
VERTEX
  8
0
  6
CONTINUOUS
 62
     7
 10
104.1225955425051
 20
20.76903968185314
 42
0.09328985563667593
  0
VERTEX
  8
0
  6
CONTINUOUS
 62
     7
 10
104.600200956957
 20
21.57593175376556
 42
0.0878207389437113
  0
VERTEX
  8
0
  6
CONTINUOUS
 62
     7
 10
104.7630920410156
 20
22.50003051757812
 42
0.08777238282641894
  0
VERTEX
  8
0
  6
CONTINUOUS
 62
     7
 10
104.6003647580797
 20
23.42364860672287
 42
0.09326057601596829
  0
VERTEX
  8
0
  6
CONTINUOUS
 62
     7
 10
104.1230672371443
 20
24.23045447804267
 42
0.1026309763401176
  0
VERTEX
  8
0
  6
CONTINUOUS
 62
     7
 10
103.3748605804598
 20
24.795185891185
 42
0.1103318303396772
  0
SEQEND
  8
0
  0
POLYLINE
  8
0
  6
CONTINUOUS
 62
     7
 66
     1
 10
0
 20
0
  0
VERTEX
  8
0
  6
CONTINUOUS
 62
     7
 10
103.5630950927734
 20
25.75001525878906
 42
0.01434927718831629
  0
VERTEX
  8
0
  6
CONTINUOUS
 62
     7
 10
103.4042143004415
 20
25.74545506341087
 42
0.01426062996637267
  0
VERTEX
  8
0
  6
CONTINUOUS
 62
     7
 10
103.2466034808456
 20
25.7318804870953
 42
0.0141757546999082
  0
VERTEX
  8
0
  6
CONTINUOUS
 62
     7
 10
103.0905046402839
 20
25.70943856116742
 42
0.01415095489084524
  0
VERTEX
  8
0
  6
CONTINUOUS
 62
     7
 10
102.9355426605018
 20
25.67811599968811
 42
0.01410167325598083
  0
VERTEX
  8
0
  6
CONTINUOUS
 62
     7
 10
102.7822808153131
 20
25.63800907791174
 42
0.01402967401227921
  0
VERTEX
  8
0
  6
CONTINUOUS
 62
     7
 10
102.6312640958058
 20
25.58926561236559
 42
0.01393709629375067
  0
VERTEX
  8
0
  6
CONTINUOUS
 62
     7
 10
102.4830137303332
 20
25.53208074782886
 42
0.0138263770428755
  0
VERTEX
  8
0
  6
CONTINUOUS
 62
     7
 10
102.3380225643477
 20
25.46669196722924
 42
0.01370016628603403
  0
VERTEX
  8
0
  6
CONTINUOUS
 62
     7
 10
102.1967514174309
 20
25.3933735419866
 42
0.01356124051163604
  0
VERTEX
  8
0
  6
CONTINUOUS
 62
     7
 10
102.0596264814975
 20
25.31243065702287
 42
0.01332242913670678
  0
VERTEX
  8
0
  6
CONTINUOUS
 62
     7
 10
101.9279169225249
 20
25.22481286554795
 42
0.01328785245683456
  0
VERTEX
  8
0
  6
CONTINUOUS
 62
     7
 10
101.7998964571912
 20
25.12945030159864
 42
0.01315493145917002
  0
VERTEX
  8
0
  6
CONTINUOUS
 62
     7
 10
101.6768443674595
 20
25.02724533226946
 42
0.01293840499595647
  0
VERTEX
  8
0
  6
CONTINUOUS
 62
     7
 10
101.5598000965497
 20
24.91923116676402
 42
0.01278040287111733
  0
VERTEX
  8
0
  6
CONTINUOUS
 62
     7
 10
101.4484637035331
 20
24.80534232651353
 42
0.01262538111114412
  0
VERTEX
  8
0
  6
CONTINUOUS
 62
     7
 10
101.3430543062588
 20
24.68594538877225
 42
0
  0
SEQEND
  8
0
  0
POLYLINE
  8
0
  6
CONTINUOUS
 62
     7
 66
     1
 10
0
 20
0
  0
VERTEX
  8
0
  6
CONTINUOUS
 62
     7
 10
101.3390262870579
 20
20.31890844041903
 42
0.06283167356022086
  0
VERTEX
  8
0
  6
CONTINUOUS
 62
     7
 10
101.9033249284442
 20
19.79273592408725
 42
0.0664965060985248
  0
VERTEX
  8
0
  6
CONTINUOUS
 62
     7
 10
102.5833246301252
 20
19.42822967727056
 42
0.0691550511729562
  0
VERTEX
  8
0
  6
CONTINUOUS
 62
     7
 10
103.3356787347592
 20
19.25936783029573
 42
0.06975554826659672
  0
VERTEX
  8
0
  6
CONTINUOUS
 62
     7
 10
104.1044335151062
 20
19.3033669269275
 42
0.06816295161425541
  0
VERTEX
  8
0
  6
CONTINUOUS
 62
     7
 10
104.832276545488
 20
19.5551905121244
 42
0.06499540451513582
  0
VERTEX
  8
0
  6
CONTINUOUS
 62
     7
 10
105.4688421604307
 20
19.9900223759462
 42
0.06129062659736665
  0
VERTEX
  8
0
  6
CONTINUOUS
 62
     7
 10
105.9769003079382
 20
20.57012299684754
 42
0.05807960403260098
  0
VERTEX
  8
0
  6
CONTINUOUS
 62
     7
 10
106.3338985120492
 20
21.25411655066872
 42
0.05590563217240747
  0
VERTEX
  8
0
  6
CONTINUOUS
 62
     7
 10
106.5275579685005
 20
22.00126043700589
 42
0.05496399504381776
  0
VERTEX
  8
0
  6
CONTINUOUS
 62
     7
 10
106.5525726136175
 20
22.77198314364185
 42
0.05547349654934255
  0
VERTEX
  8
0
  6
CONTINUOUS
 62
     7
 10
106.4084940817242
 20
23.52987268056835
 42
0.05728029571252671
  0
VERTEX
  8
0
  6
CONTINUOUS
 62
     7
 10
106.0990855698967
 20
24.23631500445674
 42
0.06026846382345679
  0
VERTEX
  8
0
  6
CONTINUOUS
 62
     7
 10
105.6338474620497
 20
24.85162486875753
 42
0.06395286883270726
  0
VERTEX
  8
0
  6
CONTINUOUS
 62
     7
 10
105.0316410561377
 20
25.33400361313451
 42
0.06744550941523773
  0
VERTEX
  8
0
  6
CONTINUOUS
 62
     7
 10
104.3249831001804
 20
25.64346422820446
 42
0.06944200148206736
  0
VERTEX
  8
0
  6
CONTINUOUS
 62
     7
 10
103.5630950927734
 20
25.75001525878906
 42
0
  0
SEQEND
  8
0
  0
POLYLINE
  8
0
  6
CONTINUOUS
 62
     7
 66
     1
 10
0
 20
0
  0
VERTEX
  8
0
  6
CONTINUOUS
 62
     7
 10
7.75
 20
25.74996948242188
 42
0.1886502196664342
  0
VERTEX
  8
0
  6
CONTINUOUS
 62
     7
 10
7.335177207026925
 20
25.56578247508368
 42
0.07588846084065969
  0
VERTEX
  8
0
  6
CONTINUOUS
 62
     7
 10
7.053717023031443
 20
25.1990661820471
 42
0.03946185845705884
  0
VERTEX
  8
0
  6
CONTINUOUS
 62
     7
 10
6.858297885629552
 20
24.77754266632906
 42
0.02589526883165907
  0
VERTEX
  8
0
  6
CONTINUOUS
 62
     7
 10
6.718131554486151
 20
24.33428580678804
 42
0.01963286693823986
  0
VERTEX
  8
0
  6
CONTINUOUS
 62
     7
 10
6.61819876927746
 20
23.87948778721556
 42
0.01635593414064777
  0
VERTEX
  8
0
  6
CONTINUOUS
 62
     7
 10
6.55096929221706
 20
23.41854952196101
 42
0.01463211732221324
  0
VERTEX
  8
0
  6
CONTINUOUS
 62
     7
 10
6.512273801388
 20
22.95427585600716
 42
0.01388379856540303
  0
VERTEX
  8
0
  6
CONTINUOUS
 62
     7
 10
6.500007677850315
 20
22.48856323214865
 42
0.01386100595531269
  0
VERTEX
  8
0
  6
CONTINUOUS
 62
     7
 10
6.51346395625239
 20
22.02422917869593
 42
0.014671902446611
  0
VERTEX
  8
0
  6
CONTINUOUS
 62
     7
 10
6.553359381972844
 20
21.56052796450706
 42
0.01650637685063009
  0
VERTEX
  8
0
  6
CONTINUOUS
 62
     7
 10
6.622156234447338
 20
21.09868494686036
 42
0.01985520725767553
  0
VERTEX
  8
0
  6
CONTINUOUS
 62
     7
 10
6.72384664851963
 20
20.64408193531294
 42
0.02639137344488516
  0
VERTEX
  8
0
  6
CONTINUOUS
 62
     7
 10
6.866592378731086
 20
20.20062818136035
 42
0.04065115561277712
  0
VERTEX
  8
0
  6
CONTINUOUS
 62
     7
 10
7.066021972635495
 20
19.77967052211112
 42
0.0798937014657613
  0
VERTEX
  8
0
  6
CONTINUOUS
 62
     7
 10
7.355350653766747
 20
19.41619578481975
 42
0.197749222305275
  0
VERTEX
  8
0
  6
CONTINUOUS
 62
     7
 10
7.777835383378688
 20
19.2507758908732
 42
0
  0
SEQEND
  8
0
  0
POLYLINE
  8
0
  6
CONTINUOUS
 62
     7
 66
     1
 10
0
 20
0
 70
     1
  0
VERTEX
  8
0
  6
CONTINUOUS
 62
     7
 10
10.52001953125
 20
24.99996948242188
 42
0.2551560063233631
  0
VERTEX
  8
0
  6
CONTINUOUS
 62
     7
 10
9.990203954015529
 20
24.57508411480912
 42
0.0631925486518379
  0
VERTEX
  8
0
  6
CONTINUOUS
 62
     7
 10
9.73610315636347
 20
23.91219780377108
 42
0.03518717756347192
  0
VERTEX
  8
0
  6
CONTINUOUS
 62
     7
 10
9.609370436867497
 20
23.21214678466991
 42
0.02798599380229017
  0
VERTEX
  8
0
  6
CONTINUOUS
 62
     7
 10
9.57000732421875
 20
22.49996948242188
 42
0.02790010084291921
  0
VERTEX
  8
0
  6
CONTINUOUS
 62
     7
 10
9.609141762675712
 20
21.78982020415069
 42
0.03516095917852428
  0
VERTEX
  8
0
  6
CONTINUOUS
 62
     7
 10
9.735638639475083
 20
21.08952843134104
 42
0.06315687563395316
  0
VERTEX
  8
0
  6
CONTINUOUS
 62
     7
 10
9.989676268795213
 20
20.42578851944424
 42
0.2552812829958867
  0
VERTEX
  8
0
  6
CONTINUOUS
 62
     7
 10
10.52001953125
 20
19.99996948242188
 42
0.2551560063233976
  0
VERTEX
  8
0
  6
CONTINUOUS
 62
     7
 10
11.04983510848447
 20
20.42485485003464
 42
0.06319254865188026
  0
VERTEX
  8
0
  6
CONTINUOUS
 62
     7
 10
11.30393590613653
 20
21.08774116107266
 42
0.03518717756346702
  0
VERTEX
  8
0
  6
CONTINUOUS
 62
     7
 10
11.4306686256325
 20
21.78779218017385
 42
0.02798599380229128
  0
VERTEX
  8
0
  6
CONTINUOUS
 62
     7
 10
11.47003173828125
 20
22.49996948242188
 42
0.02790010084292594
  0
VERTEX
  8
0
  6
CONTINUOUS
 62
     7
 10
11.43089729982429
 20
23.21011876069307
 42
0.03516095917850352
  0
VERTEX
  8
0
  6
CONTINUOUS
 62
     7
 10
11.30440042302492
 20
23.91041053350272
 42
0.06315687563392568
  0
VERTEX
  8
0
  6
CONTINUOUS
 62
     7
 10
11.05036279370479
 20
24.57415044539951
 42
0.255281282995817
  0
SEQEND
  8
0
  0
TEXT
  8
0
  6
CONTINUOUS
 62
     7
 10
1.35891592502594
 20
-23.16970324516296
 40
3.599999904632568
 41
1.028985572513944
  1
GSR25V-R
  0
ENDSEC
  0
EOF
