  0
SECTION
  2
HEADER
  0
ENDSEC
  0
SECTION
  2
TABLES
  0
TABLE
  2
LTYPE
 70
    22
  0
LTYPE
  2
CONTINUOUS
 70
    64
  3
Solid line
 72
    65
 73
     0
 40
0.000000
  0
LTYPE
  2
DASHED
 70
    64
  3
__ __ __ __ __ __ __ __ __ __ __ __ __ __ __
 72
    65
 73
     2
 40
3.500000
 49
2.000000
 49
-1.500000
  0
LTYPE
  2
CENTER
 70
    64
  3
____ _ ____ _ ____ _ ____ _ ____ _ ____ _ ____
 72
    65
 73
     4
 40
17.500000
 49
13.000000
 49
-1.500000
 49
1.500000
 49
-1.500000
  0
LTYPE
  2
PHANTOM
 70
    64
  3
_____ _ _ _____ _ _ _____ _ _ _____ _ _ ____  
 72
    65
 73
     6
 40
15.500000
 49
8.000000
 49
-1.500000
 49
1.500000
 49
-1.500000
 49
1.500000
 49
-1.500000
  0
LTYPE
  2
DOT
 70
    64
  3
. . . . . . . . . . . . . . . . . . . . . . . .
 72
    65
 73
     2
 40
0.25
 49
0.0
 49
-0.25
  0
ENDTAB
  0
TABLE
  2
LAYER
 70
     1
  0
LAYER
  2
0
 70
     0
 62
     7
  6
CONTINUOUS
  0
ENDTAB
  0
TABLE
  2
STYLE
 70
     1
  0
STYLE
  2
STANDARD
 70
     0
 40
0.000000
 41
1.000000
 50
0.000000
 71
     0
 42
0.200000
  3
txt
  0
ENDTAB
  0
TABLE
  2
VIEW
 70
     0
  0
ENDTAB
  0
ENDSEC
  0
SECTION
  2
BLOCKS
  0
ENDSEC
  0
SECTION
  2
ENTITIES
  0
LINE
  8
0
  6
CONTINUOUS
 62
     7
 10
103.1999816894531
 20
3
 11
136.7999572753906
 21
3
  0
LINE
  8
0
  6
CENTER
 62
     7
 10
0
 20
17.74996185302734
 11
0
 21
-1
  0
LINE
  8
0
  6
CONTINUOUS
 62
     7
 10
-3.499755859375
 20
0
 11
-15.99982452392578
 21
0
  0
LINE
  8
0
  6
CONTINUOUS
 62
     7
 10
-3.499755859375
 20
9
 11
-14.8797607421875
 21
9
  0
LINE
  8
0
  6
CONTINUOUS
 62
     7
 10
-16.499755859375
 20
7.3800048828125
 11
-16.499755859375
 21
6.6199951171875
  0
LINE
  8
0
  6
CONTINUOUS
 62
     7
 10
-14.87962436676025
 20
8.999577522277832
 11
-15.61240863800049
 21
8.266789436340332
  0
LINE
  8
0
  6
CONTINUOUS
 62
     7
 10
-14.34959411621094
 20
4.469669818878174
 11
-15.61197662353516
 21
5.732052326202393
  0
LINE
  8
0
  6
CONTINUOUS
 62
     7
 10
-14.349853515625
 20
4.470001220703125
 11
-14.349853515625
 21
3.041305541992188
  0
LINE
  8
0
  6
CONTINUOUS
 62
     7
 10
-16.499755859375
 20
1.800003051757813
 11
-16.499755859375
 21
0.5
  0
LINE
  8
0
  6
CONTINUOUS
 62
     7
 10
-16.33614158630371
 20
7.54301118850708
 11
-16.49958229064941
 21
7.379570007324219
  0
LINE
  8
0
  6
CONTINUOUS
 62
     7
 10
-16.33806991577148
 20
6.458524227142334
 11
-16.49948501586914
 21
6.619934558868408
  0
LINE
  8
0
  6
CONTINUOUS
 62
     7
 10
-16.49959373474121
 20
0.4997685551643372
 11
-15.99973297119141
 21
-9.171153942588717E-005
  0
LINE
  8
0
  6
CONTINUOUS
 62
     7
 10
3.000244140625
 20
8.5
 11
-2.999755859375
 21
8.5
  0
LINE
  8
0
  6
CONTINUOUS
 62
     7
 10
-2.999733686447144
 20
8.500116348266602
 11
-3.499592065811157
 21
8.999978065490723
  0
LINE
  8
0
  6
CONTINUOUS
 62
     7
 10
3.000244140625
 20
0.5
 11
-2.999755859375
 21
0.5
  0
LINE
  8
0
  6
CONTINUOUS
 62
     7
 10
-2.999630451202393
 20
0.4996459484100342
 11
-3.499639749526978
 21
-0.0003672873426694423
  0
LINE
  8
0
  6
CENTER
 62
     7
 10
-8.999755859375
 20
10
 11
-8.999755859375
 21
-1
  0
LINE
  8
0
  6
DASHED
 62
     7
 10
-12.749755859375
 20
9
 11
-12.749755859375
 21
3.699996948242188
  0
LINE
  8
0
  6
DASHED
 62
     7
 10
-11.249755859375
 20
3.699996948242188
 11
-11.249755859375
 21
0
  0
LINE
  8
0
  6
DASHED
 62
     7
 10
-5.249755859375
 20
3.699996948242188
 11
-12.749755859375
 21
3.699996948242188
  0
LINE
  8
0
  6
DASHED
 62
     7
 10
-6.749755859375
 20
3.699996948242188
 11
-6.749755859375
 21
0
  0
LINE
  8
0
  6
DASHED
 62
     7
 10
-5.249755859375
 20
9
 11
-5.249755859375
 21
3.699996948242188
  0
LINE
  8
0
  6
CONTINUOUS
 62
     7
 10
3.500244140625
 20
0
 11
16.000244140625
 21
0
  0
LINE
  8
0
  6
CONTINUOUS
 62
     7
 10
3.500244140625
 20
9
 11
14.88011360168457
 21
9
  0
LINE
  8
0
  6
CONTINUOUS
 62
     7
 10
16.500244140625
 20
7.379841804504395
 11
16.500244140625
 21
6.6199951171875
  0
LINE
  8
0
  6
CONTINUOUS
 62
     7
 10
14.88011360168457
 20
9
 11
15.61306762695313
 21
8.26704216003418
  0
LINE
  8
0
  6
CONTINUOUS
 62
     7
 10
14.35005474090576
 20
4.469950675964356
 11
15.61268997192383
 21
5.732585906982422
  0
LINE
  8
0
  6
CONTINUOUS
 62
     7
 10
14.3502197265625
 20
4.470115184783936
 11
14.3502197265625
 21
3.041305541992188
  0
LINE
  8
0
  6
CONTINUOUS
 62
     7
 10
16.500244140625
 20
1.800003051757813
 11
16.500244140625
 21
0.5
  0
LINE
  8
0
  6
CONTINUOUS
 62
     7
 10
16.33724594116211
 20
7.542840480804443
 11
16.500244140625
 21
7.379841804504395
  0
LINE
  8
0
  6
CONTINUOUS
 62
     7
 10
16.33921432495117
 20
6.458695888519287
 11
16.500244140625
 21
6.61972188949585
  0
LINE
  8
0
  6
CONTINUOUS
 62
     7
 10
16.4999885559082
 20
0.4999843537807465
 11
15.9999885559082
 21
-1.618438909645192E-005
  0
LINE
  8
0
  6
CONTINUOUS
 62
     7
 10
3.000366687774658
 20
8.499698638916016
 11
3.500365257263184
 21
8.999701499938965
  0
LINE
  8
0
  6
CONTINUOUS
 62
     7
 10
3.00019907951355
 20
0.5002567768096924
 11
3.500208377838135
 21
0.0002435026253806427
  0
LINE
  8
0
  6
CENTER
 62
     7
 10
9.000244140625
 20
10
 11
9.000244140625
 21
-1
  0
LINE
  8
0
  6
CONTINUOUS
 62
     7
 10
5.500244140625
 20
17
 11
-5.499755859375
 21
17
  0
LINE
  8
0
  6
CONTINUOUS
 62
     7
 10
-29.999755859375
 20
16.49998474121094
 11
-29.999755859375
 21
11.49999237060547
  0
LINE
  8
0
  6
DASHED
 62
     7
 10
-23.499755859375
 20
11
 11
-23.7664794921875
 21
11
  0
LINE
  8
0
  6
CONTINUOUS
 62
     7
 10
-24.04391288757324
 20
4.71198320388794
 11
-25.33164405822754
 21
9.517852783203125
  0
LINE
  8
0
  6
CONTINUOUS
 62
     7
 10
-29.49957466125488
 20
16.99956321716309
 11
-29.99956512451172
 21
16.49957275390625
  0
LINE
  8
0
  6
CONTINUOUS
 62
     7
 10
-29.49953269958496
 20
10.99969387054443
 11
-29.99956512451172
 21
11.49972724914551
  0
LINE
  8
0
  6
CONTINUOUS
 62
     7
 10
-5.999755859375
 20
16.49999237060547
 11
-12.999755859375
 21
16.49999237060547
  0
LINE
  8
0
  6
CONTINUOUS
 62
     7
 10
-12.99962329864502
 20
16.4997501373291
 11
-13.49957180023193
 21
16.99969482421875
  0
LINE
  8
0
  6
CONTINUOUS
 62
     7
 10
-5.99954891204834
 20
16.49951934814453
 11
-5.49954891204834
 21
16.99951934814453
  0
LINE
  8
0
  6
CONTINUOUS
 62
     7
 10
-13.499755859375
 20
17
 11
-29.499755859375
 21
17
  0
LINE
  8
0
  6
CENTER
 62
     7
 10
-26.499755859375
 20
17.99264526367188
 11
-26.499755859375
 21
9.312797546386719
  0
LINE
  8
0
  6
CONTINUOUS
 62
     7
 10
5.999989032745361
 20
16.50008773803711
 11
5.500150203704834
 21
16.99992752075195
  0
LINE
  8
0
  6
CONTINUOUS
 62
     7
 10
-21.8997802734375
 20
16.49999237060547
 11
21.90020751953125
 21
16.49999237060547
  0
LINE
  8
0
  6
CONTINUOUS
 62
     7
 10
13.00007343292236
 20
16.49989891052246
 11
13.50005435943604
 21
16.99987602233887
  0
LINE
  8
0
  6
CONTINUOUS
 62
     7
 10
13.500244140625
 20
17
 11
29.50000953674316
 21
17
  0
LINE
  8
0
  6
CONTINUOUS
 62
     7
 10
24.04520416259766
 20
4.711616039276123
 11
25.33293342590332
 21
9.517473220825195
  0
LINE
  8
0
  6
CENTER
 62
     7
 10
26.5
 20
17.99264526367188
 11
26.5
 21
9.312797546386719
  0
LINE
  8
0
  6
CONTINUOUS
 62
     7
 10
15.5184326171875
 20
3
 11
21.90005493164063
 21
3
  0
LINE
  8
0
  6
CENTER
 62
     7
 10
19.2183837890625
 20
5.319808959960938
 11
19.2183837890625
 21
1.918365478515625
  0
LINE
  8
0
  6
CONTINUOUS
 62
     7
 10
16.49993896484375
 20
1.800097942352295
 11
14.35023021697998
 21
3.041233062744141
  0
LINE
  8
0
  6
CONTINUOUS
 62
     7
 10
-16.4996280670166
 20
1.800148248672485
 11
-14.3496561050415
 21
3.041435956954956
  0
LINE
  8
0
  6
CONTINUOUS
 62
     7
 10
27.26416015625
 20
11
 11
29.4998779296875
 21
11
  0
LINE
  8
0
  6
CONTINUOUS
 62
     7
 10
23.4000244140625
 20
15
 11
23.4000244140625
 21
4.5
  0
LINE
  8
0
  6
CONTINUOUS
 62
     7
 10
21.89997482299805
 20
16.50009727478027
 11
23.39998817443848
 21
15.00008583068848
  0
LINE
  8
0
  6
CONTINUOUS
 62
     7
 10
21.90016174316406
 20
2.999748706817627
 11
23.40021514892578
 21
4.499807357788086
  0
LINE
  8
0
  6
CONTINUOUS
 62
     7
 10
22.50003051757813
 20
3.599990844726563
 11
22.59573364257813
 21
3.599990844726563
  0
LINE
  8
0
  6
CONTINUOUS
 62
     7
 10
29.99993896484375
 20
11.49999237060547
 11
29.99993896484375
 21
16.49998474121094
  0
LINE
  8
0
  6
CONTINUOUS
 62
     7
 10
29.99997329711914
 20
16.50003814697266
 11
29.49996185302734
 21
17.00004959106445
  0
LINE
  8
0
  6
CONTINUOUS
 62
     7
 10
29.99987411499023
 20
11.50004959106445
 11
29.49987411499023
 21
11.00004863739014
  0
LINE
  8
0
  6
DASHED
 62
     7
 10
-23.499755859375
 20
11
 11
-23.499755859375
 21
3.903182983398438
  0
LINE
  8
0
  6
DASHED
 62
     7
 10
-28.499755859375
 20
17
 11
-28.499755859375
 21
10.99999237060547
  0
LINE
  8
0
  6
DASHED
 62
     7
 10
-28.1497802734375
 20
17
 11
-28.1497802734375
 21
10.99999237060547
  0
LINE
  8
0
  6
DASHED
 62
     7
 10
-24.499755859375
 20
10.99999237060547
 11
-24.499755859375
 21
17
  0
LINE
  8
0
  6
DASHED
 62
     7
 10
-24.849853515625
 20
10.99999237060547
 11
-24.849853515625
 21
17
  0
LINE
  8
0
  6
CONTINUOUS
 62
     7
 10
97.89987182617188
 20
3.041275024414063
 11
103.1999816894531
 21
3.041275024414063
  0
LINE
  8
0
  6
CONTINUOUS
 62
     7
 10
45
 20
9
 11
94.49996948242188
 21
9
  0
LINE
  8
0
  6
CONTINUOUS
 62
     7
 10
103.1999816894531
 20
16.5
 11
103.1999816894531
 21
3
  0
LINE
  8
0
  6
CONTINUOUS
 62
     7
 10
136.7999572753906
 20
16.5
 11
136.7999572753906
 21
3
  0
LINE
  8
0
  6
CONTINUOUS
 62
     7
 10
103.6999816894531
 20
17
 11
136.2999572753906
 21
17
  0
LINE
  8
0
  6
CONTINUOUS
 62
     7
 10
103.1999816894531
 20
16.5
 11
103.2228088378906
 21
16.5
  0
LINE
  8
0
  6
CENTER
 62
     7
 10
107.0000305175781
 20
17.99266052246094
 11
107.0000305175781
 21
2.599991798400879
  0
LINE
  8
0
  6
CENTER
 62
     7
 10
94.31503295898438
 20
9.019989013671875
 11
100.0768737792969
 21
9.019989013671875
  0
LINE
  8
0
  6
CONTINUOUS
 62
     7
 10
98.40076446533203
 20
16.5
 11
103.1999816894531
 21
16.5
  0
LINE
  8
0
  6
CONTINUOUS
 62
     7
 10
103.1999816894531
 20
11
 11
136.7999572753906
 21
11
  0
LINE
  8
0
  6
CONTINUOUS
 62
     7
 10
103.2009735107422
 20
16.49897193908691
 11
103.7009735107422
 21
16.99897384643555
  0
LINE
  8
0
  6
CONTINUOUS
 62
     7
 10
136.3003082275391
 20
16.99961853027344
 11
136.8003387451172
 21
16.49958610534668
  0
LINE
  8
0
  6
CONTINUOUS
 62
     7
 10
98.40076446533203
 20
16.49999809265137
 11
97.89987182617188
 21
15.99910831451416
  0
LINE
  8
0
  6
CENTER
 62
     7
 10
132.9999694824219
 20
17.99266052246094
 11
132.9999694824219
 21
2.599991798400879
  0
LINE
  8
0
  6
CENTER
 62
     7
 10
129.4999694824219
 20
5.476364135742188
 11
129.4999694824219
 21
1.536758422851563
  0
LINE
  8
0
  6
CENTER
 62
     7
 10
110.5000305175781
 20
5.097305297851563
 11
110.5000305175781
 21
1.384979248046875
  0
LINE
  8
0
  6
CONTINUOUS
 62
     7
 10
109.0006103515625
 20
2.799225091934204
 11
109.2013778686523
 21
2.999997854232788
  0
LINE
  8
0
  6
CONTINUOUS
 62
     7
 10
109.0001525878906
 20
2.799728393554688
 11
109.0001525878906
 21
2.499725341796875
  0
LINE
  8
0
  6
CONTINUOUS
 62
     7
 10
109.0006103515625
 20
2.5
 11
112.0006103515625
 21
2.5
  0
LINE
  8
0
  6
CONTINUOUS
 62
     7
 10
112.0001525878906
 20
2.799728393554688
 11
112.0001525878906
 21
2.499740600585938
  0
LINE
  8
0
  6
CONTINUOUS
 62
     7
 10
112.0005874633789
 20
2.799392223358154
 11
111.7999801635742
 21
2.999997854232788
  0
LINE
  8
0
  6
CENTER
 62
     7
 10
91.87863159179688
 20
13
 11
99.04611206054688
 21
13
  0
LINE
  8
0
  6
CONTINUOUS
 62
     7
 10
45
 20
0
 11
195
 21
0
  0
LINE
  8
0
  6
DASHED
 62
     7
 10
105.0000305175781
 20
17
 11
105.0000305175781
 21
11
  0
LINE
  8
0
  6
DASHED
 62
     7
 10
105.3500061035156
 20
17
 11
105.3500061035156
 21
11
  0
LINE
  8
0
  6
DASHED
 62
     7
 10
109.0000305175781
 20
11
 11
109.0000305175781
 21
17
  0
LINE
  8
0
  6
DASHED
 62
     7
 10
108.6500549316406
 20
11
 11
108.6500549316406
 21
17
  0
LINE
  8
0
  6
CONTINUOUS
 62
     7
 10
105.4133148193359
 20
4.862995624542236
 11
104.0005493164063
 21
10.99959182739258
  0
LINE
  8
0
  6
CONTINUOUS
 62
     7
 10
108.5938186645508
 20
4.885850429534912
 11
110.001335144043
 21
10.99965667724609
  0
LINE
  8
0
  6
CONTINUOUS
 62
     7
 10
136.0007934570313
 20
10.99974346160889
 11
134.5880126953125
 21
4.863088130950928
  0
LINE
  8
0
  6
CONTINUOUS
 62
     7
 10
130.0004119873047
 20
10.99970722198486
 11
131.4131469726563
 21
4.863230705261231
  0
LINE
  8
0
  6
CONTINUOUS
 62
     7
 10
6.000107288360596
 20
16.50002670288086
 11
5.500182628631592
 21
16.99995040893555
  0
LINE
  8
0
  6
CONTINUOUS
 62
     7
 10
13.00008392333984
 20
16.49990081787109
 11
13.50008678436279
 21
16.99990081787109
  0
LINE
  8
0
  6
CONTINUOUS
 62
     7
 10
-21.7998046875
 20
16.40000152587891
 11
21.80023193359375
 21
16.40000152587891
  0
LINE
  8
0
  6
CONTINUOUS
 62
     7
 10
23.300048828125
 20
14.90000152587891
 11
23.300048828125
 21
4.600006103515625
  0
LINE
  8
0
  6
CONTINUOUS
 62
     7
 10
18.000244140625
 20
8.001312255859375
 11
18.000244140625
 21
5.998732566833496
  0
LINE
  8
0
  6
CONTINUOUS
 62
     7
 10
17.24838066101074
 20
3.100064516067505
 11
15.88747215270996
 21
3.885786056518555
  0
LINE
  8
0
  6
CONTINUOUS
 62
     7
 10
15.88730239868164
 20
3.885791063308716
 11
16.78339767456055
 21
4.781886577606201
  0
LINE
  8
0
  6
CONTINUOUS
 62
     7
 10
15.50159168243408
 20
10.50022125244141
 11
16.78350257873535
 21
9.218313217163086
  0
LINE
  8
0
  6
CONTINUOUS
 62
     7
 10
2.8790283203125
 20
10.5
 11
15.5015869140625
 21
10.5
  0
LINE
  8
0
  6
CONTINUOUS
 62
     7
 10
2.378840684890747
 20
9.999896049499512
 11
2.878850221633911
 21
10.49990940093994
  0
LINE
  8
0
  6
CONTINUOUS
 62
     7
 10
2.3790283203125
 20
10
 11
-2.378945112228394
 21
10
  0
LINE
  8
0
  6
CONTINUOUS
 62
     7
 10
17.28939437866211
 20
5.287883281707764
 11
18.000244140625
 21
5.998732566833496
  0
LINE
  8
0
  6
CONTINUOUS
 62
     7
 10
17.28831291198731
 20
8.71317195892334
 11
18.00010299682617
 21
8.001383781433106
  0
LINE
  8
0
  6
CONTINUOUS
 62
     7
 10
21.80004119873047
 20
16.40007781982422
 11
23.30003356933594
 21
14.90008735656738
  0
LINE
  8
0
  6
CONTINUOUS
 62
     7
 10
14.3502197265625
 20
3.100006103515625
 11
21.80023193359375
 21
3.100006103515625
  0
LINE
  8
0
  6
CONTINUOUS
 62
     7
 10
21.80005264282227
 20
3.099973440170288
 11
23.3000545501709
 21
4.599975109100342
  0
LINE
  8
0
  6
CONTINUOUS
 62
     7
 10
97.89987182617188
 20
16.39999389648438
 11
97.89987182617188
 21
3
  0
LINE
  8
0
  6
CONTINUOUS
 62
     7
 10
96.59994506835938
 20
16.39999389648438
 11
96.59994506835938
 21
11.26998901367188
  0
LINE
  8
0
  6
CONTINUOUS
 62
     7
 10
96.59994506835938
 20
16.39999389648438
 11
97.89987182617188
 21
16.39999389648438
  0
LINE
  8
0
  6
CENTER
 62
     7
 10
93.43893432617188
 20
13.89999389648438
 11
99.41183471679688
 21
13.89999389648438
  0
LINE
  8
0
  6
CONTINUOUS
 62
     7
 10
95.39987182617188
 20
6.769989013671875
 11
95.39987182617188
 21
3.100006103515625
  0
LINE
  8
0
  6
CONTINUOUS
 62
     7
 10
97.09994506835938
 20
16.39999389648438
 11
97.09994506835938
 21
3
  0
LINE
  8
0
  6
CONTINUOUS
 62
     7
 10
94.79989624023438
 20
11.26998901367188
 11
97.09994506835938
 21
11.26998901367188
  0
LINE
  8
0
  6
CONTINUOUS
 62
     7
 10
94.79989624023438
 20
6.769989013671875
 11
97.09994506835938
 21
6.769989013671875
  0
LINE
  8
0
  6
CONTINUOUS
 62
     7
 10
94.79989624023438
 20
16.14999389648438
 11
96.59994506835938
 21
16.14999389648438
  0
LINE
  8
0
  6
CONTINUOUS
 62
     7
 10
94.79989624023438
 20
11.64999389648438
 11
96.59994506835938
 21
11.64999389648438
  0
LINE
  8
0
  6
CONTINUOUS
 62
     7
 10
94.49996948242188
 20
15.84999084472656
 11
94.49996948242188
 21
11.94999694824219
  0
LINE
  8
0
  6
CONTINUOUS
 62
     7
 10
94.49996948242188
 20
10.96998596191406
 11
94.49996948242188
 21
7.069992065429688
  0
LINE
  8
0
  6
CONTINUOUS
 62
     7
 10
96.59994506835938
 20
6.769989013671875
 11
96.59994506835938
 21
2.999984741210938
  0
LINE
  8
0
  6
CONTINUOUS
 62
     7
 10
94.80025482177734
 20
16.14966011047363
 11
94.50025939941406
 21
15.8496618270874
  0
LINE
  8
0
  6
CONTINUOUS
 62
     7
 10
94.50019073486328
 20
11.94976329803467
 11
94.80023193359375
 21
11.64972591400147
  0
LINE
  8
0
  6
CONTINUOUS
 62
     7
 10
94.80042266845703
 20
11.26945972442627
 11
94.50042724609375
 21
10.96946430206299
  0
LINE
  8
0
  6
CONTINUOUS
 62
     7
 10
94.50020599365234
 20
7.069770336151123
 11
94.80023956298828
 21
6.769733428955078
  0
LINE
  8
0
  6
CONTINUOUS
 62
     7
 10
-21.899658203125
 20
3
 11
-15.5179443359375
 21
3
  0
LINE
  8
0
  6
CONTINUOUS
 62
     7
 10
-20.71759033203125
 20
2.49957275390625
 11
-17.71771240234375
 21
2.49957275390625
  0
LINE
  8
0
  6
CONTINUOUS
 62
     7
 10
-20.7178955078125
 20
2.5
 11
-20.7178955078125
 21
2.800003051757813
  0
LINE
  8
0
  6
CONTINUOUS
 62
     7
 10
-20.51756286621094
 20
2.999620914459229
 11
-20.71754837036133
 21
2.799635887145996
  0
LINE
  8
0
  6
CENTER
 62
     7
 10
-19.2178955078125
 20
1.918365478515625
 11
-19.2178955078125
 21
5.319808959960938
  0
LINE
  8
0
  6
CONTINUOUS
 62
     7
 10
-17.91773414611816
 20
2.99980354309082
 11
-17.7176513671875
 21
2.799721479415894
  0
LINE
  8
0
  6
CONTINUOUS
 62
     7
 10
-17.7178955078125
 20
2.499984741210938
 11
-17.7178955078125
 21
2.800003051757813
  0
LINE
  8
0
  6
CONTINUOUS
 62
     7
 10
-23.3997802734375
 20
4.5
 11
-23.3997802734375
 21
15
  0
LINE
  8
0
  6
CONTINUOUS
 62
     7
 10
-23.39935493469238
 20
14.99943923950195
 11
-21.89934349060059
 21
16.49945259094238
  0
LINE
  8
0
  6
CONTINUOUS
 62
     7
 10
-23.39923667907715
 20
4.499979019165039
 11
-21.89914131164551
 21
2.999877452850342
  0
LINE
  8
0
  6
CONTINUOUS
 62
     7
 10
-23.2998046875
 20
4.600006103515625
 11
-23.2998046875
 21
14.90000152587891
  0
LINE
  8
0
  6
CONTINUOUS
 62
     7
 10
-17.999755859375
 20
5.99851131439209
 11
-17.999755859375
 21
8.000615119934082
  0
LINE
  8
0
  6
CONTINUOUS
 62
     7
 10
-15.88692378997803
 20
3.88588547706604
 11
-17.24785804748535
 21
3.100148916244507
  0
LINE
  8
0
  6
CONTINUOUS
 62
     7
 10
-16.78271102905273
 20
4.781467437744141
 11
-15.88674449920654
 21
3.885499715805054
  0
LINE
  8
0
  6
CONTINUOUS
 62
     7
 10
-16.78296089172363
 20
9.216756820678711
 11
-15.50047206878662
 21
10.49924182891846
  0
LINE
  8
0
  6
CONTINUOUS
 62
     7
 10
-15.5010986328125
 20
10.5
 11
-2.878941059112549
 21
10.5
  0
LINE
  8
0
  6
CONTINUOUS
 62
     7
 10
-17.999755859375
 20
5.99851131439209
 11
-17.28876495361328
 21
5.287520885467529
  0
LINE
  8
0
  6
CONTINUOUS
 62
     7
 10
-17.999755859375
 20
8.000615119934082
 11
-17.28721618652344
 21
8.713150978088379
  0
LINE
  8
0
  6
CONTINUOUS
 62
     7
 10
-23.29954147338867
 20
14.89960384368897
 11
-21.7995491027832
 21
16.39959335327148
  0
LINE
  8
0
  6
CONTINUOUS
 62
     7
 10
-21.7998046875
 20
3.100006103515625
 11
-14.349853515625
 21
3.100006103515625
  0
LINE
  8
0
  6
CONTINUOUS
 62
     7
 10
-23.29955101013184
 20
4.59976053237915
 11
-21.79945182800293
 21
3.099662065505981
  0
LINE
  8
0
  6
DASHED
 62
     7
 10
-2.999755859375
 20
13.80000305175781
 11
-2.999755859375
 21
10.52999877929688
  0
LINE
  8
0
  6
DASHED
 62
     7
 10
-1.999755859375
 20
17
 11
-1.999755859375
 21
13.80000305175781
  0
LINE
  8
0
  6
DASHED
 62
     7
 10
-1.6497802734375
 20
17
 11
-1.6497802734375
 21
13.80000305175781
  0
LINE
  8
0
  6
DASHED
 62
     7
 10
-23.7664794921875
 20
11
 11
-27.2640380859375
 21
11
  0
LINE
  8
0
  6
CONTINUOUS
 62
     7
 10
96.59994506835938
 20
3
 11
97.89987182617188
 21
3
  0
LINE
  8
0
  6
CONTINUOUS
 62
     7
 10
95.39987182617188
 20
3.100006103515625
 11
96.59994506835938
 21
3.100006103515625
  0
LINE
  8
0
  6
CONTINUOUS
 62
     7
 10
142.1000671386719
 20
3.041275024414063
 11
136.8000183105469
 21
3.041275024414063
  0
LINE
  8
0
  6
CONTINUOUS
 62
     7
 10
195
 20
9
 11
145.4999694824219
 21
9
  0
LINE
  8
0
  6
CENTER
 62
     7
 10
145.6849060058594
 20
9.019989013671875
 11
139.9230651855469
 21
9.019989013671875
  0
LINE
  8
0
  6
CONTINUOUS
 62
     7
 10
141.6000671386719
 20
16.5
 11
136.8000183105469
 21
16.5
  0
LINE
  8
0
  6
CONTINUOUS
 62
     7
 10
141.5996551513672
 20
16.49952125549316
 11
142.0996551513672
 21
15.99952125549316
  0
LINE
  8
0
  6
CONTINUOUS
 62
     7
 10
142.1000671386719
 20
16.39999389648438
 11
142.1000671386719
 21
3
  0
LINE
  8
0
  6
CONTINUOUS
 62
     7
 10
143.3999938964844
 20
16.39999389648438
 11
143.3999938964844
 21
11.26998901367188
  0
LINE
  8
0
  6
CONTINUOUS
 62
     7
 10
143.3999938964844
 20
16.39999389648438
 11
142.1000671386719
 21
16.39999389648438
  0
LINE
  8
0
  6
CENTER
 62
     7
 10
146.5610046386719
 20
13.89999389648438
 11
140.5881042480469
 21
13.89999389648438
  0
LINE
  8
0
  6
CONTINUOUS
 62
     7
 10
144.6000671386719
 20
6.769989013671875
 11
144.6000671386719
 21
3.100006103515625
  0
LINE
  8
0
  6
CONTINUOUS
 62
     7
 10
142.8999938964844
 20
16.39999389648438
 11
142.8999938964844
 21
3
  0
LINE
  8
0
  6
CONTINUOUS
 62
     7
 10
144.6000671386719
 20
3.100006103515625
 11
143.3999938964844
 21
3.100006103515625
  0
LINE
  8
0
  6
CONTINUOUS
 62
     7
 10
145.2000427246094
 20
11.26998901367188
 11
142.8999938964844
 21
11.26998901367188
  0
LINE
  8
0
  6
CONTINUOUS
 62
     7
 10
145.2000427246094
 20
6.769989013671875
 11
142.8999938964844
 21
6.769989013671875
  0
LINE
  8
0
  6
CONTINUOUS
 62
     7
 10
145.2000427246094
 20
16.14999389648438
 11
143.3999938964844
 21
16.14999389648438
  0
LINE
  8
0
  6
CONTINUOUS
 62
     7
 10
145.2000427246094
 20
11.64999389648438
 11
143.3999938964844
 21
11.64999389648438
  0
LINE
  8
0
  6
CONTINUOUS
 62
     7
 10
145.4999694824219
 20
15.84999084472656
 11
145.4999694824219
 21
11.94999694824219
  0
LINE
  8
0
  6
CONTINUOUS
 62
     7
 10
145.4999694824219
 20
10.96998596191406
 11
145.4999694824219
 21
7.069992065429688
  0
LINE
  8
0
  6
CONTINUOUS
 62
     7
 10
143.3999938964844
 20
6.769989013671875
 11
143.3999938964844
 21
2.999984741210938
  0
LINE
  8
0
  6
CONTINUOUS
 62
     7
 10
145.1996917724609
 20
16.149658203125
 11
145.4996948242188
 21
15.84965896606445
  0
LINE
  8
0
  6
CONTINUOUS
 62
     7
 10
145.499755859375
 20
11.94976043701172
 11
145.1997222900391
 21
11.64972305297852
  0
LINE
  8
0
  6
CONTINUOUS
 62
     7
 10
145.1995239257813
 20
11.26946449279785
 11
145.49951171875
 21
10.96947002410889
  0
LINE
  8
0
  6
CONTINUOUS
 62
     7
 10
145.4997406005859
 20
7.069767475128174
 11
145.19970703125
 21
6.769730567932129
  0
LINE
  8
0
  6
CONTINUOUS
 62
     7
 10
143.3999938964844
 20
3
 11
142.1000671386719
 21
3
  0
LINE
  8
0
  6
CONTINUOUS
 62
     7
 10
-27.2640380859375
 20
11
 11
-29.499755859375
 21
11
  0
LINE
  8
0
  6
CONTINUOUS
 62
     7
 10
-2.378840684890747
 20
9.999896049499512
 11
-2.878850221633911
 21
10.49990940093994
  0
LINE
  8
0
  6
CENTER
 62
     7
 10
-3.25
 20
13
 11
3.25
 21
13
  0
LINE
  8
0
  6
DASHED
 62
     7
 10
-4.0865478515625
 20
10.52999877929688
 11
4.0865478515625
 21
10.52999877929688
  0
LINE
  8
0
  6
DASHED
 62
     7
 10
-2.999755859375
 20
13.80000305175781
 11
2.999755859375
 21
13.80000305175781
  0
LINE
  8
0
  6
DASHED
 62
     7
 10
2.999755859375
 20
13.80000305175781
 11
2.999755859375
 21
10.52999877929688
  0
LINE
  8
0
  6
DASHED
 62
     7
 10
1.999755859375
 20
17
 11
1.999755859375
 21
13.80000305175781
  0
LINE
  8
0
  6
DASHED
 62
     7
 10
1.6497802734375
 20
17
 11
1.6497802734375
 21
13.80000305175781
  0
LINE
  8
0
  6
CENTER
 62
     7
 10
21
 20
12.26998901367188
 11
21
 21
5.769989013671875
  0
LINE
  8
0
  6
CENTER
 62
     7
 10
17.75
 20
9.019989013671875
 11
24.25
 21
9.019989013671875
  0
LINE
  8
0
  6
CENTER
 62
     7
 10
12
 20
17.14999389648438
 11
12
 21
10.64999389648438
  0
LINE
  8
0
  6
CENTER
 62
     7
 10
8.75
 20
13.89999389648438
 11
15.25
 21
13.89999389648438
  0
LINE
  8
0
  6
CENTER
 62
     7
 10
-21
 20
12.26998901367188
 11
-21
 21
5.769989013671875
  0
LINE
  8
0
  6
CENTER
 62
     7
 10
-8.75
 20
13.89999389648438
 11
-15.25
 21
13.89999389648438
  0
LINE
  8
0
  6
CENTER
 62
     7
 10
-12
 20
17.14999389648438
 11
-12
 21
10.64999389648438
  0
LINE
  8
0
  6
CENTER
 62
     7
 10
-17.75
 20
9.019989013671875
 11
-24.25
 21
9.019989013671875
  0
LINE
  8
0
  6
CONTINUOUS
 62
     7
 10
97.89987182617188
 20
63.59999847412109
 11
103.1999816894531
 21
63.59999847412109
  0
LINE
  8
0
  6
CONTINUOUS
 62
     7
 10
96.59994506835938
 20
63.699951171875
 11
97.89987182617188
 21
63.699951171875
  0
LINE
  8
0
  6
CONTINUOUS
 62
     7
 10
45
 20
70.5
 11
95.39987182617188
 21
70.5
  0
LINE
  8
0
  6
CONTINUOUS
 62
     7
 10
45
 20
72.11988830566406
 11
95.39987182617188
 21
72.11988830566406
  0
LINE
  8
0
  6
CONTINUOUS
 62
     7
 10
45
 20
83.49933624267578
 11
95.39987182617188
 21
83.49933624267578
  0
LINE
  8
0
  6
CONTINUOUS
 62
     7
 10
45
 20
9
 11
45
 21
0
  0
LINE
  8
0
  6
CENTER
 62
     7
 10
60
 20
10
 11
60
 21
-1
  0
LINE
  8
0
  6
DASHED
 62
     7
 10
56.25
 20
9
 11
56.25
 21
3.699996948242188
  0
LINE
  8
0
  6
DASHED
 62
     7
 10
57.75
 20
3.699996948242188
 11
57.75
 21
0
  0
LINE
  8
0
  6
DASHED
 62
     7
 10
63.75
 20
3.699996948242188
 11
56.25
 21
3.699996948242188
  0
LINE
  8
0
  6
DASHED
 62
     7
 10
62.25
 20
3.699996948242188
 11
62.25
 21
0
  0
LINE
  8
0
  6
DASHED
 62
     7
 10
63.75
 20
9
 11
63.75
 21
3.699996948242188
  0
LINE
  8
0
  6
CONTINUOUS
 62
     7
 10
45
 20
7.379950046539307
 11
94.49996948242188
 21
7.379950046539307
  0
LINE
  8
0
  6
CONTINUOUS
 62
     7
 10
45
 20
6.619635105133057
 11
95.39987182617188
 21
6.619635105133057
  0
LINE
  8
0
  6
CONTINUOUS
 62
     7
 10
45
 20
4.470115184783936
 11
95.39987182617188
 21
4.470115184783936
  0
LINE
  8
0
  6
CONTINUOUS
 62
     7
 10
45
 20
3.041239261627197
 11
96.59994506835938
 21
3.041239261627197
  0
LINE
  8
0
  6
CONTINUOUS
 62
     7
 10
45
 20
1.79992139339447
 11
195
 21
1.79992139339447
  0
LINE
  8
0
  6
CENTER
 62
     7
 10
100
 20
4.041275024414063
 11
100
 21
-1
  0
LINE
  8
0
  6
CENTER
 62
     7
 10
140
 20
4.041275024414063
 11
140
 21
-1
  0
LINE
  8
0
  6
CONTINUOUS
 62
     7
 10
195
 20
9
 11
145.4999694824219
 21
9
  0
LINE
  8
0
  6
CONTINUOUS
 62
     7
 10
195
 20
9
 11
195
 21
0
  0
LINE
  8
0
  6
CONTINUOUS
 62
     7
 10
195
 20
3.041239261627197
 11
143.3999938964844
 21
3.041239261627197
  0
LINE
  8
0
  6
CONTINUOUS
 62
     7
 10
195
 20
4.470115184783936
 11
144.6000671386719
 21
4.470115184783936
  0
LINE
  8
0
  6
CENTER
 62
     7
 10
180
 20
10
 11
180
 21
-1
  0
LINE
  8
0
  6
CONTINUOUS
 62
     7
 10
195
 20
7.379950046539307
 11
145.4999694824219
 21
7.379950046539307
  0
LINE
  8
0
  6
CONTINUOUS
 62
     7
 10
195
 20
6.619635105133057
 11
144.6000671386719
 21
6.619635105133057
  0
LINE
  8
0
  6
CONTINUOUS
 62
     7
 10
95.39987182617188
 20
70.20000457763672
 11
96.59994506835938
 21
68.99993133544922
  0
LINE
  8
0
  6
CENTER
 62
     7
 10
64.75
 20
78
 11
55.25
 21
78
  0
LINE
  8
0
  6
CENTER
 62
     7
 10
60
 20
82.75
 11
60
 21
73.25
  0
LINE
  8
0
  6
CENTER
 62
     7
 10
107.0000305175781
 20
63.5
 11
107.0000305175781
 21
57.5
  0
LINE
  8
0
  6
CENTER
 62
     7
 10
104.0000305175781
 20
60.5
 11
110.0000305175781
 21
60.5
  0
LINE
  8
0
  6
CONTINUOUS
 62
     7
 10
103.1999816894531
 20
57
 11
103.1999816894531
 21
117
  0
LINE
  8
0
  6
CONTINUOUS
 62
     7
 10
97.09994506835938
 20
63.699951171875
 11
97.09994506835938
 21
110.300048828125
  0
LINE
  8
0
  6
CONTINUOUS
 62
     7
 10
45
 20
103.5
 11
95.39987182617188
 21
103.5
  0
LINE
  8
0
  6
CONTINUOUS
 62
     7
 10
97.89987182617188
 20
63.59999847412109
 11
97.89987182617188
 21
110.4000015258789
  0
LINE
  8
0
  6
CONTINUOUS
 62
     7
 10
95.39987182617188
 20
70.19999694824219
 11
95.39987182617188
 21
72.75
  0
LINE
  8
0
  6
CONTINUOUS
 62
     7
 10
45
 20
70.5
 11
45
 21
103.5
  0
LINE
  8
0
  6
CONTINUOUS
 62
     7
 10
96.59994506835938
 20
110.300048828125
 11
97.89987182617188
 21
110.300048828125
  0
LINE
  8
0
  6
CONTINUOUS
 62
     7
 10
97.89987182617188
 20
110.4000015258789
 11
103.1999816894531
 21
110.4000015258789
  0
LINE
  8
0
  6
CONTINUOUS
 62
     7
 10
103.1999816894531
 20
117
 11
136.7999572753906
 21
117
  0
LINE
  8
0
  6
CONTINUOUS
 62
     7
 10
45
 20
101.8801116943359
 11
95.39987182617188
 21
101.8801116943359
  0
LINE
  8
0
  6
CONTINUOUS
 62
     7
 10
45
 20
90.50066375732422
 11
95.39987182617188
 21
90.50066375732422
  0
LINE
  8
0
  6
CENTER
 62
     7
 10
107.0000305175781
 20
110.5
 11
107.0000305175781
 21
116.5
  0
LINE
  8
0
  6
CENTER
 62
     7
 10
64.75
 20
96
 11
55.25
 21
96
  0
LINE
  8
0
  6
CENTER
 62
     7
 10
104.0000305175781
 20
113.5
 11
110.0000305175781
 21
113.5
  0
LINE
  8
0
  6
CENTER
 62
     7
 10
60
 20
91.25
 11
60
 21
100.75
  0
LINE
  8
0
  6
CONTINUOUS
 62
     7
 10
95.39987182617188
 20
103.8000030517578
 11
96.59994506835938
 21
105.0000762939453
  0
LINE
  8
0
  6
CENTER
 62
     7
 10
107.0000305175781
 20
84
 11
107.0000305175781
 21
90
  0
LINE
  8
0
  6
CONTINUOUS
 62
     7
 10
194.9999389648438
 20
70.5
 11
144.6000671386719
 21
70.5
  0
LINE
  8
0
  6
CONTINUOUS
 62
     7
 10
136.7999572753906
 20
57
 11
103.1999816894531
 21
57
  0
LINE
  8
0
  6
CENTER
 62
     7
 10
195.9999389648438
 20
87
 11
44
 21
87
  0
LINE
  8
0
  6
CONTINUOUS
 62
     7
 10
194.9999389648438
 20
72.11988830566406
 11
144.6000671386719
 21
72.11988830566406
  0
LINE
  8
0
  6
CONTINUOUS
 62
     7
 10
194.9999389648438
 20
83.49933624267578
 11
144.6000671386719
 21
83.49933624267578
  0
LINE
  8
0
  6
CONTINUOUS
 62
     7
 10
136.7999572753906
 20
100.5001831054688
 11
103.1999816894531
 21
100.5001831054688
  0
LINE
  8
0
  6
CENTER
 62
     7
 10
179.9999389648438
 20
91.25
 11
179.9999389648438
 21
100.75
  0
LINE
  8
0
  6
CENTER
 62
     7
 10
175.2499389648438
 20
96
 11
184.7499389648438
 21
96
  0
LINE
  8
0
  6
CENTER
 62
     7
 10
132.9999084472656
 20
110.5
 11
132.9999084472656
 21
116.5
  0
LINE
  8
0
  6
CONTINUOUS
 62
     7
 10
136.7999572753906
 20
92.50013732910156
 11
103.1999816894531
 21
92.50013732910156
  0
LINE
  8
0
  6
CENTER
 62
     7
 10
132.9999084472656
 20
84
 11
132.9999084472656
 21
90
  0
LINE
  8
0
  6
CENTER
 62
     7
 10
135.9999084472656
 20
113.5
 11
129.9999084472656
 21
113.5
  0
LINE
  8
0
  6
CONTINUOUS
 62
     7
 10
194.9999389648438
 20
101.8801116943359
 11
144.6000671386719
 21
101.8801116943359
  0
LINE
  8
0
  6
CONTINUOUS
 62
     7
 10
194.9999389648438
 20
70.5
 11
194.9999389648438
 21
103.5
  0
LINE
  8
0
  6
CONTINUOUS
 62
     7
 10
194.9999389648438
 20
90.50066375732422
 11
144.6000671386719
 21
90.50066375732422
  0
LINE
  8
0
  6
CONTINUOUS
 62
     7
 10
194.9999389648438
 20
103.5
 11
144.6000671386719
 21
103.5
  0
LINE
  8
0
  6
CONTINUOUS
 62
     7
 10
136.7999572753906
 20
57
 11
136.7999572753906
 21
117
  0
LINE
  8
0
  6
CONTINUOUS
 62
     7
 10
136.7999572753906
 20
81.49986267089844
 11
103.1999816894531
 21
81.49986267089844
  0
LINE
  8
0
  6
CENTER
 62
     7
 10
132.9999084472656
 20
63.5
 11
132.9999084472656
 21
57.5
  0
LINE
  8
0
  6
CENTER
 62
     7
 10
175.2499389648438
 20
78
 11
184.7499389648438
 21
78
  0
LINE
  8
0
  6
CENTER
 62
     7
 10
135.9999084472656
 20
60.5
 11
129.9999084472656
 21
60.5
  0
LINE
  8
0
  6
CONTINUOUS
 62
     7
 10
136.7999572753906
 20
73.49981689453125
 11
103.1999816894531
 21
73.49981689453125
  0
LINE
  8
0
  6
CENTER
 62
     7
 10
179.9999389648438
 20
82.75
 11
179.9999389648438
 21
73.25
  0
LINE
  8
0
  6
CENTER
 62
     7
 10
135.2499389648438
 20
78
 11
144.7499389648438
 21
78
  0
LINE
  8
0
  6
CENTER
 62
     7
 10
139.9999389648438
 20
82.75
 11
139.9999389648438
 21
73.25
  0
LINE
  8
0
  6
CENTER
 62
     7
 10
139.9999389648438
 20
91.25
 11
139.9999389648438
 21
100.75
  0
LINE
  8
0
  6
CENTER
 62
     7
 10
135.2499389648438
 20
96
 11
144.7499389648438
 21
96
  0
LINE
  8
0
  6
CENTER
 62
     7
 10
95.24993896484375
 20
78
 11
104.7499389648438
 21
78
  0
LINE
  8
0
  6
CENTER
 62
     7
 10
99.99993896484375
 20
82.75
 11
99.99993896484375
 21
73.25
  0
LINE
  8
0
  6
CENTER
 62
     7
 10
99.99993896484375
 20
91.25
 11
99.99993896484375
 21
100.75
  0
LINE
  8
0
  6
CENTER
 62
     7
 10
95.24993896484375
 20
96
 11
104.7499389648438
 21
96
  0
LINE
  8
0
  6
CENTER
 62
     7
 10
93.49996948242188
 20
75
 11
98.09994506835938
 21
75
  0
LINE
  8
0
  6
CONTINUOUS
 62
     7
 10
94.79989624023438
 20
77.25
 11
97.09994506835938
 21
77.25
  0
LINE
  8
0
  6
CONTINUOUS
 62
     7
 10
94.79989624023438
 20
72.75
 11
97.09994506835938
 21
72.75
  0
LINE
  8
0
  6
CONTINUOUS
 62
     7
 10
94.49996948242188
 20
76.94999694824219
 11
94.49996948242188
 21
73.05000305175781
  0
LINE
  8
0
  6
CONTINUOUS
 62
     7
 10
94.80042266845703
 20
77.24947357177734
 11
94.50042724609375
 21
76.94947814941406
  0
LINE
  8
0
  6
CONTINUOUS
 62
     7
 10
94.50019836425781
 20
73.04977416992188
 11
94.80023956298828
 21
72.74974060058594
  0
LINE
  8
0
  6
CONTINUOUS
 62
     7
 10
95.39987182617188
 20
77.25
 11
95.39987182617188
 21
85.25
  0
LINE
  8
0
  6
CONTINUOUS
 62
     7
 10
96.59994506835938
 20
110.25
 11
96.59994506835938
 21
101.25
  0
LINE
  8
0
  6
CONTINUOUS
 62
     7
 10
96.59994506835938
 20
72.75
 11
96.59994506835938
 21
63.699951171875
  0
LINE
  8
0
  6
CENTER
 62
     7
 10
93.49996948242188
 20
66
 11
98.09994506835938
 21
66
  0
LINE
  8
0
  6
CONTINUOUS
 62
     7
 10
94.79989624023438
 20
68.25
 11
96.59994506835938
 21
68.25
  0
LINE
  8
0
  6
CONTINUOUS
 62
     7
 10
94.79989624023438
 20
63.75
 11
96.59994506835938
 21
63.75
  0
LINE
  8
0
  6
CONTINUOUS
 62
     7
 10
94.49996948242188
 20
67.94999694824219
 11
94.49996948242188
 21
64.05000305175781
  0
LINE
  8
0
  6
CONTINUOUS
 62
     7
 10
94.80042266845703
 20
68.24947357177734
 11
94.50042724609375
 21
67.94947814941406
  0
LINE
  8
0
  6
CONTINUOUS
 62
     7
 10
94.50019836425781
 20
64.04977416992188
 11
94.80023956298828
 21
63.74974060058594
  0
LINE
  8
0
  6
CONTINUOUS
 62
     7
 10
94.79989624023438
 20
105.75
 11
96.59994506835938
 21
105.75
  0
LINE
  8
0
  6
CONTINUOUS
 62
     7
 10
94.79989624023438
 20
110.25
 11
96.59994506835938
 21
110.25
  0
LINE
  8
0
  6
CENTER
 62
     7
 10
93.49996948242188
 20
99
 11
98.09994506835938
 21
99
  0
LINE
  8
0
  6
CONTINUOUS
 62
     7
 10
94.79989624023438
 20
96.75
 11
97.09994506835938
 21
96.75
  0
LINE
  8
0
  6
CONTINUOUS
 62
     7
 10
94.79989624023438
 20
101.25
 11
97.09994506835938
 21
101.25
  0
LINE
  8
0
  6
CONTINUOUS
 62
     7
 10
94.49996948242188
 20
97.05000305175781
 11
94.49996948242188
 21
100.9499969482422
  0
LINE
  8
0
  6
CONTINUOUS
 62
     7
 10
94.80042266845703
 20
96.75052642822266
 11
94.50042724609375
 21
97.05052185058594
  0
LINE
  8
0
  6
CONTINUOUS
 62
     7
 10
94.50020599365234
 20
100.9502258300781
 11
94.80023956298828
 21
101.2502593994141
  0
LINE
  8
0
  6
CENTER
 62
     7
 10
93.49996948242188
 20
108
 11
98.09994506835938
 21
108
  0
LINE
  8
0
  6
CONTINUOUS
 62
     7
 10
94.49996948242188
 20
106.0500030517578
 11
94.49996948242188
 21
109.9499969482422
  0
LINE
  8
0
  6
CONTINUOUS
 62
     7
 10
94.8004150390625
 20
105.7505264282227
 11
94.50042724609375
 21
106.0505218505859
  0
LINE
  8
0
  6
CONTINUOUS
 62
     7
 10
94.50019836425781
 20
109.9502182006836
 11
94.80023193359375
 21
110.2502593994141
  0
LINE
  8
0
  6
CONTINUOUS
 62
     7
 10
95.39987182617188
 20
101.25
 11
95.39987182617188
 21
103.8000030517578
  0
LINE
  8
0
  6
CONTINUOUS
 62
     7
 10
96.59994506835938
 20
96.75
 11
96.59994506835938
 21
77.25
  0
LINE
  8
0
  6
CONTINUOUS
 62
     7
 10
143.3999938964844
 20
63.699951171875
 11
142.1000671386719
 21
63.699951171875
  0
LINE
  8
0
  6
CONTINUOUS
 62
     7
 10
142.1000671386719
 20
63.59999847412109
 11
136.7999572753906
 21
63.59999847412109
  0
LINE
  8
0
  6
CONTINUOUS
 62
     7
 10
144.6000671386719
 20
103.8000030517578
 11
143.3999938964844
 21
105.0000762939453
  0
LINE
  8
0
  6
CONTINUOUS
 62
     7
 10
142.1000671386719
 20
110.4000015258789
 11
136.7999572753906
 21
110.4000015258789
  0
LINE
  8
0
  6
CONTINUOUS
 62
     7
 10
143.3999938964844
 20
110.300048828125
 11
142.1000671386719
 21
110.300048828125
  0
LINE
  8
0
  6
CONTINUOUS
 62
     7
 10
142.1000671386719
 20
63.59999847412109
 11
142.1000671386719
 21
110.4000015258789
  0
LINE
  8
0
  6
CONTINUOUS
 62
     7
 10
142.8999938964844
 20
63.699951171875
 11
142.8999938964844
 21
110.300048828125
  0
LINE
  8
0
  6
CONTINUOUS
 62
     7
 10
144.6000671386719
 20
70.19999694824219
 11
144.6000671386719
 21
72.75
  0
LINE
  8
0
  6
CONTINUOUS
 62
     7
 10
144.6000671386719
 20
77.25
 11
144.6000671386719
 21
96.75
  0
LINE
  8
0
  6
CONTINUOUS
 62
     7
 10
144.6000671386719
 20
70.20000457763672
 11
143.3999938964844
 21
68.99993133544922
  0
LINE
  8
0
  6
CONTINUOUS
 62
     7
 10
143.3999938964844
 20
110.25
 11
143.3999938964844
 21
101.25
  0
LINE
  8
0
  6
CONTINUOUS
 62
     7
 10
145.2000427246094
 20
110.25
 11
143.3999938964844
 21
110.25
  0
LINE
  8
0
  6
CONTINUOUS
 62
     7
 10
143.3999938964844
 20
72.75
 11
143.3999938964844
 21
63.699951171875
  0
LINE
  8
0
  6
CONTINUOUS
 62
     7
 10
145.2000427246094
 20
68.25
 11
143.3999938964844
 21
68.25
  0
LINE
  8
0
  6
CONTINUOUS
 62
     7
 10
145.2000427246094
 20
63.75
 11
143.3999938964844
 21
63.75
  0
LINE
  8
0
  6
CENTER
 62
     7
 10
146.4999694824219
 20
75
 11
141.8999938964844
 21
75
  0
LINE
  8
0
  6
CONTINUOUS
 62
     7
 10
145.2000427246094
 20
77.25
 11
142.8999938964844
 21
77.25
  0
LINE
  8
0
  6
CONTINUOUS
 62
     7
 10
145.2000427246094
 20
105.75
 11
143.3999938964844
 21
105.75
  0
LINE
  8
0
  6
CONTINUOUS
 62
     7
 10
145.2000427246094
 20
72.75
 11
142.8999938964844
 21
72.75
  0
LINE
  8
0
  6
CONTINUOUS
 62
     7
 10
145.4999694824219
 20
76.94999694824219
 11
145.4999694824219
 21
73.05000305175781
  0
LINE
  8
0
  6
CONTINUOUS
 62
     7
 10
145.1995239257813
 20
77.24947357177734
 11
145.49951171875
 21
76.94947814941406
  0
LINE
  8
0
  6
CONTINUOUS
 62
     7
 10
145.4997406005859
 20
73.04978179931641
 11
145.19970703125
 21
72.74974060058594
  0
LINE
  8
0
  6
CENTER
 62
     7
 10
146.4999694824219
 20
66
 11
141.8999938964844
 21
66
  0
LINE
  8
0
  6
CONTINUOUS
 62
     7
 10
145.4999694824219
 20
67.94999694824219
 11
145.4999694824219
 21
64.05000305175781
  0
LINE
  8
0
  6
CONTINUOUS
 62
     7
 10
145.1995239257813
 20
68.24947357177734
 11
145.49951171875
 21
67.94947814941406
  0
LINE
  8
0
  6
CONTINUOUS
 62
     7
 10
145.4997406005859
 20
64.04977416992188
 11
145.1996917724609
 21
63.74974060058594
  0
LINE
  8
0
  6
CENTER
 62
     7
 10
146.4999694824219
 20
99
 11
141.8999938964844
 21
99
  0
LINE
  8
0
  6
CONTINUOUS
 62
     7
 10
145.2000427246094
 20
96.75
 11
142.8999938964844
 21
96.75
  0
LINE
  8
0
  6
CONTINUOUS
 62
     7
 10
145.2000427246094
 20
101.25
 11
142.8999938964844
 21
101.25
  0
LINE
  8
0
  6
CONTINUOUS
 62
     7
 10
145.4999694824219
 20
97.05000305175781
 11
145.4999694824219
 21
100.9499969482422
  0
LINE
  8
0
  6
CONTINUOUS
 62
     7
 10
145.1995086669922
 20
96.75052642822266
 11
145.49951171875
 21
97.05052185058594
  0
LINE
  8
0
  6
CONTINUOUS
 62
     7
 10
145.4997406005859
 20
100.9502258300781
 11
145.19970703125
 21
101.2502593994141
  0
LINE
  8
0
  6
CENTER
 62
     7
 10
146.4999694824219
 20
108
 11
141.8999938964844
 21
108
  0
LINE
  8
0
  6
CONTINUOUS
 62
     7
 10
145.4999694824219
 20
106.0500030517578
 11
145.4999694824219
 21
109.9499969482422
  0
LINE
  8
0
  6
CONTINUOUS
 62
     7
 10
145.1995239257813
 20
105.7505264282227
 11
145.49951171875
 21
106.0505218505859
  0
LINE
  8
0
  6
CONTINUOUS
 62
     7
 10
145.4997406005859
 20
109.9502182006836
 11
145.1996917724609
 21
110.2502517700195
  0
LINE
  8
0
  6
CONTINUOUS
 62
     7
 10
144.6000671386719
 20
101.25
 11
144.6000671386719
 21
103.8000030517578
  0
LINE
  8
0
  6
CONTINUOUS
 62
     7
 10
143.3999938964844
 20
96.75
 11
143.3999938964844
 21
77.25
  0
LINE
  8
0
  6
CONTINUOUS
 62
     7
 10
96.39987182617188
 20
88.75
 11
94.64987182617188
 21
88.75
  0
LINE
  8
0
  6
CONTINUOUS
 62
     7
 10
96.39987182617188
 20
85.25
 11
94.64987182617188
 21
85.25
  0
LINE
  8
0
  6
CONTINUOUS
 62
     7
 10
96.39987182617188
 20
84.75
 11
96.39987182617188
 21
89.25
  0
LINE
  8
0
  6
CONTINUOUS
 62
     7
 10
96.59994506835938
 20
89.25
 11
96.39987182617188
 21
89.25
  0
LINE
  8
0
  6
CONTINUOUS
 62
     7
 10
96.59994506835938
 20
84.75
 11
96.39987182617188
 21
84.75
  0
LINE
  8
0
  6
CONTINUOUS
 62
     7
 10
95.39987182617188
 20
88.75
 11
95.39987182617188
 21
96.75
  0
LINE
  8
0
  6
CONTINUOUS
 62
     7
 10
108.5938186645508
 20
4.885848045349121
 11
108.5760955810547
 21
4.817886829376221
  0
ARC
  8
0
  6
CONTINUOUS
 62
     7
 10
-16.61474609375
 20
5.45599365234375
 40
1.03999900817871
 50
15.39937865365659
 51
74.57078958452689
  0
ARC
  8
0
  6
CONTINUOUS
 62
     7
 10
-16.61474609375
 20
8.544998168945313
 40
1.039999008178711
 50
285.5387188384358
 51
344.5085299057642
  0
ARC
  8
0
  6
CONTINUOUS
 62
     7
 10
16.615234375
 20
5.45599365234375
 40
1.039999008178712
 50
105.3909595348882
 51
164.5763586931787
  0
ARC
  8
0
  6
CONTINUOUS
 62
     7
 10
16.615234375
 20
8.544998168945313
 40
1.039999008178711
 50
195.5015874256295
 51
254.496513098536
  0
ARC
  8
0
  6
CONTINUOUS
 62
     7
 10
-27.2640380859375
 20
9
 40
1.999999046325683
 50
14.99996968156177
 51
89.99998201391064
  0
ARC
  8
0
  6
CONTINUOUS
 62
     7
 10
-22.5955810546875
 20
5.099990844726563
 40
1.499999046325685
 50
195.0000056537404
 51
269.999963344576
  0
ARC
  8
0
  6
CONTINUOUS
 62
     7
 10
27.26416015625
 20
9
 40
1.999999046325683
 50
89.99998201391064
 51
164.9999943462595
  0
ARC
  8
0
  6
CONTINUOUS
 62
     7
 10
22.59573364257813
 20
5.099990844726563
 40
1.499999046325684
 50
270.0000179860894
 51
344.9999756769249
  0
ARC
  8
0
  6
CONTINUOUS
 62
     7
 10
15.5184326171875
 20
3.599990844726563
 40
0.5999989509582525
 50
236.4402113483118
 51
270.0000179860894
  0
ARC
  8
0
  6
CONTINUOUS
 62
     7
 10
107.0000305175781
 20
5.228729248046875
 40
1.628737449646001
 50
192.9647185641034
 51
345.389515025669
  0
ARC
  8
0
  6
CONTINUOUS
 62
     7
 10
132.9999694824219
 20
5.228729248046875
 40
1.628737449645987
 50
192.9647185641035
 51
347.0352832571293
  0
ARC
  8
0
  6
CONTINUOUS
 62
     7
 10
15.5184326171875
 20
3.599998474121094
 40
0.5999989509582517
 50
258.818014767538
 51
270.0000179860894
  0
ARC
  8
0
  6
CONTINUOUS
 62
     7
 10
17.3223876953125
 20
4.748893737792969
 40
0.5399985313415531
 50
93.50285135994069
 51
176.4971561534936
  0
ARC
  8
0
  6
CONTINUOUS
 62
     7
 10
17.2711181640625
 20
9.200798034667969
 40
0.4879294931888595
 50
177.9427656913269
 51
272.0194144132514
  0
ARC
  8
0
  6
CONTINUOUS
 62
     7
 10
94.64987182617188
 20
13
 40
1.749999999999999
 50
94.91389331038455
 51
274.4707693063689
  0
ARC
  8
0
  6
CONTINUOUS
 62
     7
 10
-15.5179443359375
 20
3.599990844726563
 40
0.5999989509582522
 50
270.0000179860894
 51
303.5597938880155
  0
ARC
  8
0
  6
CONTINUOUS
 62
     7
 10
-17.3218994140625
 20
4.748893737792969
 40
0.5399985313415519
 50
3.477803618993356
 51
86.50729647993288
  0
ARC
  8
0
  6
CONTINUOUS
 62
     7
 10
-17.2706298828125
 20
9.200798034667969
 40
0.4879294931888578
 50
268.0519524121531
 51
1.874311056844074
  0
CIRCLE
  8
0
  6
CONTINUOUS
 62
     7
 10
0
 20
13
 40
1.75
  0
CIRCLE
  8
0
  6
CONTINUOUS
 62
     7
 10
0
 20
13
 40
2.25
  0
CIRCLE
  8
0
  6
CONTINUOUS
 62
     7
 10
21
 20
9.019989013671875
 40
2.25
  0
CIRCLE
  8
0
  6
CONTINUOUS
 62
     7
 10
12
 20
13.89999389648438
 40
2.25
  0
CIRCLE
  8
0
  6
CONTINUOUS
 62
     7
 10
-12
 20
13.89999389648438
 40
2.25
  0
CIRCLE
  8
0
  6
CONTINUOUS
 62
     7
 10
-21
 20
9.019989013671875
 40
2.25
  0
CIRCLE
  8
0
  6
CONTINUOUS
 62
     7
 10
60
 20
78
 40
2.25
  0
CIRCLE
  8
0
  6
CONTINUOUS
 62
     7
 10
60
 20
78
 40
3.75
  0
CIRCLE
  8
0
  6
CONTINUOUS
 62
     7
 10
107.0000305175781
 20
60.5
 40
1.6500244140625
  0
CIRCLE
  8
0
  6
CONTINUOUS
 62
     7
 10
107.0000305175781
 20
60.5
 40
2
  0
ARC
  8
0
  6
CONTINUOUS
 62
     7
 10
94.64987182617188
 20
87
 40
1.750000000000002
 50
90.00000250447801
 51
270.0000006832453
  0
TEXT
  8
0
  6
CONTINUOUS
 62
     7
 10
-11.28550004959106
 20
-31.79999995231628
 40
3.599999904632568
 41
1.007125066575079
  1
HRW17CA
  0
LINE
  8
0
  6
CONTINUOUS
 62
     7
 10
-19.45576489610065
 20
2.999999999999998
 11
-19.35575899259704
 21
3.100006103515623
  0
LINE
  8
0
  6
CONTINUOUS
 62
     7
 10
-6.05579017019801
 20
16.4000015258789
 11
-5.955799525452934
 21
16.49999237060547
  0
LINE
  8
0
  6
CONTINUOUS
 62
     7
 10
-22.92257496269338
 20
4.02331548301456
 11
-22.82284063727575
 21
4.123050007901043
  0
LINE
  8
0
  6
CONTINUOUS
 62
     7
 10
-10.54591367317637
 20
16.4000015258789
 11
-10.4459230284313
 21
16.49999237060547
  0
LINE
  8
0
  6
CONTINUOUS
 62
     7
 10
-23.3997802734375
 20
8.036241701093207
 11
-23.29980468749999
 21
8.136217486982087
  0
LINE
  8
0
  6
CONTINUOUS
 62
     7
 10
-15.03603717615473
 20
16.4000015258789
 11
-14.93604653140965
 21
16.49999237060547
  0
LINE
  8
0
  6
CONTINUOUS
 62
     7
 10
-23.3997802734375
 20
12.52637418432756
 11
-23.2998046875
 21
12.62634997021643
  0
LINE
  8
0
  6
CONTINUOUS
 62
     7
 10
-19.52616067913309
 20
16.4000015258789
 11
-19.42617003438802
 21
16.49999237060547
  0
ENDSEC
  0
EOF
