  0
SECTION
  2
HEADER
  0
ENDSEC
  0
SECTION
  2
TABLES
  0
TABLE
  2
LTYPE
 70
    22
  0
LTYPE
  2
CONTINUOUS
 70
    64
  3
Solid line
 72
    65
 73
     0
 40
0.000000
  0
LTYPE
  2
DASHED
 70
    64
  3
__ __ __ __ __ __ __ __ __ __ __ __ __ __ __
 72
    65
 73
     2
 40
3.500000
 49
2.000000
 49
-1.500000
  0
LTYPE
  2
CENTER
 70
    64
  3
____ _ ____ _ ____ _ ____ _ ____ _ ____ _ ____
 72
    65
 73
     4
 40
17.500000
 49
13.000000
 49
-1.500000
 49
1.500000
 49
-1.500000
  0
LTYPE
  2
PHANTOM
 70
    64
  3
_____ _ _ _____ _ _ _____ _ _ _____ _ _ ____  
 72
    65
 73
     6
 40
15.500000
 49
8.000000
 49
-1.500000
 49
1.500000
 49
-1.500000
 49
1.500000
 49
-1.500000
  0
LTYPE
  2
DOT
 70
    64
  3
. . . . . . . . . . . . . . . . . . . . . . . .
 72
    65
 73
     2
 40
0.25
 49
0.0
 49
-0.25
  0
ENDTAB
  0
TABLE
  2
LAYER
 70
     1
  0
LAYER
  2
0
 70
     0
 62
     7
  6
CONTINUOUS
  0
ENDTAB
  0
TABLE
  2
STYLE
 70
     1
  0
STYLE
  2
STANDARD
 70
     0
 40
0.000000
 41
1.000000
 50
0.000000
 71
     0
 42
0.200000
  3
txt
  0
ENDTAB
  0
TABLE
  2
VIEW
 70
     0
  0
ENDTAB
  0
ENDSEC
  0
SECTION
  2
BLOCKS
  0
ENDSEC
  0
SECTION
  2
ENTITIES
  0
LINE
  8
0
  6
CONTINUOUS
 62
     7
 10
177.3998260498047
 20
8.889999389648438
 11
177.3998260498047
 21
4.30999755859375
  0
LINE
  8
0
  6
CONTINUOUS
 62
     7
 10
176.8998718261719
 20
20.34999084472656
 11
176.8998718261719
 21
4.30999755859375
  0
LINE
  8
0
  6
CENTER
 62
     7
 10
21.315185546875
 20
6.257568359375
 11
21.315185546875
 21
1.884979248046875
  0
LINE
  8
0
  6
CONTINUOUS
 62
     7
 10
-19.8145866394043
 20
3.959675550460815
 11
-20.01458168029785
 21
4.159671306610107
  0
LINE
  8
0
  6
CONTINUOUS
 62
     7
 10
-19.8150634765625
 20
3.959991455078125
 11
-19.8150634765625
 21
2.999740600585938
  0
LINE
  8
0
  6
CONTINUOUS
 62
     7
 10
-22.81460571289063
 20
3
 11
-19.81460571289063
 21
3
  0
LINE
  8
0
  6
CONTINUOUS
 62
     7
 10
-22.8150634765625
 20
3.959991455078125
 11
-22.8150634765625
 21
2.999725341796875
  0
LINE
  8
0
  6
CONTINUOUS
 62
     7
 10
-22.8146858215332
 20
3.95959997177124
 11
-22.61469078063965
 21
4.159595966339111
  0
LINE
  8
0
  6
CENTER
 62
     7
 10
-21.315185546875
 20
6.257568359375
 11
-21.315185546875
 21
1.884979248046875
  0
LINE
  8
0
  6
DASHED
 62
     7
 10
-26.25
 20
13
 11
-26.25
 21
4.933502197265625
  0
LINE
  8
0
  6
CONTINUOUS
 62
     7
 10
-17.085205078125
 20
4.160003662109375
 11
-23.84521484375
 21
4.160003662109375
  0
LINE
  8
0
  6
CONTINUOUS
 62
     7
 10
-20.19924354553223
 20
10.08840751647949
 11
-19.42394638061523
 21
10.86370372772217
  0
LINE
  8
0
  6
CONTINUOUS
 62
     7
 10
-20.19892501831055
 20
7.915244579315186
 11
-19.41810417175293
 21
7.13442325592041
  0
LINE
  8
0
  6
CONTINUOUS
 62
     7
 10
-20.46535873413086
 20
4.310151100158691
 11
-18.01071357727051
 21
5.727341175079346
  0
LINE
  8
0
  6
CONTINUOUS
 62
     7
 10
-18.35744476318359
 20
6.073763370513916
 11
-18.01027870178223
 21
5.726597309112549
  0
LINE
  8
0
  6
CONTINUOUS
 62
     7
 10
-20.2001953125
 20
7.91583251953125
 11
-20.2001953125
 21
10.08915710449219
  0
LINE
  8
0
  6
CONTINUOUS
 62
     7
 10
-18.35707092285156
 20
11.93057918548584
 11
-17.58833503723145
 21
12.69931602478027
  0
LINE
  8
0
  6
CONTINUOUS
 62
     7
 10
-17.58935546875
 20
12.69999694824219
 11
-4.797301769256592
 21
12.69999694824219
  0
LINE
  8
0
  6
CONTINUOUS
 62
     7
 10
-17.06536674499512
 20
4.31016731262207
 11
-16.1993408203125
 21
4.81016731262207
  0
LINE
  8
0
  6
CONTINUOUS
 62
     7
 10
-23.844970703125
 20
4.30999755859375
 11
-23.844970703125
 21
4.160003662109375
  0
LINE
  8
0
  6
CONTINUOUS
 62
     7
 10
-17.0849609375
 20
4.160003662109375
 11
-23.844970703125
 21
4.160003662109375
  0
LINE
  8
0
  6
CONTINUOUS
 62
     7
 10
-25.139892578125
 20
4.30999755859375
 11
-17.06566047668457
 21
4.30999755859375
  0
LINE
  8
0
  6
CENTER
 62
     7
 10
-26.534912109375
 20
11.38999938964844
 11
-20.534912109375
 21
11.38999938964844
  0
LINE
  8
0
  6
CENTER
 62
     7
 10
-15.885009765625
 20
16.90000915527344
 11
-9.885009765625
 21
16.90000915527344
  0
LINE
  8
0
  6
CONTINUOUS
 62
     7
 10
-26.63938140869141
 20
5.809669971466065
 11
-25.13936996459961
 21
4.309657573699951
  0
LINE
  8
0
  6
CONTINUOUS
 62
     7
 10
-26.639892578125
 20
5.80999755859375
 11
-26.639892578125
 21
18.84999084472656
  0
LINE
  8
0
  6
CENTER
 62
     7
 10
-12.885009765625
 20
13.90000915527344
 11
-12.885009765625
 21
19.90000915527344
  0
LINE
  8
0
  6
CENTER
 62
     7
 10
-23.534912109375
 20
8.389999389648438
 11
-23.534912109375
 21
14.38999938964844
  0
LINE
  8
0
  6
CONTINUOUS
 62
     7
 10
19.42531585693359
 20
10.86393451690674
 11
20.20061302185059
 21
10.08863735198975
  0
LINE
  8
0
  6
CONTINUOUS
 62
     7
 10
19.4193000793457
 20
7.134710311889648
 11
20.20013236999512
 21
7.915542125701904
  0
LINE
  8
0
  6
CONTINUOUS
 62
     7
 10
18.01205062866211
 20
5.72675895690918
 11
20.46677780151367
 21
4.30952262878418
  0
LINE
  8
0
  6
CONTINUOUS
 62
     7
 10
18.0114860534668
 20
5.726894855499268
 11
18.35861968994141
 21
6.074028491973877
  0
LINE
  8
0
  6
CONTINUOUS
 62
     7
 10
20.2001953125
 20
10.08915710449219
 11
20.2001953125
 21
7.91583251953125
  0
LINE
  8
0
  6
CONTINUOUS
 62
     7
 10
17.58970451354981
 20
12.69954681396484
 11
18.35844039916992
 21
11.93080997467041
  0
LINE
  8
0
  6
CONTINUOUS
 62
     7
 10
4.7958984375
 20
12.69999694824219
 11
17.58935546875
 21
12.69999694824219
  0
LINE
  8
0
  6
CONTINUOUS
 62
     7
 10
4.296488761901856
 20
12.19918346405029
 11
4.796489238739014
 21
12.69918441772461
  0
LINE
  8
0
  6
CONTINUOUS
 62
     7
 10
-4.2958984375
 20
12.19999694824219
 11
4.2958984375
 21
12.19999694824219
  0
LINE
  8
0
  6
CONTINUOUS
 62
     7
 10
16.20071029663086
 20
4.809576511383057
 11
17.06673622131348
 21
4.309576511383057
  0
LINE
  8
0
  6
CONTINUOUS
 62
     7
 10
-25.13987731933594
 20
20.35000610351563
 11
-2.39661169052124
 21
20.35000610351563
  0
LINE
  8
0
  6
DASHED
 62
     7
 10
-3.75
 20
17.30000305175781
 11
-3.75
 21
12.85000610351563
  0
LINE
  8
0
  6
DASHED
 62
     7
 10
-32.2001953125
 20
21
 11
-32.2001953125
 21
12.99998474121094
  0
LINE
  8
0
  6
DASHED
 62
     7
 10
-32.5
 20
21
 11
-32.5
 21
12.99998474121094
  0
LINE
  8
0
  6
DASHED
 62
     7
 10
-27.800048828125
 20
12.99998474121094
 11
-27.800048828125
 21
21
  0
LINE
  8
0
  6
DASHED
 62
     7
 10
-27.5
 20
12.99998474121094
 11
-27.5
 21
21
  0
LINE
  8
0
  6
DASHED
 62
     7
 10
-2.2001953125
 20
21
 11
-2.2001953125
 21
17.30000305175781
  0
LINE
  8
0
  6
DASHED
 62
     7
 10
-2.5
 20
21
 11
-2.5
 21
17.30000305175781
  0
LINE
  8
0
  6
DASHED
 62
     7
 10
-3.75
 20
17.30000305175781
 11
3.75
 21
17.30000305175781
  0
LINE
  8
0
  6
CONTINUOUS
 62
     7
 10
23.844970703125
 20
4.160003662109375
 11
23.844970703125
 21
4.30999755859375
  0
LINE
  8
0
  6
CONTINUOUS
 62
     7
 10
23.844970703125
 20
4.160003662109375
 11
17.0849609375
 21
4.160003662109375
  0
LINE
  8
0
  6
CONTINUOUS
 62
     7
 10
17.06600570678711
 20
4.30999755859375
 11
25.139892578125
 21
4.30999755859375
  0
LINE
  8
0
  6
CENTER
 62
     7
 10
20.534912109375
 20
11.38999938964844
 11
26.534912109375
 21
11.38999938964844
  0
LINE
  8
0
  6
CENTER
 62
     7
 10
9.885009765625
 20
16.90000915527344
 11
15.885009765625
 21
16.90000915527344
  0
LINE
  8
0
  6
CONTINUOUS
 62
     7
 10
26.64013671875
 20
18.8497486114502
 11
25.1401252746582
 21
20.34976005554199
  0
LINE
  8
0
  6
CONTINUOUS
 62
     7
 10
25.1398868560791
 20
4.309971332550049
 11
26.63988876342773
 21
5.809972763061523
  0
LINE
  8
0
  6
CONTINUOUS
 62
     7
 10
26.639892578125
 20
18.85000610351563
 11
26.639892578125
 21
5.80999755859375
  0
LINE
  8
0
  6
CENTER
 62
     7
 10
12.885009765625
 20
19.90000915527344
 11
12.885009765625
 21
13.90000915527344
  0
LINE
  8
0
  6
CENTER
 62
     7
 10
23.534912109375
 20
14.38999938964844
 11
23.534912109375
 21
8.389999389648438
  0
LINE
  8
0
  6
CONTINUOUS
 62
     7
 10
-29.928955078125
 20
13
 11
-33.300048828125
 21
13
  0
LINE
  8
0
  6
CENTER
 62
     7
 10
-30
 20
22
 11
-30
 21
9.7869873046875
  0
LINE
  8
0
  6
CONTINUOUS
 62
     7
 10
-33.29959487915039
 20
12.9995002746582
 11
-33.9996223449707
 21
13.69952869415283
  0
LINE
  8
0
  6
CONTINUOUS
 62
     7
 10
-33.29936981201172
 20
20.99930381774902
 11
-33.99935150146484
 21
20.29931449890137
  0
LINE
  8
0
  6
CONTINUOUS
 62
     7
 10
-27.05533981323242
 20
6.21354866027832
 11
-27.95850944519043
 21
11.34670543670654
  0
LINE
  8
0
  6
DASHED
 62
     7
 10
-26.25
 20
13
 11
-29.928955078125
 21
13
  0
LINE
  8
0
  6
CONTINUOUS
 62
     7
 10
-19.5
 20
21
 11
-33.300048828125
 21
21
  0
LINE
  8
0
  6
CONTINUOUS
 62
     7
 10
-9
 20
20.5
 11
-19
 21
20.5
  0
LINE
  8
0
  6
CONTINUOUS
 62
     7
 10
-34
 20
20.30001831054688
 11
-34
 21
13.69999694824219
  0
LINE
  8
0
  6
DASHED
 62
     7
 10
-8.75
 20
5.699999809265137
 11
-8.75
 21
0
  0
LINE
  8
0
  6
DASHED
 62
     7
 10
-13.25
 20
5.699999809265137
 11
-13.25
 21
0
  0
LINE
  8
0
  6
DASHED
 62
     7
 10
-14.75
 20
11
 11
-14.75
 21
5.699999809265137
  0
LINE
  8
0
  6
DASHED
 62
     7
 10
-7.25
 20
11
 11
-7.25
 21
5.699999809265137
  0
LINE
  8
0
  6
CENTER
 62
     7
 10
-11
 20
11.96986389160156
 11
-11
 21
-1
  0
LINE
  8
0
  6
CONTINUOUS
 62
     7
 10
-4.999655246734619
 20
0.4995397925376892
 11
-5.499644756317139
 21
-0.000449959741672501
  0
LINE
  8
0
  6
CONTINUOUS
 62
     7
 10
-4.99941873550415
 20
10.49954891204834
 11
-5.499347686767578
 21
10.99946975708008
  0
LINE
  8
0
  6
CONTINUOUS
 62
     7
 10
-18.49964904785156
 20
0.4995291829109192
 11
-17.99970245361328
 21
-0.0004174223868176341
  0
LINE
  8
0
  6
CONTINUOUS
 62
     7
 10
-18.5
 20
2.811927318572998
 11
-18.5
 21
0.5
  0
LINE
  8
0
  6
CONTINUOUS
 62
     7
 10
-18.22228050231934
 20
9.661868095397949
 11
-18.49963760375977
 21
9.384510040283203
  0
LINE
  8
0
  6
CONTINUOUS
 62
     7
 10
-18.21672439575195
 20
8.336647033691406
 11
-18.49966621398926
 21
8.619597434997559
  0
LINE
  8
0
  6
CONTINUOUS
 62
     7
 10
-16.8843936920166
 20
10.99929904937744
 11
-17.15525245666504
 21
10.72845554351807
  0
LINE
  8
0
  6
CONTINUOUS
 62
     7
 10
-16.19947242736816
 20
4.140132904052734
 11
-18.5
 21
2.811927318572998
  0
LINE
  8
0
  6
CONTINUOUS
 62
     7
 10
-16.19964218139648
 20
6.319532871246338
 11
-17.15603065490723
 21
7.275921821594238
  0
LINE
  8
0
  6
CONTINUOUS
 62
     7
 10
-16.2001953125
 20
6.32000732421875
 11
-16.2001953125
 21
4.139999389648438
  0
LINE
  8
0
  6
CONTINUOUS
 62
     7
 10
-18.5
 20
9.384994506835938
 11
-18.5
 21
8.620010375976563
  0
LINE
  8
0
  6
CONTINUOUS
 62
     7
 10
-5.5
 20
11
 11
-16.885009765625
 21
11
  0
LINE
  8
0
  6
CONTINUOUS
 62
     7
 10
-5.5
 20
0
 11
-18
 21
0
  0
LINE
  8
0
  6
CONTINUOUS
 62
     7
 10
29.9287109375
 20
13
 11
33.2998046875
 21
13
  0
LINE
  8
0
  6
CENTER
 62
     7
 10
30
 20
22
 11
30
 21
9.7869873046875
  0
LINE
  8
0
  6
CONTINUOUS
 62
     7
 10
33.2999153137207
 20
12.99998664855957
 11
33.99991226196289
 21
13.69998264312744
  0
LINE
  8
0
  6
CONTINUOUS
 62
     7
 10
33.30009460449219
 20
20.99985122680664
 11
34.00012969970703
 21
20.29982566833496
  0
LINE
  8
0
  6
CONTINUOUS
 62
     7
 10
27.05678176879883
 20
6.213227272033691
 11
27.9599494934082
 21
11.3463830947876
  0
LINE
  8
0
  6
CONTINUOUS
 62
     7
 10
19.5
 20
21
 11
33.2998046875
 21
21
  0
LINE
  8
0
  6
CONTINUOUS
 62
     7
 10
9
 20
20.5
 11
19
 21
20.5
  0
LINE
  8
0
  6
CONTINUOUS
 62
     7
 10
34
 20
20.30001831054688
 11
34
 21
13.69999694824219
  0
LINE
  8
0
  6
CENTER
 62
     7
 10
11
 20
12.38540649414063
 11
11
 21
-1
  0
LINE
  8
0
  6
CONTINUOUS
 62
     7
 10
5.00037431716919
 20
0.4997203946113586
 11
5.50049352645874
 21
-0.0003988145326729864
  0
LINE
  8
0
  6
CONTINUOUS
 62
     7
 10
5.000444889068604
 20
10.49939155578613
 11
5.500445365905762
 21
10.99939155578613
  0
LINE
  8
0
  6
CONTINUOUS
 62
     7
 10
-5
 20
10.5
 11
5
 21
10.5
  0
LINE
  8
0
  6
CONTINUOUS
 62
     7
 10
-4.999755859375
 20
0.5
 11
5
 21
0.5
  0
LINE
  8
0
  6
CONTINUOUS
 62
     7
 10
18.49990653991699
 20
0.4999715387821198
 11
17.99990463256836
 21
-2.899703213188332E-005
  0
LINE
  8
0
  6
CONTINUOUS
 62
     7
 10
18.5
 20
2.812103271484375
 11
18.5
 21
0.5
  0
LINE
  8
0
  6
CONTINUOUS
 62
     7
 10
18.22305297851563
 20
9.662016868591309
 11
18.50047492980957
 21
9.384594917297363
  0
LINE
  8
0
  6
CONTINUOUS
 62
     7
 10
18.21731948852539
 20
8.336735725402832
 11
18.5002326965332
 21
8.619649887084961
  0
LINE
  8
0
  6
CONTINUOUS
 62
     7
 10
16.88548851013184
 20
10.9995813369751
 11
17.15635108947754
 21
10.72871971130371
  0
LINE
  8
0
  6
CONTINUOUS
 62
     7
 10
16.20063781738281
 20
4.139590263366699
 11
18.50059509277344
 21
2.811709642410278
  0
LINE
  8
0
  6
CONTINUOUS
 62
     7
 10
16.20022583007813
 20
6.319642543792725
 11
17.15664863586426
 21
7.276064872741699
  0
LINE
  8
0
  6
CONTINUOUS
 62
     7
 10
16.199951171875
 20
6.32000732421875
 11
16.199951171875
 21
4.139999389648438
  0
LINE
  8
0
  6
CONTINUOUS
 62
     7
 10
18.5
 20
9.384994506835938
 11
18.5
 21
8.620010375976563
  0
LINE
  8
0
  6
CONTINUOUS
 62
     7
 10
5.5
 20
11
 11
16.885009765625
 21
11
  0
LINE
  8
0
  6
CONTINUOUS
 62
     7
 10
-8.5
 20
21
 11
8.5
 21
21
  0
LINE
  8
0
  6
CONTINUOUS
 62
     7
 10
5.5
 20
0
 11
18
 21
0
  0
LINE
  8
0
  6
CENTER
 62
     7
 10
0
 20
22
 11
0
 21
-1
  0
LINE
  8
0
  6
CENTER
 62
     7
 10
161.5
 20
6.257553100585938
 11
161.5
 21
1.884979248046875
  0
LINE
  8
0
  6
CONTINUOUS
 62
     7
 10
140.0005340576172
 20
3.959645748138428
 11
139.800537109375
 21
4.159641742706299
  0
LINE
  8
0
  6
CONTINUOUS
 62
     7
 10
140.0001220703125
 20
3.959976196289063
 11
140.0001220703125
 21
2.999740600585938
  0
LINE
  8
0
  6
CONTINUOUS
 62
     7
 10
137.0005798339844
 20
3
 11
140.0005798339844
 21
3
  0
LINE
  8
0
  6
CONTINUOUS
 62
     7
 10
137.0001220703125
 20
3.959976196289063
 11
137.0001220703125
 21
2.999725341796875
  0
LINE
  8
0
  6
CONTINUOUS
 62
     7
 10
137.0005187988281
 20
3.959532499313355
 11
137.2005157470703
 21
4.159528255462647
  0
LINE
  8
0
  6
CENTER
 62
     7
 10
138.5
 20
6.257553100585938
 11
138.5
 21
1.884979248046875
  0
LINE
  8
0
  6
CONTINUOUS
 62
     7
 10
130
 20
4.159988403320313
 11
169.9998168945313
 21
4.159988403320313
  0
LINE
  8
0
  6
CONTINUOUS
 62
     7
 10
130
 20
4.759994506835938
 11
169.9998168945313
 21
4.759994506835938
  0
LINE
  8
0
  6
DASHED
 62
     7
 10
138
 20
21
 11
138
 21
12.99998474121094
  0
LINE
  8
0
  6
DASHED
 62
     7
 10
133
 20
21
 11
133
 21
12.99998474121094
  0
LINE
  8
0
  6
CONTINUOUS
 62
     7
 10
167.5004577636719
 20
12.99978160858154
 11
166.4620208740234
 21
7.779598236083984
  0
LINE
  8
0
  6
CONTINUOUS
 62
     7
 10
161.5000915527344
 20
12.99905586242676
 11
162.5384826660156
 21
7.779056072235107
  0
LINE
  8
0
  6
CONTINUOUS
 62
     7
 10
138.5005950927734
 20
12.99979496002197
 11
137.4621734619141
 21
7.779611110687256
  0
LINE
  8
0
  6
CONTINUOUS
 62
     7
 10
132.5001220703125
 20
12.99900054931641
 11
133.5385589599609
 21
7.77876091003418
  0
LINE
  8
0
  6
CENTER
 62
     7
 10
135.5
 20
22
 11
135.5
 21
5.170013427734375
  0
LINE
  8
0
  6
CENTER
 62
     7
 10
164.5
 20
22
 11
164.5
 21
5.170013427734375
  0
LINE
  8
0
  6
CONTINUOUS
 62
     7
 10
169.9998168945313
 20
4.30999755859375
 11
178.5998229980469
 21
4.30999755859375
  0
LINE
  8
0
  6
CONTINUOUS
 62
     7
 10
179.4998168945313
 20
11
 11
240
 21
11
  0
LINE
  8
0
  6
CONTINUOUS
 62
     7
 10
179.5003662109375
 20
19.09941101074219
 11
179.2003326416016
 21
19.39945030212402
  0
LINE
  8
0
  6
CONTINUOUS
 62
     7
 10
179.5003662109375
 20
14.69941139221191
 11
179.2003631591797
 21
14.39941024780273
  0
LINE
  8
0
  6
CONTINUOUS
 62
     7
 10
179.5004730224609
 20
9.189352035522461
 11
179.2004699707031
 21
8.889344215393066
  0
LINE
  8
0
  6
CONTINUOUS
 62
     7
 10
179.5002136230469
 20
13.58954334259033
 11
179.2003479003906
 21
13.88940906524658
  0
LINE
  8
0
  6
CONTINUOUS
 62
     7
 10
179.4998168945313
 20
13.58999633789063
 11
179.4998168945313
 21
9.189987182617188
  0
LINE
  8
0
  6
CONTINUOUS
 62
     7
 10
179.4998168945313
 20
19.09999084472656
 11
179.4998168945313
 21
14.69999694824219
  0
LINE
  8
0
  6
CONTINUOUS
 62
     7
 10
179.1998291015625
 20
8.889999389648438
 11
176.8998718261719
 21
8.889999389648438
  0
LINE
  8
0
  6
CONTINUOUS
 62
     7
 10
179.1998291015625
 20
13.88999938964844
 11
176.8998718261719
 21
13.88999938964844
  0
LINE
  8
0
  6
CONTINUOUS
 62
     7
 10
179.1998138427734
 20
14.39999389648438
 11
177.3998260498047
 21
14.39999389648438
  0
LINE
  8
0
  6
CONTINUOUS
 62
     7
 10
179.1998291015625
 20
19.39999389648438
 11
177.3998260498047
 21
19.39999389648438
  0
LINE
  8
0
  6
CENTER
 62
     7
 10
180.2541046142578
 20
11.38999938964844
 11
174.8998260498047
 21
11.38999938964844
  0
LINE
  8
0
  6
CENTER
 62
     7
 10
181.0048828125
 20
16.89999389648438
 11
174.8998260498047
 21
16.89999389648438
  0
LINE
  8
0
  6
CONTINUOUS
 62
     7
 10
177.3998260498047
 20
20.34999084472656
 11
177.3998260498047
 21
13.88999938964844
  0
LINE
  8
0
  6
CONTINUOUS
 62
     7
 10
177.3998260498047
 20
20.34999084472656
 11
169.9998168945313
 21
20.34999084472656
  0
LINE
  8
0
  6
CONTINUOUS
 62
     7
 10
178.5998229980469
 20
8.889999389648438
 11
178.5998229980469
 21
4.30999755859375
  0
LINE
  8
0
  6
CONTINUOUS
 62
     7
 10
176.0998229980469
 20
20.34999084472656
 11
176.0998229980469
 21
4.30999755859375
  0
LINE
  8
0
  6
CONTINUOUS
 62
     7
 10
130
 20
12.99998474121094
 11
169.9998168945313
 21
12.99998474121094
  0
LINE
  8
0
  6
CONTINUOUS
 62
     7
 10
130.5001831054688
 20
21
 11
169.4998168945313
 21
21
  0
LINE
  8
0
  6
CONTINUOUS
 62
     7
 10
169.9998168945313
 20
20.5
 11
169.9998168945313
 21
4.159988403320313
  0
LINE
  8
0
  6
CONTINUOUS
 62
     7
 10
60
 20
0
 11
240
 21
0
  0
LINE
  8
0
  6
CONTINUOUS
 62
     7
 10
60
 20
11
 11
120.5001907348633
 21
11
  0
LINE
  8
0
  6
CONTINUOUS
 62
     7
 10
-19.4999942779541
 20
20.99999237060547
 11
-19.00000381469727
 21
20.50000381469727
  0
LINE
  8
0
  6
CONTINUOUS
 62
     7
 10
-8.999993324279785
 20
20.50000381469727
 11
-8.500003814697266
 21
20.99999237060547
  0
LINE
  8
0
  6
CONTINUOUS
 62
     7
 10
18.99999237060547
 20
20.50000381469727
 11
19.4999942779541
 21
21.00000381469727
  0
LINE
  8
0
  6
CONTINUOUS
 62
     7
 10
8.500002861022949
 20
21.00000381469727
 11
8.999993324279785
 21
20.50001525878906
  0
LINE
  8
0
  6
CONTINUOUS
 62
     7
 10
169.4998168945313
 20
21.00000953674316
 11
169.9998168945313
 21
20.50000953674316
  0
LINE
  8
0
  6
DASHED
 62
     7
 10
133.3000030517578
 20
21
 11
133.3000030517578
 21
12.99998474121094
  0
LINE
  8
0
  6
DASHED
 62
     7
 10
137.6999969482422
 20
21
 11
137.6999969482422
 21
12.99998474121094
  0
LINE
  8
0
  6
CONTINUOUS
 62
     7
 10
-4.296488761901856
 20
12.19918346405029
 11
-4.796489238739014
 21
12.69918441772461
  0
LINE
  8
0
  6
CONTINUOUS
 62
     7
 10
-26.64013671875
 20
18.8497486114502
 11
-25.1401252746582
 21
20.34976005554199
  0
LINE
  8
0
  6
DASHED
 62
     7
 10
2.5
 20
21
 11
2.5
 21
17.30000305175781
  0
LINE
  8
0
  6
DASHED
 62
     7
 10
2.2001953125
 20
21
 11
2.2001953125
 21
17.30000305175781
  0
LINE
  8
0
  6
DASHED
 62
     7
 10
3.75
 20
17.30000305175781
 11
3.75
 21
12.85000610351563
  0
LINE
  8
0
  6
DASHED
 62
     7
 10
-5.69873046875
 20
12.85000610351563
 11
5.69873046875
 21
12.85000610351563
  0
LINE
  8
0
  6
CONTINUOUS
 62
     7
 10
60
 20
11
 11
60
 21
0
  0
LINE
  8
0
  6
CENTER
 62
     7
 10
75
 20
12
 11
75
 21
-1
  0
LINE
  8
0
  6
DASHED
 62
     7
 10
78.75
 20
11
 11
78.75
 21
5.699999809265137
  0
LINE
  8
0
  6
DASHED
 62
     7
 10
71.25
 20
11
 11
71.25
 21
5.699999809265137
  0
LINE
  8
0
  6
DASHED
 62
     7
 10
72.75
 20
5.699999809265137
 11
72.75
 21
0
  0
LINE
  8
0
  6
DASHED
 62
     7
 10
77.25
 20
5.699999809265137
 11
77.25
 21
0
  0
LINE
  8
0
  6
CENTER
 62
     7
 10
125
 20
5.30999755859375
 11
125
 21
-1
  0
LINE
  8
0
  6
CONTINUOUS
 62
     7
 10
59.90000152587891
 20
4.139986515045166
 11
137.0809936523438
 21
4.139986515045166
  0
LINE
  8
0
  6
CONTINUOUS
 62
     7
 10
60
 20
2.812053203582764
 11
240
 21
2.812053203582764
  0
LINE
  8
0
  6
CONTINUOUS
 62
     7
 10
60
 20
6.319368362426758
 11
121.4001846313477
 21
6.319368362426758
  0
LINE
  8
0
  6
CONTINUOUS
 62
     7
 10
60
 20
9.385069847106934
 11
120.5001907348633
 21
9.385069847106934
  0
LINE
  8
0
  6
CONTINUOUS
 62
     7
 10
60
 20
8.619417190551758
 11
121.4001846313477
 21
8.619417190551758
  0
LINE
  8
0
  6
CONTINUOUS
 62
     7
 10
139.9201965332031
 20
4.139986515045166
 11
240.1000061035156
 21
4.139986515045166
  0
LINE
  8
0
  6
CONTINUOUS
 62
     7
 10
240
 20
11
 11
240
 21
0
  0
LINE
  8
0
  6
CONTINUOUS
 62
     7
 10
240
 20
8.619417190551758
 11
178.6000061035156
 21
8.619417190551758
  0
LINE
  8
0
  6
CONTINUOUS
 62
     7
 10
240
 20
9.385069847106934
 11
179.5001525878906
 21
9.385069847106934
  0
LINE
  8
0
  6
CONTINUOUS
 62
     7
 10
240
 20
6.319368362426758
 11
178.6000061035156
 21
6.319368362426758
  0
LINE
  8
0
  6
CENTER
 62
     7
 10
175.1000061035156
 20
5.30999755859375
 11
175
 21
-1
  0
LINE
  8
0
  6
CENTER
 62
     7
 10
225
 20
12
 11
225
 21
-1
  0
LINE
  8
0
  6
DASHED
 62
     7
 10
-7.25
 20
5.699999809265137
 11
-14.75
 21
5.699999809265137
  0
LINE
  8
0
  6
DASHED
 62
     7
 10
71.25
 20
5.699999809265137
 11
78.75
 21
5.699999809265137
  0
LINE
  8
0
  6
CENTER
 62
     7
 10
135.5
 20
78.5
 11
135.5
 21
71.5
  0
LINE
  8
0
  6
CENTER
 62
     7
 10
132
 20
75
 11
139
 21
75
  0
LINE
  8
0
  6
CONTINUOUS
 62
     7
 10
122.60009765625
 20
78.36000061035156
 11
130
 21
78.36000061035156
  0
LINE
  8
0
  6
CONTINUOUS
 62
     7
 10
60
 20
86.5
 11
121.4000015258789
 21
86.5
  0
LINE
  8
0
  6
CONTINUOUS
 62
     7
 10
60
 20
99.49894714355469
 11
112.6164245605469
 21
99.49894714355469
  0
LINE
  8
0
  6
CONTINUOUS
 62
     7
 10
60
 20
88.11492919921875
 11
121.4000015258789
 21
88.11492919921875
  0
LINE
  8
0
  6
CONTINUOUS
 62
     7
 10
120.800048828125
 20
89.61499786376953
 11
123.10009765625
 21
89.61499786376953
  0
LINE
  8
0
  6
CONTINUOUS
 62
     7
 10
120.5
 20
94.31499481201172
 11
120.5
 21
89.91500091552734
  0
LINE
  8
0
  6
CONTINUOUS
 62
     7
 10
120.5008239746094
 20
89.91434478759766
 11
120.8008651733398
 21
89.61431121826172
  0
LINE
  8
0
  6
CONTINUOUS
 62
     7
 10
120.5009613037109
 20
94.31416320800781
 11
120.8009643554688
 21
94.61416625976563
  0
LINE
  8
0
  6
CONTINUOUS
 62
     7
 10
120.800048828125
 20
94.61499786376953
 11
123.10009765625
 21
94.61499786376953
  0
LINE
  8
0
  6
CENTER
 62
     7
 10
119.5
 20
92.11499786376953
 11
123.60009765625
 21
92.11499786376953
  0
LINE
  8
0
  6
CONTINUOUS
 62
     7
 10
120.800048828125
 20
78.96499633789063
 11
122.60009765625
 21
78.96499633789063
  0
LINE
  8
0
  6
CONTINUOUS
 62
     7
 10
120.5
 20
83.66499328613281
 11
120.5
 21
79.26499938964844
  0
LINE
  8
0
  6
CONTINUOUS
 62
     7
 10
120.5008163452148
 20
79.26433563232422
 11
120.8008575439453
 21
78.96430206298828
  0
LINE
  8
0
  6
CONTINUOUS
 62
     7
 10
120.5009536743164
 20
83.66415405273438
 11
120.8009567260742
 21
83.96415710449219
  0
LINE
  8
0
  6
CONTINUOUS
 62
     7
 10
120.800048828125
 20
83.96499633789063
 11
122.60009765625
 21
83.96499633789063
  0
LINE
  8
0
  6
CENTER
 62
     7
 10
119.5
 20
81.46499633789063
 11
123.60009765625
 21
81.46499633789063
  0
LINE
  8
0
  6
CONTINUOUS
 62
     7
 10
121.400146484375
 20
89.61499786376953
 11
121.400146484375
 21
86.19999694824219
  0
LINE
  8
0
  6
CONTINUOUS
 62
     7
 10
122.60009765625
 20
89.61499786376953
 11
122.60009765625
 21
78.36000061035156
  0
LINE
  8
0
  6
CENTER
 62
     7
 10
75
 20
98.75
 11
75
 21
89.25
  0
LINE
  8
0
  6
CENTER
 62
     7
 10
70.25
 20
94
 11
79.75
 21
94
  0
LINE
  8
0
  6
CONTINUOUS
 62
     7
 10
121.400146484375
 20
86.19999694824219
 11
122.60009765625
 21
85.00004577636719
  0
LINE
  8
0
  6
CONTINUOUS
 62
     7
 10
122.60009765625
 20
94.61499786376953
 11
122.60009765625
 21
100.3800048828125
  0
LINE
  8
0
  6
CONTINUOUS
 62
     7
 10
123.10009765625
 20
78.36000061035156
 11
123.10009765625
 21
131.6399993896484
  0
LINE
  8
0
  6
CENTER
 62
     7
 10
135.5
 20
131.5
 11
135.5
 21
138.5
  0
LINE
  8
0
  6
CONTINUOUS
 62
     7
 10
121.400146484375
 20
94.61499786376953
 11
121.400146484375
 21
100.5799407958984
  0
LINE
  8
0
  6
CONTINUOUS
 62
     7
 10
130
 20
71
 11
130
 21
139
  0
LINE
  8
0
  6
CONTINUOUS
 62
     7
 10
123.900146484375
 20
78.36000061035156
 11
123.900146484375
 21
131.6399993896484
  0
LINE
  8
0
  6
CENTER
 62
     7
 10
132
 20
135
 11
139
 21
135
  0
LINE
  8
0
  6
CONTINUOUS
 62
     7
 10
122.60009765625
 20
131.6399993896484
 11
130
 21
131.6399993896484
  0
LINE
  8
0
  6
CONTINUOUS
 62
     7
 10
60
 20
121.8850708007813
 11
121.4000015258789
 21
121.8850708007813
  0
LINE
  8
0
  6
CONTINUOUS
 62
     7
 10
60
 20
110.5010528564453
 11
121.4000015258789
 21
110.5010528564453
  0
LINE
  8
0
  6
CONTINUOUS
 62
     7
 10
60
 20
123.5
 11
121.4000015258789
 21
123.5
  0
LINE
  8
0
  6
CONTINUOUS
 62
     7
 10
121.400146484375
 20
120.3850021362305
 11
121.400146484375
 21
123.8000030517578
  0
LINE
  8
0
  6
CONTINUOUS
 62
     7
 10
120.800048828125
 20
120.3850021362305
 11
123.10009765625
 21
120.3850021362305
  0
LINE
  8
0
  6
CONTINUOUS
 62
     7
 10
120.5
 20
115.6850051879883
 11
120.5
 21
120.0849990844727
  0
LINE
  8
0
  6
CONTINUOUS
 62
     7
 10
120.5008163452148
 20
120.0856552124023
 11
120.8008575439453
 21
120.3856964111328
  0
LINE
  8
0
  6
CONTINUOUS
 62
     7
 10
120.5009536743164
 20
115.6858444213867
 11
120.8009567260742
 21
115.3858413696289
  0
LINE
  8
0
  6
CONTINUOUS
 62
     7
 10
120.800048828125
 20
115.3850021362305
 11
123.10009765625
 21
115.3850021362305
  0
LINE
  8
0
  6
CENTER
 62
     7
 10
119.5
 20
117.8850021362305
 11
123.60009765625
 21
117.8850021362305
  0
LINE
  8
0
  6
CONTINUOUS
 62
     7
 10
120.800048828125
 20
131.0350036621094
 11
122.60009765625
 21
131.0350036621094
  0
LINE
  8
0
  6
CONTINUOUS
 62
     7
 10
120.5
 20
126.3350067138672
 11
120.5
 21
130.7350006103516
  0
LINE
  8
0
  6
CONTINUOUS
 62
     7
 10
120.5008163452148
 20
130.7356567382813
 11
120.8008575439453
 21
131.0356903076172
  0
LINE
  8
0
  6
CONTINUOUS
 62
     7
 10
120.5009536743164
 20
126.3358459472656
 11
120.8009567260742
 21
126.0358428955078
  0
LINE
  8
0
  6
CONTINUOUS
 62
     7
 10
120.800048828125
 20
126.0350036621094
 11
122.60009765625
 21
126.0350036621094
  0
LINE
  8
0
  6
CENTER
 62
     7
 10
119.5
 20
128.5350036621094
 11
123.60009765625
 21
128.5350036621094
  0
LINE
  8
0
  6
CONTINUOUS
 62
     7
 10
60
 20
86.5
 11
60
 21
123.5
  0
LINE
  8
0
  6
CONTINUOUS
 62
     7
 10
122.60009765625
 20
120.3850021362305
 11
122.60009765625
 21
131.6399993896484
  0
LINE
  8
0
  6
CENTER
 62
     7
 10
75
 20
111.25
 11
75
 21
120.75
  0
LINE
  8
0
  6
CENTER
 62
     7
 10
70.25
 20
116
 11
79.75
 21
116
  0
LINE
  8
0
  6
CONTINUOUS
 62
     7
 10
121.400146484375
 20
123.8000030517578
 11
122.6001052856445
 21
124.9999542236328
  0
LINE
  8
0
  6
CENTER
 62
     7
 10
135.5
 20
101.5
 11
135.5
 21
108.5
  0
LINE
  8
0
  6
CENTER
 62
     7
 10
125.0001449584961
 20
98.75
 11
125.0001449584961
 21
89.25
  0
LINE
  8
0
  6
CENTER
 62
     7
 10
120.2501449584961
 20
94
 11
129.7501525878906
 21
94
  0
LINE
  8
0
  6
CENTER
 62
     7
 10
125.0001449584961
 20
111.25
 11
125.0001449584961
 21
120.75
  0
LINE
  8
0
  6
CENTER
 62
     7
 10
120.2501449584961
 20
116
 11
129.7501525878906
 21
116
  0
LINE
  8
0
  6
CENTER
 62
     7
 10
179.75
 20
94
 11
170.25
 21
94
  0
LINE
  8
0
  6
CENTER
 62
     7
 10
164.5
 20
101.5
 11
164.5
 21
108.5
  0
LINE
  8
0
  6
CENTER
 62
     7
 10
164.5
 20
78.5
 11
164.5
 21
71.5
  0
LINE
  8
0
  6
CONTINUOUS
 62
     7
 10
170
 20
71
 11
130
 21
71
  0
LINE
  8
0
  6
CENTER
 62
     7
 10
168
 20
75
 11
161
 21
75
  0
LINE
  8
0
  6
CENTER
 62
     7
 10
241
 20
105
 11
59
 21
105
  0
LINE
  8
0
  6
CONTINUOUS
 62
     7
 10
177.39990234375
 20
78.36000061035156
 11
170
 21
78.36000061035156
  0
LINE
  8
0
  6
CONTINUOUS
 62
     7
 10
240
 20
88.11492919921875
 11
178.599853515625
 21
88.11492919921875
  0
LINE
  8
0
  6
CONTINUOUS
 62
     7
 10
240
 20
99.49894714355469
 11
178.599853515625
 21
99.49894714355469
  0
LINE
  8
0
  6
CONTINUOUS
 62
     7
 10
240
 20
86.5
 11
178.599853515625
 21
86.5
  0
LINE
  8
0
  6
CONTINUOUS
 62
     7
 10
178.599853515625
 20
89.61499786376953
 11
178.599853515625
 21
86.19999694824219
  0
LINE
  8
0
  6
CONTINUOUS
 62
     7
 10
179.199951171875
 20
89.61499786376953
 11
176.89990234375
 21
89.61499786376953
  0
LINE
  8
0
  6
CONTINUOUS
 62
     7
 10
179.5
 20
94.31499481201172
 11
179.5
 21
89.91500091552734
  0
LINE
  8
0
  6
CONTINUOUS
 62
     7
 10
179.4991912841797
 20
89.91433715820313
 11
179.1991577148438
 21
89.61430358886719
  0
LINE
  8
0
  6
CONTINUOUS
 62
     7
 10
179.4990539550781
 20
94.31415557861328
 11
179.1990509033203
 21
94.61415863037109
  0
LINE
  8
0
  6
CONTINUOUS
 62
     7
 10
179.199951171875
 20
94.61499786376953
 11
176.89990234375
 21
94.61499786376953
  0
LINE
  8
0
  6
CENTER
 62
     7
 10
180.5
 20
92.11499786376953
 11
176.39990234375
 21
92.11499786376953
  0
LINE
  8
0
  6
CONTINUOUS
 62
     7
 10
179.199951171875
 20
78.96499633789063
 11
177.39990234375
 21
78.96499633789063
  0
LINE
  8
0
  6
CONTINUOUS
 62
     7
 10
179.5
 20
83.66499328613281
 11
179.5
 21
79.26499938964844
  0
LINE
  8
0
  6
CONTINUOUS
 62
     7
 10
179.4991912841797
 20
79.26434326171875
 11
179.1991577148438
 21
78.96430206298828
  0
LINE
  8
0
  6
CONTINUOUS
 62
     7
 10
179.4990539550781
 20
83.66415405273438
 11
179.1990509033203
 21
83.96415710449219
  0
LINE
  8
0
  6
CONTINUOUS
 62
     7
 10
179.199951171875
 20
83.96499633789063
 11
177.39990234375
 21
83.96499633789063
  0
LINE
  8
0
  6
CENTER
 62
     7
 10
180.5
 20
81.46499633789063
 11
176.39990234375
 21
81.46499633789063
  0
LINE
  8
0
  6
CONTINUOUS
 62
     7
 10
170
 20
85.50000762939453
 11
130
 21
85.50000762939453
  0
LINE
  8
0
  6
CONTINUOUS
 62
     7
 10
170
 20
96.49999237060547
 11
130
 21
96.49999237060547
  0
LINE
  8
0
  6
CONTINUOUS
 62
     7
 10
177.39990234375
 20
89.61499786376953
 11
177.39990234375
 21
78.36000061035156
  0
LINE
  8
0
  6
CONTINUOUS
 62
     7
 10
177.39990234375
 20
94.61499786376953
 11
177.39990234375
 21
115.3850021362305
  0
LINE
  8
0
  6
CONTINUOUS
 62
     7
 10
176.89990234375
 20
78.36000061035156
 11
176.89990234375
 21
131.6399993896484
  0
LINE
  8
0
  6
CONTINUOUS
 62
     7
 10
178.599853515625
 20
86.19999694824219
 11
177.39990234375
 21
85.00005340576172
  0
LINE
  8
0
  6
CENTER
 62
     7
 10
164.5
 20
131.5
 11
164.5
 21
138.5
  0
LINE
  8
0
  6
CONTINUOUS
 62
     7
 10
178.599853515625
 20
94.61499786376953
 11
178.599853515625
 21
115.3850021362305
  0
LINE
  8
0
  6
CONTINUOUS
 62
     7
 10
170
 20
71
 11
170
 21
139
  0
LINE
  8
0
  6
CONTINUOUS
 62
     7
 10
176.099853515625
 20
78.36000061035156
 11
176.099853515625
 21
131.6399993896484
  0
LINE
  8
0
  6
CONTINUOUS
 62
     7
 10
170
 20
139
 11
130
 21
139
  0
LINE
  8
0
  6
CENTER
 62
     7
 10
175
 20
98.75
 11
175
 21
89.25
  0
LINE
  8
0
  6
CENTER
 62
     7
 10
168
 20
135
 11
161
 21
135
  0
LINE
  8
0
  6
CENTER
 62
     7
 10
179.75
 20
116
 11
170.25
 21
116
  0
LINE
  8
0
  6
CONTINUOUS
 62
     7
 10
177.39990234375
 20
131.6399993896484
 11
170
 21
131.6399993896484
  0
LINE
  8
0
  6
CONTINUOUS
 62
     7
 10
240
 20
121.8850708007813
 11
178.599853515625
 21
121.8850708007813
  0
LINE
  8
0
  6
CONTINUOUS
 62
     7
 10
240
 20
110.5010528564453
 11
178.599853515625
 21
110.5010528564453
  0
LINE
  8
0
  6
CONTINUOUS
 62
     7
 10
240
 20
123.5
 11
178.599853515625
 21
123.5
  0
LINE
  8
0
  6
CONTINUOUS
 62
     7
 10
178.599853515625
 20
120.3850021362305
 11
178.599853515625
 21
123.8000030517578
  0
LINE
  8
0
  6
CONTINUOUS
 62
     7
 10
179.199951171875
 20
120.3850021362305
 11
176.89990234375
 21
120.3850021362305
  0
LINE
  8
0
  6
CONTINUOUS
 62
     7
 10
179.5
 20
115.6850051879883
 11
179.5
 21
120.0849990844727
  0
LINE
  8
0
  6
CONTINUOUS
 62
     7
 10
179.4991760253906
 20
120.0856552124023
 11
179.1991424560547
 21
120.3856887817383
  0
LINE
  8
0
  6
CONTINUOUS
 62
     7
 10
179.4990539550781
 20
115.6858444213867
 11
179.1990509033203
 21
115.3858337402344
  0
LINE
  8
0
  6
CONTINUOUS
 62
     7
 10
179.199951171875
 20
115.3850021362305
 11
176.89990234375
 21
115.3850021362305
  0
LINE
  8
0
  6
CENTER
 62
     7
 10
180.5
 20
117.8850021362305
 11
176.39990234375
 21
117.8850021362305
  0
LINE
  8
0
  6
CONTINUOUS
 62
     7
 10
179.199951171875
 20
131.0350036621094
 11
177.39990234375
 21
131.0350036621094
  0
LINE
  8
0
  6
CONTINUOUS
 62
     7
 10
179.5
 20
126.3350067138672
 11
179.5
 21
130.7350006103516
  0
LINE
  8
0
  6
CONTINUOUS
 62
     7
 10
179.4991912841797
 20
130.7356567382813
 11
179.1991577148438
 21
131.0356903076172
  0
LINE
  8
0
  6
CONTINUOUS
 62
     7
 10
179.4990539550781
 20
126.3358459472656
 11
179.1990509033203
 21
126.0358428955078
  0
LINE
  8
0
  6
CONTINUOUS
 62
     7
 10
179.199951171875
 20
126.0350036621094
 11
177.39990234375
 21
126.0350036621094
  0
LINE
  8
0
  6
CENTER
 62
     7
 10
180.5
 20
128.5350036621094
 11
176.39990234375
 21
128.5350036621094
  0
LINE
  8
0
  6
CONTINUOUS
 62
     7
 10
240
 20
86.5
 11
240
 21
123.5
  0
LINE
  8
0
  6
CONTINUOUS
 62
     7
 10
170
 20
124.4999923706055
 11
130
 21
124.4999923706055
  0
LINE
  8
0
  6
CONTINUOUS
 62
     7
 10
170
 20
113.5000076293945
 11
130
 21
113.5000076293945
  0
LINE
  8
0
  6
CONTINUOUS
 62
     7
 10
177.39990234375
 20
120.3850021362305
 11
177.39990234375
 21
131.6399993896484
  0
LINE
  8
0
  6
CENTER
 62
     7
 10
225
 20
111.25
 11
225
 21
120.75
  0
LINE
  8
0
  6
CENTER
 62
     7
 10
229.75
 20
116
 11
220.25
 21
116
  0
LINE
  8
0
  6
CENTER
 62
     7
 10
175
 20
111.25
 11
175
 21
120.75
  0
LINE
  8
0
  6
CONTINUOUS
 62
     7
 10
178.599853515625
 20
123.7999954223633
 11
177.39990234375
 21
124.9999465942383
  0
LINE
  8
0
  6
CENTER
 62
     7
 10
225
 20
98.75
 11
225
 21
89.25
  0
LINE
  8
0
  6
CENTER
 62
     7
 10
229.75
 20
94
 11
220.25
 21
94
  0
LINE
  8
0
  6
CENTER
 62
     7
 10
-6.3699951171875
 20
16.5
 11
13.30998229980469
 21
16.5
  0
LINE
  8
0
  6
CONTINUOUS
 62
     7
 10
1.779998779296875
 20
20
 11
5.8599853515625
 21
20
  0
LINE
  8
0
  6
CONTINUOUS
 62
     7
 10
1.779998779296875
 20
13
 11
5.8599853515625
 21
13
  0
LINE
  8
0
  6
CONTINUOUS
 62
     7
 10
1.129988551139832
 20
16.49996376037598
 11
1.779982566833496
 21
12.99996185302734
  0
LINE
  8
0
  6
CONTINUOUS
 62
     7
 10
1.129988431930542
 20
16.49997711181641
 11
1.779986381530762
 21
20
  0
LINE
  8
0
  6
CONTINUOUS
 62
     7
 10
3.440002679824829
 20
16.49995803833008
 11
4.090013980865479
 21
12.99994564056397
  0
LINE
  8
0
  6
CONTINUOUS
 62
     7
 10
3.43997597694397
 20
16.49997329711914
 11
4.089986801147461
 21
19.99998474121094
  0
LINE
  8
0
  6
CONTINUOUS
 62
     7
 10
5.950003623962402
 20
13.46998023986816
 11
5.859991073608398
 21
12.99997615814209
  0
LINE
  8
0
  6
CONTINUOUS
 62
     7
 10
5.950026988983154
 20
19.52000427246094
 11
5.860018730163574
 21
19.9999942779541
  0
LINE
  8
0
  6
CONTINUOUS
 62
     7
 10
7.765948295593262
 20
13.25428867340088
 11
10.51998043060303
 21
13.99996376037598
  0
LINE
  8
0
  6
CONTINUOUS
 62
     7
 10
7.749973297119141
 20
19.74999237060547
 11
10.51998615264893
 21
18.9999885559082
  0
LINE
  8
0
  6
CONTINUOUS
 62
     7
 10
2.309992790222168
 20
12.50000095367432
 11
2.599985837936401
 21
13
  0
LINE
  8
0
  6
CONTINUOUS
 62
     7
 10
2.309992074966431
 20
12.50000095367432
 11
-2.309996366500855
 21
12.50000095367432
  0
LINE
  8
0
  6
CONTINUOUS
 62
     7
 10
-2.30996584892273
 20
12.50001525878906
 11
-4.6199631690979
 21
16.50001525878906
  0
LINE
  8
0
  6
CONTINUOUS
 62
     7
 10
-4.619980335235596
 20
16.50001335144043
 11
-2.309978485107422
 21
20.50001907348633
  0
LINE
  8
0
  6
CONTINUOUS
 62
     7
 10
-2.309996843338013
 20
20.49999809265137
 11
2.309993267059326
 21
20.49999809265137
  0
LINE
  8
0
  6
CONTINUOUS
 62
     7
 10
2.309993028640747
 20
20.5
 11
2.599985837936401
 21
20
  0
LINE
  8
0
  6
CONTINUOUS
 62
     7
 10
2.396987199783325
 20
20.35000610351563
 11
25.14013671875
 21
20.35000610351563
  0
LINE
  8
0
  6
CENTER
 62
     7
 10
109.4001846313477
 20
16.49995422363281
 11
125.3287734985352
 21
16.49995422363281
  0
LINE
  8
0
  6
CONTINUOUS
 62
     7
 10
117.6001815795898
 20
20.49995231628418
 11
120.6001815795898
 21
20.49995231628418
  0
LINE
  8
0
  6
CONTINUOUS
 62
     7
 10
118.7001724243164
 20
12.99995517730713
 11
113.5001754760742
 21
12.99995517730713
  0
LINE
  8
0
  6
CONTINUOUS
 62
     7
 10
118.7001724243164
 20
12.95994663238525
 11
118.7001724243164
 21
12.99995517730713
  0
LINE
  8
0
  6
CONTINUOUS
 62
     7
 10
120.2002105712891
 20
16.49996757507324
 11
118.7002029418945
 21
12.99996566772461
  0
LINE
  8
0
  6
CONTINUOUS
 62
     7
 10
119.3002243041992
 20
16.49996757507324
 11
117.7002258300781
 21
12.99997615814209
  0
LINE
  8
0
  6
CONTINUOUS
 62
     7
 10
113.5001678466797
 20
12.99994468688965
 11
113.1001663208008
 21
13.57996273040772
  0
LINE
  8
0
  6
CONTINUOUS
 62
     7
 10
113.5001602172852
 20
19.99991035461426
 11
113.1001586914063
 21
19.41990280151367
  0
LINE
  8
0
  6
CONTINUOUS
 62
     7
 10
118.7001724243164
 20
19.99995231628418
 11
113.5001754760742
 21
19.99995231628418
  0
LINE
  8
0
  6
CONTINUOUS
 62
     7
 10
119.3002166748047
 20
16.4999885559082
 11
117.7002105712891
 21
19.99999046325684
  0
LINE
  8
0
  6
CONTINUOUS
 62
     7
 10
120.2001724243164
 20
16.49995994567871
 11
118.7001724243164
 21
19.99996185302734
  0
LINE
  8
0
  6
CONTINUOUS
 62
     7
 10
117.6001815795898
 20
12.49995517730713
 11
120.5000839233398
 21
12.49995517730713
  0
LINE
  8
0
  6
CONTINUOUS
 62
     7
 10
117.8002014160156
 20
109
 11
121.1001129150391
 21
109
  0
LINE
  8
0
  6
CONTINUOUS
 62
     7
 10
119.4202270507813
 20
101
 11
121.1001129150391
 21
101
  0
LINE
  8
0
  6
CONTINUOUS
 62
     7
 10
113.8002014160156
 20
105
 11
113.8002014160156
 21
103.327880859375
  0
LINE
  8
0
  6
CENTER
 62
     7
 10
113.3519668579102
 20
93.47788238525391
 11
118.2172698974609
 21
105.2237701416016
  0
LINE
  8
0
  6
CONTINUOUS
 62
     7
 10
111.5828857421875
 20
95.47843933105469
 11
116.0175094604492
 21
93.64156341552734
  0
LINE
  8
0
  6
CONTINUOUS
 62
     7
 10
111.7846527099609
 20
98.31734466552734
 11
117.8822479248047
 21
95.79163360595703
  0
LINE
  8
0
  6
CONTINUOUS
 62
     7
 10
111.582878112793
 20
95.47844696044922
 11
111.7846450805664
 21
98.31733703613281
  0
LINE
  8
0
  6
CONTINUOUS
 62
     7
 10
116.0175094604492
 20
93.64155578613281
 11
117.8822555541992
 21
95.79163360595703
  0
LINE
  8
0
  6
CONTINUOUS
 62
     7
 10
112.5233688354492
 20
102.0381851196289
 11
112.9380416870117
 21
103.0392608642578
  0
LINE
  8
0
  6
CONTINUOUS
 62
     7
 10
119.9909591674805
 20
98.94501495361328
 11
120.4056167602539
 21
99.94608306884766
  0
LINE
  8
0
  6
CONTINUOUS
 62
     7
 10
113.7174682617188
 20
103.3620910644531
 11
112.9380264282227
 21
103.0392303466797
  0
LINE
  8
0
  6
CONTINUOUS
 62
     7
 10
114.1606521606445
 20
100.7105941772461
 11
115.0332336425781
 21
102.8171615600586
  0
LINE
  8
0
  6
CONTINUOUS
 62
     7
 10
117.8944396972656
 20
99.16400909423828
 11
118.7670059204102
 21
101.2705841064453
  0
LINE
  8
0
  6
CONTINUOUS
 62
     7
 10
113.7174835205078
 20
103.3621597290039
 11
120.0827865600586
 21
100.7255630493164
  0
LINE
  8
0
  6
CONTINUOUS
 62
     7
 10
120.4056167602539
 20
99.94606018066406
 11
120.0827560424805
 21
100.7255096435547
  0
LINE
  8
0
  6
CONTINUOUS
 62
     7
 10
112.914924621582
 20
99.73949432373047
 11
118.0886383056641
 21
97.59645080566406
  0
LINE
  8
0
  6
CONTINUOUS
 62
     7
 10
120.6001968383789
 20
13.68820095062256
 11
120.6001968383789
 21
14.6000394821167
  0
LINE
  8
0
  6
CONTINUOUS
 62
     7
 10
120.6001815795898
 20
20.49995422363281
 11
122.6001815795898
 21
20.49995422363281
  0
LINE
  8
0
  6
CONTINUOUS
 62
     7
 10
121.10009765625
 20
100.8800048828125
 11
121.10009765625
 21
109.1199798583984
  0
LINE
  8
0
  6
CONTINUOUS
 62
     7
 10
123.10009765625
 20
109.6199951171875
 11
121.60009765625
 21
109.6199951171875
  0
LINE
  8
0
  6
CONTINUOUS
 62
     7
 10
123.10009765625
 20
107.3099975585938
 11
121.10009765625
 21
107.3099975585938
  0
LINE
  8
0
  6
CONTINUOUS
 62
     7
 10
123.10009765625
 20
100.3800048828125
 11
121.60009765625
 21
100.3800048828125
  0
LINE
  8
0
  6
CONTINUOUS
 62
     7
 10
123.10009765625
 20
102.6900024414063
 11
121.10009765625
 21
102.6900024414063
  0
LINE
  8
0
  6
CONTINUOUS
 62
     7
 10
121.6000823974609
 20
100.379997253418
 11
121.1000823974609
 21
100.879997253418
  0
LINE
  8
0
  6
CONTINUOUS
 62
     7
 10
121.10009765625
 20
109.1199798583984
 11
121.6000900268555
 21
109.6199645996094
  0
LINE
  8
0
  6
CONTINUOUS
 62
     7
 10
112.7531509399414
 20
101.2935943603516
 11
119.3019485473633
 21
98.58100128173828
  0
LINE
  8
0
  6
CONTINUOUS
 62
     7
 10
120.6001968383789
 20
19.19830894470215
 11
120.6001968383789
 21
20.49993896484375
  0
LINE
  8
0
  6
CONTINUOUS
 62
     7
 10
122.60009765625
 20
109.6199951171875
 11
122.60009765625
 21
115.3850021362305
  0
LINE
  8
0
  6
CONTINUOUS
 62
     7
 10
121.400146484375
 20
109.4200286865234
 11
121.400146484375
 21
115.3850021362305
  0
LINE
  8
0
  6
CONTINUOUS
 62
     7
 10
120.2203979492188
 20
99.49894714355469
 11
121.400146484375
 21
99.49894714355469
  0
LINE
  8
0
  6
CONTINUOUS
 62
     7
 10
123.9001846313477
 20
20.34999084472656
 11
123.9001846313477
 21
4.30999755859375
  0
LINE
  8
0
  6
CONTINUOUS
 62
     7
 10
121.4001846313477
 20
8.889999389648438
 11
121.4001846313477
 21
4.30999755859375
  0
LINE
  8
0
  6
CONTINUOUS
 62
     7
 10
122.6001815795898
 20
20.34999084472656
 11
130.0001831054688
 21
20.34999084472656
  0
LINE
  8
0
  6
CONTINUOUS
 62
     7
 10
122.6001815795898
 20
20.49995422363281
 11
122.6001815795898
 21
13.88999938964844
  0
LINE
  8
0
  6
CENTER
 62
     7
 10
118.9951248168945
 20
16.89999389648438
 11
125.1001815795898
 21
16.89999389648438
  0
LINE
  8
0
  6
CENTER
 62
     7
 10
119.7459030151367
 20
11.38999938964844
 11
125.1001815795898
 21
11.38999938964844
  0
LINE
  8
0
  6
CONTINUOUS
 62
     7
 10
120.800178527832
 20
19.39999389648438
 11
122.6001815795898
 21
19.39999389648438
  0
LINE
  8
0
  6
CONTINUOUS
 62
     7
 10
120.8001937866211
 20
14.39999389648438
 11
122.6001815795898
 21
14.39999389648438
  0
LINE
  8
0
  6
CONTINUOUS
 62
     7
 10
120.800178527832
 20
13.88999938964844
 11
123.1001358032227
 21
13.88999938964844
  0
LINE
  8
0
  6
CONTINUOUS
 62
     7
 10
120.800178527832
 20
8.889999389648438
 11
123.1001358032227
 21
8.889999389648438
  0
LINE
  8
0
  6
CONTINUOUS
 62
     7
 10
120.5001907348633
 20
19.09999084472656
 11
120.5001907348633
 21
14.69999694824219
  0
LINE
  8
0
  6
CONTINUOUS
 62
     7
 10
120.5001907348633
 20
13.58999633789063
 11
120.5001907348633
 21
9.189987182617188
  0
LINE
  8
0
  6
CONTINUOUS
 62
     7
 10
120.4998016357422
 20
13.58954238891602
 11
120.7996597290039
 21
13.88940906524658
  0
LINE
  8
0
  6
CONTINUOUS
 62
     7
 10
120.4995346069336
 20
9.189352989196777
 11
120.7995376586914
 21
8.889345169067383
  0
LINE
  8
0
  6
CONTINUOUS
 62
     7
 10
120.499641418457
 20
14.6994104385376
 11
120.7996520996094
 21
14.39940929412842
  0
LINE
  8
0
  6
CONTINUOUS
 62
     7
 10
120.4996490478516
 20
19.09941101074219
 11
120.7996826171875
 21
19.39944839477539
  0
LINE
  8
0
  6
CONTINUOUS
 62
     7
 10
130.0001831054688
 20
4.30999755859375
 11
121.4001846313477
 21
4.30999755859375
  0
LINE
  8
0
  6
CONTINUOUS
 62
     7
 10
123.1001358032227
 20
20.34999084472656
 11
123.1001358032227
 21
4.30999755859375
  0
LINE
  8
0
  6
CONTINUOUS
 62
     7
 10
122.6001815795898
 20
8.889999389648438
 11
122.6001815795898
 21
4.30999755859375
  0
LINE
  8
0
  6
CONTINUOUS
 62
     7
 10
130.0001831054688
 20
20.5
 11
130.0001831054688
 21
4.159988403320313
  0
LINE
  8
0
  6
CONTINUOUS
 62
     7
 10
130.5001831054688
 20
21.00000190734863
 11
130.0001831054688
 21
20.5000114440918
  0
CIRCLE
  8
0
  6
CONTINUOUS
 62
     7
 10
23.534912109375
 20
11.38999938964844
 40
2.5
  0
ARC
  8
0
  6
CONTINUOUS
 62
     7
 10
18.34033203125
 20
10.84700012207031
 40
1.190499305725097
 50
185.6811687577418
 51
264.3188305590127
  0
ARC
  8
0
  6
CONTINUOUS
 62
     7
 10
18.34033203125
 20
7.152999877929688
 40
1.190499305725097
 50
95.95027889428562
 51
174.0497217889597
  0
ARC
  8
0
  6
CONTINUOUS
 62
     7
 10
-29.928955078125
 20
11
 40
1.999999999999999
 50
9.978906377388636
 51
89.99998201391067
  0
ARC
  8
0
  6
CONTINUOUS
 62
     7
 10
-25.086181640625
 20
6.55999755859375
 40
2.000000000000001
 50
189.9789423495673
 51
260.467259565286
  0
ARC
  8
0
  6
CONTINUOUS
 62
     7
 10
29.9287109375
 20
11
 40
1.999999999999999
 50
89.99998201391067
 51
170.0210576504327
  0
ARC
  8
0
  6
CONTINUOUS
 62
     7
 10
25.086181640625
 20
6.55999755859375
 40
2
 50
279.5405355017899
 51
350.021038981098
  0
ARC
  8
0
  6
CONTINUOUS
 62
     7
 10
164.4998168945313
 20
8.170013427734375
 40
1.999999999999986
 50
191.2508328560505
 51
348.749196285939
  0
ARC
  8
0
  6
CONTINUOUS
 62
     7
 10
135.5
 20
8.170013427734375
 40
1.999999999999986
 50
191.2508328560505
 51
349.085733366724
  0
ARC
  8
0
  6
CONTINUOUS
 62
     7
 10
-18.34033203125
 20
7.152999877929688
 40
1.190499305725098
 50
5.950276389807507
 51
84.04968513353559
  0
CIRCLE
  8
0
  6
CONTINUOUS
 62
     7
 10
-23.534912109375
 20
11.38999938964844
 40
2.5
  0
ARC
  8
0
  6
CONTINUOUS
 62
     7
 10
-18.34033203125
 20
10.84700012207031
 40
1.190499305725098
 50
275.6812054131659
 51
354.318833063491
  0
ARC
  8
0
  6
CONTINUOUS
 62
     7
 10
17.085205078125
 20
4.760009765625
 40
0.6000000238418579
 50
191.7348473813942
 51
270.0000726276026
  0
ARC
  8
0
  6
CONTINUOUS
 62
     7
 10
19.55126953125
 20
5.942291259765625
 40
1.199999809265136
 50
96.31659559985182
 51
173.6830225928
  0
ARC
  8
0
  6
CONTINUOUS
 62
     7
 10
19.55126953125
 20
12.0577392578125
 40
1.199999809265137
 50
186.0516928598367
 51
263.9483064569179
  0
ARC
  8
0
  6
CONTINUOUS
 62
     7
 10
-19.55126953125
 20
5.942291259765625
 40
1.199999809265138
 50
6.316975585967138
 51
83.68336842796947
  0
ARC
  8
0
  6
CONTINUOUS
 62
     7
 10
12.885009765625
 20
16.90000915527344
 40
2.5
 50
229.9427753342838
 51
137.4986201437967
  0
ARC
  8
0
  6
CONTINUOUS
 62
     7
 10
-17.085205078125
 20
4.760009765625
 40
0.6000000238418581
 50
269.9999633445759
 51
348.2648641567989
  0
ARC
  8
0
  6
CONTINUOUS
 62
     7
 10
-19.55126953125
 20
12.0577392578125
 40
1.199999809265138
 50
276.0517295152607
 51
353.9483089613962
  0
CIRCLE
  8
0
  6
CONTINUOUS
 62
     7
 10
-12.885009765625
 20
16.90000915527344
 40
2.5
  0
CIRCLE
  8
0
  6
CONTINUOUS
 62
     7
 10
135.5
 20
75
 40
2.199996948242188
  0
CIRCLE
  8
0
  6
CONTINUOUS
 62
     7
 10
135.5
 20
75
 40
2.5
  0
CIRCLE
  8
0
  6
CONTINUOUS
 62
     7
 10
75
 20
94
 40
2.25
  0
CIRCLE
  8
0
  6
CONTINUOUS
 62
     7
 10
75
 20
94
 40
3.75
  0
ARC
  8
0
  6
CONTINUOUS
 62
     7
 10
7.610000610351563
 20
14.20999145507813
 40
0.9683421850204466
 50
215.3314570768741
 51
278.2972225067941
  0
ARC
  8
0
  6
CONTINUOUS
 62
     7
 10
6.620010375976563
 20
12.41999816894531
 40
1.246148109436035
 50
80.76452806729958
 51
142.1250351177266
  0
ARC
  8
0
  6
CONTINUOUS
 62
     7
 10
6.620010375976563
 20
20.58000183105469
 40
1.254199028015136
 50
217.8749648822735
 51
279.2353626496737
  0
ARC
  8
0
  6
CONTINUOUS
 62
     7
 10
7.610000610351563
 20
18.78999328613281
 40
0.9701611399650563
 50
81.7028867762326
 51
144.668542923126
  0
ARC
  8
0
  6
CONTINUOUS
 62
     7
 10
0
 20
16.5
 40
4
 50
240.0000239814524
 51
241.0449882829511
  0
ARC
  8
0
  6
CONTINUOUS
 62
     7
 10
0
 20
16.5
 40
3.998106002807617
 50
61.09406820109392
 51
298.9059349866296
  0
ARC
  8
0
  6
CONTINUOUS
 62
     7
 10
117.6002578735352
 20
16.50001525878906
 40
3.999999999999998
 50
89.99998201391055
 51
118.4958044387706
  0
ARC
  8
0
  6
CONTINUOUS
 62
     7
 10
117.6002578735352
 20
16.50001525878906
 40
3.982465744018556
 50
241.5040862782025
 51
269.9999087030625
  0
ARC
  8
0
  6
CONTINUOUS
 62
     7
 10
114.8334503173828
 20
97.05447387695313
 40
3.299999237060547
 50
131.5803705110074
 51
157.4999548639652
  0
ARC
  8
0
  6
CONTINUOUS
 62
     7
 10
114.8334503173828
 20
97.05447387695313
 40
3.29999923706055
 50
337.5000181569006
 51
3.419602296415172
  0
ARC
  8
0
  6
CONTINUOUS
 62
     7
 10
106.9170989990234
 20
99.90057373046875
 40
5.999999999999996
 50
2.433650829345525
 51
20.87173987704918
  0
ARC
  8
0
  6
CONTINUOUS
 62
     7
 10
122.4436340332031
 20
93.46926879882813
 40
6.000000000000004
 50
114.1278165022774
 51
132.5663219780771
  0
ARC
  8
0
  6
CONTINUOUS
 62
     7
 10
112.1123962402344
 20
100.1213684082031
 40
0.7999999523162822
 50
311.5798327472963
 51
2.433049772698627
  0
ARC
  8
0
  6
CONTINUOUS
 62
     7
 10
118.9261322021484
 20
97.29902648925781
 40
0.7999999523162843
 50
132.566977676238
 51
183.4201402735703
  0
ARC
  8
0
  6
CONTINUOUS
 62
     7
 10
117.8002014160156
 20
105
 40
3.999999999999998
 50
89.99998201391055
 51
180.0000186693347
  0
POLYLINE
  8
0
  6
CONTINUOUS
 62
     7
 66
     1
 10
0
 20
0
  0
VERTEX
  8
0
  6
CONTINUOUS
 62
     7
 10
6.819992065429688
 20
19.3499755859375
 42
0.1885745464292306
  0
VERTEX
  8
0
  6
CONTINUOUS
 62
     7
 10
6.460261538522269
 20
19.19028703984911
 42
0.07574466113807471
  0
VERTEX
  8
0
  6
CONTINUOUS
 62
     7
 10
6.216026985965466
 20
18.87245062832676
 42
0.03933594534514293
  0
VERTEX
  8
0
  6
CONTINUOUS
 62
     7
 10
6.046165317503697
 20
18.50711706913912
 42
0.02577125752713331
  0
VERTEX
  8
0
  6
CONTINUOUS
 62
     7
 10
5.924010893244023
 20
18.12296641807139
 42
0.01950521772357452
  0
VERTEX
  8
0
  6
CONTINUOUS
 62
     7
 10
5.836520256462827
 20
17.72875464113595
 42
0.01621461060575423
  0
VERTEX
  8
0
  6
CONTINUOUS
 62
     7
 10
5.777160254708039
 20
17.32916366168362
 42
0.014466537637782
  0
VERTEX
  8
0
  6
CONTINUOUS
 62
     7
 10
5.74229278684315
 20
16.92663897834303
 42
0.01369126526823532
  0
VERTEX
  8
0
  6
CONTINUOUS
 62
     7
 10
5.730044907543697
 20
16.5224948995088
 42
0.01360481565903361
  0
VERTEX
  8
0
  6
CONTINUOUS
 62
     7
 10
5.739761797781865
 20
16.11964974889296
 42
0.01431525852918152
  0
VERTEX
  8
0
  6
CONTINUOUS
 62
     7
 10
5.771912195952455
 20
15.71739843680845
 42
0.01598185402869217
  0
VERTEX
  8
0
  6
CONTINUOUS
 62
     7
 10
5.82842391162682
 20
15.31658057188146
 42
0.01902675483978357
  0
VERTEX
  8
0
  6
CONTINUOUS
 62
     7
 10
5.912486364333772
 20
14.92142739773305
 42
0.02487977718040127
  0
VERTEX
  8
0
  6
CONTINUOUS
 62
     7
 10
6.030502851315639
 20
14.5350316284218
 42
0.03729615370151728
  0
VERTEX
  8
0
  6
CONTINUOUS
 62
     7
 10
6.194578623268982
 20
14.16584860095528
 42
0.06998284816465658
  0
VERTEX
  8
0
  6
CONTINUOUS
 62
     7
 10
6.430164842897742
 20
13.83851861784648
 42
0.1738206340217584
  0
VERTEX
  8
0
  6
CONTINUOUS
 62
     7
 10
6.779932678960283
 20
13.6519216751302
 42
0
  0
SEQEND
  8
0
  0
POLYLINE
  8
0
  6
CONTINUOUS
 62
     7
 66
     1
 10
0
 20
0
 70
     1
  0
VERTEX
  8
0
  6
CONTINUOUS
 62
     7
 10
10.52000427246094
 20
19
 42
0.2551592727856163
  0
VERTEX
  8
0
  6
CONTINUOUS
 62
     7
 10
9.990194421972644
 20
18.57511190027379
 42
0.06319138472295248
  0
VERTEX
  8
0
  6
CONTINUOUS
 62
     7
 10
9.736099333476972
 20
17.9122252544633
 42
0.03518638918172256
  0
VERTEX
  8
0
  6
CONTINUOUS
 62
     7
 10
9.609369637790106
 20
17.21217549301894
 42
0.02798531261538153
  0
VERTEX
  8
0
  6
CONTINUOUS
 62
     7
 10
9.57000732421875
 20
16.5
 42
0.02789942790998547
  0
VERTEX
  8
0
  6
CONTINUOUS
 62
     7
 10
9.609140981222661
 20
15.789852439692
 42
0.03516017990499778
  0
VERTEX
  8
0
  6
CONTINUOUS
 62
     7
 10
9.735634869873794
 20
15.08956192317742
 42
0.06315573245381149
  0
VERTEX
  8
0
  6
CONTINUOUS
 62
     7
 10
9.989666863013211
 20
14.42582168183449
 42
0.255284426360088
  0
VERTEX
  8
0
  6
CONTINUOUS
 62
     7
 10
10.52000427246094
 20
14
 42
0.255159473047859
  0
VERTEX
  8
0
  6
CONTINUOUS
 62
     7
 10
11.04981459858741
 20
14.42488747333301
 42
0.06319156037851682
  0
VERTEX
  8
0
  6
CONTINUOUS
 62
     7
 10
11.30390981534024
 20
15.08777405749937
 42
0.03518647356583991
  0
VERTEX
  8
0
  6
CONTINUOUS
 62
     7
 10
11.4306393075316
 20
15.7878238524152
 42
0.0279853919855318
  0
VERTEX
  8
0
  6
CONTINUOUS
 62
     7
 10
11.47000122070313
 20
16.5
 42
0.02789946216538072
  0
VERTEX
  8
0
  6
CONTINUOUS
 62
     7
 10
11.4308677871041
 20
17.2101475710854
 42
0.03516022448296261
  0
VERTEX
  8
0
  6
CONTINUOUS
 62
     7
 10
11.3043740106433
 20
17.91043810603362
 42
0.06315580443701387
  0
VERTEX
  8
0
  6
CONTINUOUS
 62
     7
 10
11.05034197507806
 20
18.57417832508457
 42
0.2552843239603887
  0
SEQEND
  8
0
  0
POLYLINE
  8
0
  6
CONTINUOUS
 62
     7
 66
     1
 10
0
 20
0
 70
     1
  0
VERTEX
  8
0
  6
CONTINUOUS
 62
     7
 10
113.3002395629883
 20
19.00001525878906
 42
0.1103779425854404
  0
VERTEX
  8
0
  6
CONTINUOUS
 62
     7
 10
112.3880825165817
 20
18.79499874016015
 42
0.1025060954877986
  0
VERTEX
  8
0
  6
CONTINUOUS
 62
     7
 10
111.6407484007674
 20
18.23099092578374
 42
0.09328985436384868
  0
VERTEX
  8
0
  6
CONTINUOUS
 62
     7
 10
111.1631428528064
 20
17.42409904484611
 42
0.08782088419675775
  0
VERTEX
  8
0
  6
CONTINUOUS
 62
     7
 10
111.0002517700195
 20
16.5
 42
0.08777254616723731
  0
VERTEX
  8
0
  6
CONTINUOUS
 62
     7
 10
111.1629789987148
 20
15.57638202449158
 42
0.09326064282204921
  0
VERTEX
  8
0
  6
CONTINUOUS
 62
     7
 10
111.6402768119651
 20
14.76957645480735
 42
0.1026309238622789
  0
VERTEX
  8
0
  6
CONTINUOUS
 62
     7
 10
112.3884836505345
 20
14.20484544241641
 42
0.1103316921527124
  0
VERTEX
  8
0
  6
CONTINUOUS
 62
     7
 10
113.3002700805664
 20
14.00001621246338
 42
0.1103778622918196
  0
VERTEX
  8
0
  6
CONTINUOUS
 62
     7
 10
114.2124272259985
 20
14.20503235534048
 42
0.1025061627872718
  0
VERTEX
  8
0
  6
CONTINUOUS
 62
     7
 10
114.9597615773436
 20
14.7690398446173
 42
0.09328997514109019
  0
VERTEX
  8
0
  6
CONTINUOUS
 62
     7
 10
115.4373671397021
 20
15.57593170005039
 42
0.08782092966073035
  0
VERTEX
  8
0
  6
CONTINUOUS
 62
     7
 10
115.6002578735352
 20
16.50003051757813
 42
0.08777249021911146
  0
VERTEX
  8
0
  6
CONTINUOUS
 62
     7
 10
115.4375303525489
 20
17.42364844672455
 42
0.09326050400853964
  0
VERTEX
  8
0
  6
CONTINUOUS
 62
     7
 10
114.9602326079275
 20
18.23045407537827
 42
0.1026308365577488
  0
VERTEX
  8
0
  6
CONTINUOUS
 62
     7
 10
114.2120260811112
 20
18.79518553978474
 42
0.1103318440113821
  0
SEQEND
  8
0
  0
POLYLINE
  8
0
  6
CONTINUOUS
 62
     7
 66
     1
 10
0
 20
0
  0
VERTEX
  8
0
  6
CONTINUOUS
 62
     7
 10
114.400260925293
 20
19.75001525878906
 42
0.01434921821110561
  0
VERTEX
  8
0
  6
CONTINUOUS
 62
     7
 10
114.2413800437378
 20
19.7454542701471
 42
0.01426056112006538
  0
VERTEX
  8
0
  6
CONTINUOUS
 62
     7
 10
114.0837691590943
 20
19.73187893932937
 42
0.01417567788195349
  0
VERTEX
  8
0
  6
CONTINUOUS
 62
     7
 10
113.9276702699797
 20
19.70943630142619
 42
0.01415086977507541
  0
VERTEX
  8
0
  6
CONTINUOUS
 62
     7
 10
113.7727082710199
 20
19.67811307466875
 42
0.01410158156759499
  0
VERTEX
  8
0
  6
CONTINUOUS
 62
     7
 10
113.6194464316705
 20
19.63800554088824
 42
0.01402957761305759
  0
VERTEX
  8
0
  6
CONTINUOUS
 62
     7
 10
113.4684297376903
 20
19.58926152163519
 42
0.01393699711448783
  0
VERTEX
  8
0
  6
CONTINUOUS
 62
     7
 10
113.3201794114454
 20
19.53207616498067
 42
0.01382627700385977
  0
VERTEX
  8
0
  6
CONTINUOUS
 62
     7
 10
113.1751882920819
 20
19.46668695532571
 42
0.0137000672631705
  0
VERTEX
  8
0
  6
CONTINUOUS
 62
     7
 10
113.0339171929023
 20
19.39336816374966
 42
0.01356114429368126
  0
VERTEX
  8
0
  6
CONTINUOUS
 62
     7
 10
112.8967922998977
 20
19.31242497311056
 42
0.01332237275303226
  0
VERTEX
  8
0
  6
CONTINUOUS
 62
     7
 10
112.7650824340671
 20
19.22480669536433
 42
0.01328780149731506
  0
VERTEX
  8
0
  6
CONTINUOUS
 62
     7
 10
112.6370616633321
 20
19.12944365112517
 42
0.01315486993169281
  0
VERTEX
  8
0
  6
CONTINUOUS
 62
     7
 10
112.5140094346935
 20
19.02723834919311
 42
0.01293833503407828
  0
VERTEX
  8
0
  6
CONTINUOUS
 62
     7
 10
112.3969651709356
 20
18.91922402093345
 42
0.01278034265105036
  0
VERTEX
  8
0
  6
CONTINUOUS
 62
     7
 10
112.2856287636103
 20
18.80533504736537
 42
0.01262533131101878
  0
VERTEX
  8
0
  6
CONTINUOUS
 62
     7
 10
112.1802193323911
 20
18.68593799880041
 42
0
  0
SEQEND
  8
0
  0
POLYLINE
  8
0
  6
CONTINUOUS
 62
     7
 66
     1
 10
0
 20
0
  0
VERTEX
  8
0
  6
CONTINUOUS
 62
     7
 10
112.1761924831064
 20
14.31890221462747
 42
0.06283199533711702
  0
VERTEX
  8
0
  6
CONTINUOUS
 62
     7
 10
112.7404912982781
 20
13.79273009110688
 42
0.06649698444572665
  0
VERTEX
  8
0
  6
CONTINUOUS
 62
     7
 10
113.4204916358226
 20
13.4282253859679
 42
0.06915551843263225
  0
VERTEX
  8
0
  6
CONTINUOUS
 62
     7
 10
114.1728462578131
 20
13.25936665029187
 42
0.06975294720098699
  0
VERTEX
  8
0
  6
CONTINUOUS
 62
     7
 10
114.9416011375504
 20
13.30336465942474
 42
0.06816347455606947
  0
VERTEX
  8
0
  6
CONTINUOUS
 62
     7
 10
115.6694445747913
 20
13.55518632789498
 42
0.06499586596326386
  0
VERTEX
  8
0
  6
CONTINUOUS
 62
     7
 10
116.3060102671754
 20
13.9900177619762
 42
0.06129087960791105
  0
VERTEX
  8
0
  6
CONTINUOUS
 62
     7
 10
116.8140677744
 20
14.57011873921207
 42
0.058079597179489
  0
VERTEX
  8
0
  6
CONTINUOUS
 62
     7
 10
117.1710649344638
 20
15.25411266500303
 42
0.05590537556099037
  0
VERTEX
  8
0
  6
CONTINUOUS
 62
     7
 10
117.3647236908115
 20
16.00125659125738
 42
0.05496367752761226
  0
VERTEX
  8
0
  6
CONTINUOUS
 62
     7
 10
117.3897386556854
 20
16.77197908170362
 42
0.05547385665497513
  0
VERTEX
  8
0
  6
CONTINUOUS
 62
     7
 10
117.2456598536331
 20
17.52986839352966
 42
0.0572803791278664
  0
VERTEX
  8
0
  6
CONTINUOUS
 62
     7
 10
116.9362504880143
 20
18.23631018418953
 42
0.06026825000634959
  0
VERTEX
  8
0
  6
CONTINUOUS
 62
     7
 10
116.4710118324304
 20
18.85161945393804
 42
0.06395239830525609
  0
VERTEX
  8
0
  6
CONTINUOUS
 62
     7
 10
115.8688056876354
 20
19.33399833777623
 42
0.06744492301896746
  0
VERTEX
  8
0
  6
CONTINUOUS
 62
     7
 10
115.1621485893396
 20
19.64346068852094
 42
0.0694415600769414
  0
VERTEX
  8
0
  6
CONTINUOUS
 62
     7
 10
114.400260925293
 20
19.75001525878906
 42
0
  0
SEQEND
  8
0
  0
TEXT
  8
0
  6
CONTINUOUS
 62
     7
 10
-11.28550004959106
 20
-31.79999995231628
 40
3.599999904632568
 41
1.007125066575079
  1
HRW21CA
  0
LINE
  8
0
  6
CONTINUOUS
 62
     7
 10
-18.29576355399628
 20
4.160003662109375
 11
-18.1457699574994
 21
4.309997558593749
  0
LINE
  8
0
  6
CONTINUOUS
 62
     7
 10
-22.78588705697464
 20
4.160003662109377
 11
-22.63589346047776
 21
4.309997558593752
  0
ENDSEC
  0
EOF
