  0
SECTION
  2
HEADER
  0
ENDSEC
  0
SECTION
  2
TABLES
  0
TABLE
  2
LTYPE
 70
    22
  0
LTYPE
  2
CONTINUOUS
 70
    64
  3
Solid line
 72
    65
 73
     0
 40
0.000000
  0
LTYPE
  2
DASHED
 70
    64
  3
__ __ __ __ __ __ __ __ __ __ __ __ __ __ __
 72
    65
 73
     2
 40
3.500000
 49
2.000000
 49
-1.500000
  0
LTYPE
  2
CENTER
 70
    64
  3
____ _ ____ _ ____ _ ____ _ ____ _ ____ _ ____
 72
    65
 73
     4
 40
17.500000
 49
13.000000
 49
-1.500000
 49
1.500000
 49
-1.500000
  0
LTYPE
  2
PHANTOM
 70
    64
  3
_____ _ _ _____ _ _ _____ _ _ _____ _ _ ____  
 72
    65
 73
     6
 40
15.500000
 49
8.000000
 49
-1.500000
 49
1.500000
 49
-1.500000
 49
1.500000
 49
-1.500000
  0
LTYPE
  2
DOT
 70
    64
  3
. . . . . . . . . . . . . . . . . . . . . . . .
 72
    65
 73
     2
 40
0.25
 49
0.0
 49
-0.25
  0
ENDTAB
  0
TABLE
  2
LAYER
 70
     1
  0
LAYER
  2
0
 70
     0
 62
     7
  6
CONTINUOUS
  0
ENDTAB
  0
TABLE
  2
STYLE
 70
     1
  0
STYLE
  2
STANDARD
 70
     0
 40
0.000000
 41
1.000000
 50
0.000000
 71
     0
 42
0.200000
  3
txt
  0
ENDTAB
  0
TABLE
  2
VIEW
 70
     0
  0
ENDTAB
  0
ENDSEC
  0
SECTION
  2
BLOCKS
  0
ENDSEC
  0
SECTION
  2
ENTITIES
  0
LINE
  8
0
  6
CONTINUOUS
 62
     7
 10
135
 20
0
 11
495
 21
0
  0
LINE
  8
0
  6
CONTINUOUS
 62
     7
 10
135
 20
31
 11
235.5
 21
31
  0
LINE
  8
0
  6
CENTER
 62
     7
 10
-40
 20
32.00001525878906
 11
-40
 21
-1
  0
LINE
  8
0
  6
DASHED
 62
     7
 10
-48.75
 20
31.00001525878906
 11
-48.75
 21
17.00001525878906
  0
LINE
  8
0
  6
DASHED
 62
     7
 10
-31.25
 20
31.00001525878906
 11
-31.25
 21
17.00001525878906
  0
LINE
  8
0
  6
DASHED
 62
     7
 10
-45.5
 20
17.00001525878906
 11
-45.5
 21
0
  0
LINE
  8
0
  6
DASHED
 62
     7
 10
-34.5
 20
17.00001525878906
 11
-34.5
 21
0
  0
LINE
  8
0
  6
CENTER
 62
     7
 10
40
 20
32.00001525878906
 11
40
 21
-1
  0
LINE
  8
0
  6
CONTINUOUS
 62
     7
 10
-21
 20
60.00001525878906
 11
21
 21
60.00001525878906
  0
LINE
  8
0
  6
CONTINUOUS
 62
     7
 10
56
 20
60.00001525878906
 11
98.5
 21
60.00001525878906
  0
LINE
  8
0
  6
CENTER
 62
     7
 10
275
 20
61
 11
275
 21
8.48712158203125
  0
LINE
  8
0
  6
CONTINUOUS
 62
     7
 10
96.5260009765625
 20
35.00001525878906
 11
98.5
 21
35.00001525878906
  0
LINE
  8
0
  6
CONTINUOUS
 62
     7
 10
100
 20
58.50003051757813
 11
100
 21
36.5
  0
LINE
  8
0
  6
CONTINUOUS
 62
     7
 10
98.50002288818359
 20
60.00007247924805
 11
100.0000381469727
 21
58.50006103515625
  0
LINE
  8
0
  6
CONTINUOUS
 62
     7
 10
98.50009918212891
 20
34.99992752075195
 11
100.0000915527344
 21
36.49991989135742
  0
LINE
  8
0
  6
DASHED
 62
     7
 10
-5.25
 20
60.00001525878906
 11
-5.25
 21
44.50003051757813
  0
LINE
  8
0
  6
DASHED
 62
     7
 10
-6
 20
60.00001525878906
 11
-6
 21
44.50003051757813
  0
LINE
  8
0
  6
CONTINUOUS
 62
     7
 10
22.00002670288086
 20
59.00003814697266
 11
21.00004768371582
 21
60.00001907348633
  0
LINE
  8
0
  6
CONTINUOUS
 62
     7
 10
22
 20
59.00003051757813
 11
55
 21
59.00003051757813
  0
LINE
  8
0
  6
CONTINUOUS
 62
     7
 10
55.00003051757813
 20
59.00002288818359
 11
56.00003433227539
 21
60.00001907348633
  0
LINE
  8
0
  6
DASHED
 62
     7
 10
-8.75
 20
44.50003051757813
 11
-8.75
 21
34.50001525878906
  0
LINE
  8
0
  6
CONTINUOUS
 62
     7
 10
87.13468933105469
 20
27.58820152282715
 11
83.07762908935547
 21
12.44708824157715
  0
LINE
  8
0
  6
CONTINUOUS
 62
     7
 10
70.9000244140625
 20
8
 11
78.00016784667969
 21
8
  0
LINE
  8
0
  6
CONTINUOUS
 62
     7
 10
59.79998779296875
 20
9.000015258789063
 11
70.9000244140625
 21
9.000015258789063
  0
LINE
  8
0
  6
CONTINUOUS
 62
     7
 10
59.79998779296875
 20
8.199996948242188
 11
70.9000244140625
 21
8.199996948242188
  0
LINE
  8
0
  6
CENTER
 62
     7
 10
315
 20
9.999610900878906
 11
315
 21
5.5
  0
LINE
  8
0
  6
CONTINUOUS
 62
     7
 10
81
 20
55.0001220703125
 11
81
 21
11
  0
LINE
  8
0
  6
CONTINUOUS
 62
     7
 10
78.00008392333984
 20
7.999919414520264
 11
81.00006866455078
 21
10.99990081787109
  0
LINE
  8
0
  6
CONTINUOUS
 62
     7
 10
78.00006866455078
 20
58.00003814697266
 11
81.00004577636719
 21
55.00005722045898
  0
LINE
  8
0
  6
CONTINUOUS
 62
     7
 10
53.70001220703125
 20
10
 11
78
 21
10
  0
LINE
  8
0
  6
CONTINUOUS
 62
     7
 10
78.00006866455078
 20
9.999899864196777
 11
81.00006866455078
 21
12.99990367889404
  0
LINE
  8
0
  6
CONTINUOUS
 62
     7
 10
23.55023193359375
 20
33.50001525878906
 11
-23.55023193359375
 21
33.50001525878906
  0
LINE
  8
0
  6
CONTINUOUS
 62
     7
 10
23.55027580261231
 20
33.5
 11
24.55027770996094
 21
34.5
  0
LINE
  8
0
  6
CONTINUOUS
 62
     7
 10
24.55023193359375
 20
34.50001525878906
 11
56.26690673828125
 21
34.50001525878906
  0
LINE
  8
0
  6
CONTINUOUS
 62
     7
 10
63.5
 20
27.26690673828125
 11
63.5
 21
20.73307800292969
  0
LINE
  8
0
  6
CONTINUOUS
 62
     7
 10
-26
 20
0
 11
-58.5
 21
0
  0
LINE
  8
0
  6
CONTINUOUS
 62
     7
 10
-59.99982833862305
 20
1.500151515007019
 11
-58.49985122680664
 21
0.0001898933987831697
  0
LINE
  8
0
  6
CONTINUOUS
 62
     7
 10
-60
 20
6
 11
-60
 21
1.500213623046875
  0
LINE
  8
0
  6
CONTINUOUS
 62
     7
 10
-60
 20
25.81718444824219
 11
-60
 21
22.18284606933594
  0
LINE
  8
0
  6
CONTINUOUS
 62
     7
 10
-26
 20
31.00001525878906
 11
-54.81719970703125
 21
31.00001525878906
  0
LINE
  8
0
  6
CONTINUOUS
 62
     7
 10
-24.99995803833008
 20
30.00003051757813
 11
-25.99993705749512
 21
31.00000953674316
  0
LINE
  8
0
  6
CONTINUOUS
 62
     7
 10
25
 20
30.00001525878906
 11
-25
 21
30.00001525878906
  0
LINE
  8
0
  6
CONTINUOUS
 62
     7
 10
-24.99995803833008
 20
1.00002133846283
 11
-25.99995994567871
 21
2.023048728005961E-005
  0
LINE
  8
0
  6
CONTINUOUS
 62
     7
 10
25
 20
1
 11
-25
 21
1
  0
LINE
  8
0
  6
CENTER
 62
     7
 10
0
 20
61.00001525878906
 11
0
 21
-1
  0
LINE
  8
0
  6
CONTINUOUS
 62
     7
 10
25.00003051757813
 20
30.00000762939453
 11
26.00003051757813
 21
31.00000762939453
  0
LINE
  8
0
  6
CONTINUOUS
 62
     7
 10
26
 20
31.00001525878906
 11
54.81719970703125
 21
31.00001525878906
  0
LINE
  8
0
  6
CONTINUOUS
 62
     7
 10
60
 20
5.973219871520996
 11
60
 21
1.500228881835938
  0
LINE
  8
0
  6
CONTINUOUS
 62
     7
 10
59.99988174438477
 20
1.500119090080261
 11
58.49986267089844
 21
0.0001143661938840523
  0
LINE
  8
0
  6
CONTINUOUS
 62
     7
 10
26
 20
0
 11
58.5
 21
0
  0
LINE
  8
0
  6
CONTINUOUS
 62
     7
 10
25.00003814697266
 20
1.000000953674316
 11
26.00001907348633
 21
2.343368760193698E-005
  0
LINE
  8
0
  6
CONTINUOUS
 62
     7
 10
-60.00006103515625
 20
5.973206996917725
 11
-57.39987182617188
 21
7.474427700042725
  0
LINE
  8
0
  6
CONTINUOUS
 62
     7
 10
-53.29998779296875
 20
15.48284912109375
 11
-53.29998779296875
 21
9.841438293457031
  0
LINE
  8
0
  6
CONTINUOUS
 62
     7
 10
-60.00000381469727
 20
22.18283271789551
 11
-59.23113632202148
 21
21.41396713256836
  0
LINE
  8
0
  6
CONTINUOUS
 62
     7
 10
-55.92701721191406
 20
18.10984802246094
 11
-53.30001068115234
 21
15.48284149169922
  0
LINE
  8
0
  6
CONTINUOUS
 62
     7
 10
55.92699432373047
 20
29.89020156860352
 11
54.81718063354492
 21
31.00002098083496
  0
LINE
  8
0
  6
CONTINUOUS
 62
     7
 10
60.00000381469727
 20
25.81718444824219
 11
59.23115921020508
 21
26.58602905273438
  0
LINE
  8
0
  6
CONTINUOUS
 62
     7
 10
60
 20
25.81718444824219
 11
60
 21
22.18284606933594
  0
LINE
  8
0
  6
CONTINUOUS
 62
     7
 10
60.00000762939453
 20
22.18287086486816
 11
59.23116302490234
 21
21.41402626037598
  0
LINE
  8
0
  6
CONTINUOUS
 62
     7
 10
55.9269905090332
 20
18.10988426208496
 11
53.29998397827148
 21
15.48287868499756
  0
LINE
  8
0
  6
CONTINUOUS
 62
     7
 10
53.29998779296875
 20
15.48284912109375
 11
53.29998779296875
 21
9.841438293457031
  0
LINE
  8
0
  6
CONTINUOUS
 62
     7
 10
59.99994659423828
 20
5.973249435424805
 11
53.29998397827148
 21
9.841473579406738
  0
LINE
  8
0
  6
CONTINUOUS
 62
     7
 10
63.4999885559082
 20
27.26693534851074
 11
56.26691818237305
 21
34.50003433227539
  0
LINE
  8
0
  6
CONTINUOUS
 62
     7
 10
63.49997329711914
 20
20.73310852050781
 11
56.79997634887695
 21
14.03312206268311
  0
LINE
  8
0
  6
CONTINUOUS
 62
     7
 10
56.79998779296875
 20
14.0330810546875
 11
56.79998779296875
 21
10
  0
LINE
  8
0
  6
CONTINUOUS
 62
     7
 10
70.9000244140625
 20
10
 11
70.9000244140625
 21
8
  0
LINE
  8
0
  6
CONTINUOUS
 62
     7
 10
59.79998779296875
 20
10
 11
59.79998779296875
 21
9
  0
LINE
  8
0
  6
CONTINUOUS
 62
     7
 10
59
 20
10
 11
59
 21
9
  0
LINE
  8
0
  6
CONTINUOUS
 62
     7
 10
-59.9999885559082
 20
25.81717300415039
 11
-59.23114395141602
 21
26.58601760864258
  0
LINE
  8
0
  6
CONTINUOUS
 62
     7
 10
-55.92702484130859
 20
29.89013671875
 11
-54.81716537475586
 21
30.99999618530273
  0
LINE
  8
0
  6
CONTINUOUS
 62
     7
 10
53.69996643066406
 20
10.00000476837158
 11
53.29997634887695
 21
10.39999771118164
  0
LINE
  8
0
  6
CONTINUOUS
 62
     7
 10
-56
 20
60.00001525878906
 11
-98.5
 21
60.00001525878906
  0
LINE
  8
0
  6
DASHED
 62
     7
 10
-81.25
 20
35.00001525878906
 11
-96.5260009765625
 21
35.00001525878906
  0
LINE
  8
0
  6
CENTER
 62
     7
 10
-90
 20
61.00001525878906
 11
-90
 21
29.09687805175781
  0
LINE
  8
0
  6
CONTINUOUS
 62
     7
 10
-96.5260009765625
 20
35.00001525878906
 11
-98.5
 21
35.00001525878906
  0
LINE
  8
0
  6
CONTINUOUS
 62
     7
 10
-100
 20
58.50003051757813
 11
-100
 21
36.5
  0
LINE
  8
0
  6
CONTINUOUS
 62
     7
 10
-98.5
 20
60.00006103515625
 11
-100.0000152587891
 21
58.50004959106445
  0
LINE
  8
0
  6
CONTINUOUS
 62
     7
 10
-98.50006866455078
 20
34.99990463256836
 11
-100.0000839233398
 21
36.49991607666016
  0
LINE
  8
0
  6
DASHED
 62
     7
 10
5.25
 20
60.00001525878906
 11
5.25
 21
44.50003051757813
  0
LINE
  8
0
  6
DASHED
 62
     7
 10
6
 20
60.00001525878906
 11
6
 21
44.50003051757813
  0
LINE
  8
0
  6
CONTINUOUS
 62
     7
 10
-21.99997711181641
 20
58.99999618530273
 11
-20.99997520446777
 21
60
  0
LINE
  8
0
  6
CONTINUOUS
 62
     7
 10
-22
 20
59.00003051757813
 11
-55
 21
59.00003051757813
  0
LINE
  8
0
  6
CONTINUOUS
 62
     7
 10
-55.00001907348633
 20
58.99997711181641
 11
-56.00004577636719
 21
59.99999618530273
  0
LINE
  8
0
  6
DASHED
 62
     7
 10
8.75
 20
44.50003051757813
 11
8.75
 21
34.50001525878906
  0
LINE
  8
0
  6
CONTINUOUS
 62
     7
 10
-87.13455200195313
 20
27.58823204040527
 11
-83.07749938964844
 21
12.44712352752686
  0
LINE
  8
0
  6
CONTINUOUS
 62
     7
 10
-70.9000244140625
 20
8
 11
-78.00016021728516
 21
8
  0
LINE
  8
0
  6
CONTINUOUS
 62
     7
 10
-59.79998779296875
 20
9.000015258789063
 11
-70.9000244140625
 21
9.000015258789063
  0
LINE
  8
0
  6
CONTINUOUS
 62
     7
 10
-59.79998779296875
 20
8.199996948242188
 11
-70.9000244140625
 21
8.199996948242188
  0
LINE
  8
0
  6
CENTER
 62
     7
 10
-66.5
 20
16.00880432128906
 11
-66.5
 21
4.581321716308594
  0
LINE
  8
0
  6
CONTINUOUS
 62
     7
 10
-81
 20
55.00010681152344
 11
-81
 21
10.99983787536621
  0
LINE
  8
0
  6
CONTINUOUS
 62
     7
 10
-78.00016021728516
 20
8.000000953674316
 11
-81.00003814697266
 21
10.99987697601318
  0
LINE
  8
0
  6
CONTINUOUS
 62
     7
 10
-53.70001220703125
 20
10
 11
-78.00016021728516
 21
10
  0
LINE
  8
0
  6
CONTINUOUS
 62
     7
 10
-78.00016021728516
 20
10
 11
-81
 21
12.99984169006348
  0
LINE
  8
0
  6
CONTINUOUS
 62
     7
 10
-23.55022621154785
 20
33.50004577636719
 11
-24.55020523071289
 21
34.50002288818359
  0
LINE
  8
0
  6
CONTINUOUS
 62
     7
 10
-24.55023193359375
 20
34.50001525878906
 11
-56.26690673828125
 21
34.50001525878906
  0
LINE
  8
0
  6
CONTINUOUS
 62
     7
 10
-63.5
 20
27.26690673828125
 11
-63.5
 21
20.73307800292969
  0
LINE
  8
0
  6
CONTINUOUS
 62
     7
 10
78.00006103515625
 20
58.00003051757813
 11
-78.00007629394531
 21
58.00003051757813
  0
LINE
  8
0
  6
DASHED
 62
     7
 10
-84.75
 20
60.00001525878906
 11
-84.75
 21
35
  0
LINE
  8
0
  6
DASHED
 62
     7
 10
-84
 20
60.00001525878906
 11
-84
 21
35
  0
LINE
  8
0
  6
DASHED
 62
     7
 10
-96
 20
60.00001525878906
 11
-96
 21
35
  0
LINE
  8
0
  6
DASHED
 62
     7
 10
-95.25
 20
60.00001525878906
 11
-95.25
 21
35
  0
LINE
  8
0
  6
CONTINUOUS
 62
     7
 10
-68.75
 20
8.199996948242188
 11
-68.75
 21
7.506256103515625
  0
LINE
  8
0
  6
CONTINUOUS
 62
     7
 10
-64.25
 20
8.199996948242188
 11
-64.25
 21
7.506256103515625
  0
LINE
  8
0
  6
CONTINUOUS
 62
     7
 10
-63.50004196166992
 20
27.26691627502441
 11
-56.26694869995117
 21
34.50003433227539
  0
LINE
  8
0
  6
CONTINUOUS
 62
     7
 10
-63.50000762939453
 20
20.73305130004883
 11
-56.80001068115234
 21
14.03306484222412
  0
LINE
  8
0
  6
CONTINUOUS
 62
     7
 10
-56.79998779296875
 20
14.0330810546875
 11
-56.79998779296875
 21
10
  0
LINE
  8
0
  6
CONTINUOUS
 62
     7
 10
-70.9000244140625
 20
10
 11
-70.9000244140625
 21
8
  0
LINE
  8
0
  6
CONTINUOUS
 62
     7
 10
-59.79998779296875
 20
10
 11
-59.79998779296875
 21
9
  0
LINE
  8
0
  6
CONTINUOUS
 62
     7
 10
-59
 20
10
 11
-59
 21
9
  0
LINE
  8
0
  6
CONTINUOUS
 62
     7
 10
-53.70002365112305
 20
10.00003433227539
 11
-53.30002975463867
 21
10.40002727508545
  0
LINE
  8
0
  6
DASHED
 62
     7
 10
-81.25
 20
35.00001525878906
 11
-81.25
 21
9.499355316162109
  0
LINE
  8
0
  6
DASHED
 62
     7
 10
269
 20
60
 11
269
 21
34.99998474121094
  0
LINE
  8
0
  6
DASHED
 62
     7
 10
269.75
 20
60
 11
269.75
 21
34.99998474121094
  0
LINE
  8
0
  6
DASHED
 62
     7
 10
280.25
 20
60
 11
280.25
 21
34.99998474121094
  0
LINE
  8
0
  6
DASHED
 62
     7
 10
281
 20
60
 11
281
 21
34.99998474121094
  0
LINE
  8
0
  6
DASHED
 62
     7
 10
-11.504150390625
 20
34.50001525878906
 11
11.504150390625
 21
34.50001525878906
  0
LINE
  8
0
  6
DASHED
 62
     7
 10
-8.75
 20
44.50003051757813
 11
8.75
 21
44.50003051757813
  0
LINE
  8
0
  6
CONTINUOUS
 62
     7
 10
-56.16294097900391
 20
8.188569068908691
 11
-53.30009841918945
 21
9.841431617736816
  0
LINE
  8
0
  6
CONTINUOUS
 62
     7
 10
256.25
 20
58.5000114440918
 11
256.25
 21
8.04949951171875
  0
LINE
  8
0
  6
CONTINUOUS
 62
     7
 10
240.2000122070313
 20
8.04949951171875
 11
389.7999877929688
 21
8.04949951171875
  0
LINE
  8
0
  6
CONTINUOUS
 62
     7
 10
241.2000579833984
 20
58
 11
256.25
 21
58
  0
LINE
  8
0
  6
CONTINUOUS
 62
     7
 10
240.2000122070313
 20
58
 11
240.2000122070313
 21
8
  0
LINE
  8
0
  6
CONTINUOUS
 62
     7
 10
241.2000579833984
 20
57.99999618530273
 11
240.2000122070313
 21
56.99995422363281
  0
LINE
  8
0
  6
CONTINUOUS
 62
     7
 10
235.5
 20
32
 11
235.5
 21
10
  0
LINE
  8
0
  6
CONTINUOUS
 62
     7
 10
235.5
 20
10
 11
240.2000122070313
 21
10
  0
LINE
  8
0
  6
CONTINUOUS
 62
     7
 10
238
 20
58
 11
240.2000122070313
 21
58
  0
LINE
  8
0
  6
CONTINUOUS
 62
     7
 10
235.5000457763672
 20
32.00002288818359
 11
238.0000305175781
 21
34.50000381469727
  0
LINE
  8
0
  6
CENTER
 62
     7
 10
90
 20
61.00001525878906
 11
90
 21
29.09687805175781
  0
LINE
  8
0
  6
CONTINUOUS
 62
     7
 10
373.75
 20
58.5
 11
373.75
 21
8.04949951171875
  0
LINE
  8
0
  6
CONTINUOUS
 62
     7
 10
256.25
 20
35
 11
373.25
 21
35
  0
LINE
  8
0
  6
CONTINUOUS
 62
     7
 10
394.5
 20
32
 11
394.5
 21
10
  0
LINE
  8
0
  6
CONTINUOUS
 62
     7
 10
394.5
 20
10
 11
389.7999877929688
 21
10
  0
LINE
  8
0
  6
CONTINUOUS
 62
     7
 10
392
 20
58
 11
389.7999877929688
 21
58
  0
LINE
  8
0
  6
CONTINUOUS
 62
     7
 10
394.4999694824219
 20
32.0000114440918
 11
392
 21
34.49999237060547
  0
LINE
  8
0
  6
CONTINUOUS
 62
     7
 10
392
 20
58
 11
392
 21
10
  0
LINE
  8
0
  6
CONTINUOUS
 62
     7
 10
388.7999877929688
 20
58
 11
373.75
 21
58
  0
LINE
  8
0
  6
CONTINUOUS
 62
     7
 10
389.7999877929688
 20
58
 11
389.7999877929688
 21
8.04949951171875
  0
LINE
  8
0
  6
CONTINUOUS
 62
     7
 10
388.7999877929688
 20
58.00000381469727
 11
389.7999572753906
 21
57.00002288818359
  0
LINE
  8
0
  6
CENTER
 62
     7
 10
66.5
 20
16.00880432128906
 11
66.5
 21
4.581321716308594
  0
LINE
  8
0
  6
CENTER
 62
     7
 10
355
 20
61
 11
355
 21
8.48712158203125
  0
LINE
  8
0
  6
CENTER
 62
     7
 10
360
 20
9.999610900878906
 11
360
 21
5.5
  0
LINE
  8
0
  6
CENTER
 62
     7
 10
270
 20
9.999610900878906
 11
270
 21
5.5
  0
LINE
  8
0
  6
CONTINUOUS
 62
     7
 10
267.75
 20
8.04949951171875
 11
267.75
 21
7.506256103515625
  0
LINE
  8
0
  6
CONTINUOUS
 62
     7
 10
272.25
 20
8.04949951171875
 11
272.25
 21
7.506256103515625
  0
LINE
  8
0
  6
CONTINUOUS
 62
     7
 10
233.8620300292969
 20
50.85345458984375
 11
237.4379577636719
 21
50.85345458984375
  0
LINE
  8
0
  6
CONTINUOUS
 62
     7
 10
233.2999877929688
 20
47.96670532226563
 11
238
 21
47.96670532226563
  0
LINE
  8
0
  6
CONTINUOUS
 62
     7
 10
233.2999877929688
 20
49.87995910644531
 11
233.2999877929688
 21
44.99996948242188
  0
LINE
  8
0
  6
CONTINUOUS
 62
     7
 10
225.8000183105469
 20
49.79995727539063
 11
233.2999877929688
 21
49.79995727539063
  0
LINE
  8
0
  6
CONTINUOUS
 62
     7
 10
233.2999877929688
 20
40.19998168945313
 11
225.7999877929688
 21
40.19998168945313
  0
LINE
  8
0
  6
CONTINUOUS
 62
     7
 10
223.6500244140625
 20
48.57997131347656
 11
228.2249755859375
 21
48.57997131347656
  0
LINE
  8
0
  6
CONTINUOUS
 62
     7
 10
233.2999877929688
 20
49.87997436523438
 11
233.8620300292969
 21
50.85346221923828
  0
LINE
  8
0
  6
CONTINUOUS
 62
     7
 10
233.3000183105469
 20
44.99995422363281
 11
233.3000183105469
 21
40.11996459960938
  0
LINE
  8
0
  6
CONTINUOUS
 62
     7
 10
233.8619995117188
 20
39.14649963378906
 11
233.2999572753906
 21
40.11998748779297
  0
LINE
  8
0
  6
CONTINUOUS
 62
     7
 10
237.43798828125
 20
39.146484375
 11
233.8620300292969
 21
39.146484375
  0
LINE
  8
0
  6
CONTINUOUS
 62
     7
 10
238
 20
42.03323364257813
 11
233.3000183105469
 21
42.03323364257813
  0
LINE
  8
0
  6
CONTINUOUS
 62
     7
 10
237.4379577636719
 20
50.85344314575195
 11
238
 21
49.87995529174805
  0
LINE
  8
0
  6
CONTINUOUS
 62
     7
 10
238.0000305175781
 20
40.11999130249023
 11
237.43798828125
 21
39.14650726318359
  0
LINE
  8
0
  6
CONTINUOUS
 62
     7
 10
228.2249908447266
 20
48.57996368408203
 11
230.0649871826172
 21
44.99996185302734
  0
LINE
  8
0
  6
CONTINUOUS
 62
     7
 10
223.2528533935547
 20
47.80717468261719
 11
223.6500244140625
 21
48.5799446105957
  0
LINE
  8
0
  6
CONTINUOUS
 62
     7
 10
227.3500061035156
 20
48.57999038696289
 11
229.1900024414063
 21
44.99998474121094
  0
LINE
  8
0
  6
CONTINUOUS
 62
     7
 10
229.1899871826172
 20
44.99996185302734
 11
227.3499908447266
 21
41.41996765136719
  0
LINE
  8
0
  6
CONTINUOUS
 62
     7
 10
230.0649566650391
 20
44.99998474121094
 11
228.2249603271484
 21
41.41996383666992
  0
LINE
  8
0
  6
CONTINUOUS
 62
     7
 10
228.2250061035156
 20
41.41996765136719
 11
223.6500244140625
 21
41.41996765136719
  0
LINE
  8
0
  6
CONTINUOUS
 62
     7
 10
223.6500244140625
 20
41.41998672485352
 11
223.2528381347656
 21
42.1927604675293
  0
LINE
  8
0
  6
CENTER
 62
     7
 10
219.3239135742188
 20
45.00003051757813
 11
242.0935668945313
 21
45.00003051757813
  0
LINE
  8
0
  6
CONTINUOUS
 62
     7
 10
-78.00006866455078
 20
58.00003814697266
 11
-81.00004577636719
 21
55.00005722045898
  0
LINE
  8
0
  6
CONTINUOUS
 62
     7
 10
238
 20
58
 11
238
 21
10
  0
LINE
  8
0
  6
CENTER
 62
     7
 10
-6.817865371704102
 20
45.00003051757813
 11
14.146559715271
 21
45.00003051757813
  0
LINE
  8
0
  6
CONTINUOUS
 62
     7
 10
2.616576194763184
 20
48.50003051757813
 11
6.696562767028809
 21
48.50003051757813
  0
LINE
  8
0
  6
CONTINUOUS
 62
     7
 10
2.616576194763184
 20
41.50003051757813
 11
6.696562767028809
 21
41.50003051757813
  0
LINE
  8
0
  6
CONTINUOUS
 62
     7
 10
1.966568827629089
 20
44.99998474121094
 11
2.616561889648438
 21
41.4999885559082
  0
LINE
  8
0
  6
CONTINUOUS
 62
     7
 10
1.966565132141113
 20
45
 11
2.616556167602539
 21
48.4999885559082
  0
LINE
  8
0
  6
CONTINUOUS
 62
     7
 10
4.276581287384033
 20
44.99998092651367
 11
4.926591873168945
 21
41.49997329711914
  0
LINE
  8
0
  6
CONTINUOUS
 62
     7
 10
4.276551723480225
 20
44.99999237060547
 11
4.926562786102295
 21
48.50000762939453
  0
LINE
  8
0
  6
CONTINUOUS
 62
     7
 10
6.786579608917236
 20
41.97000122070313
 11
6.696567535400391
 21
41.49999618530273
  0
LINE
  8
0
  6
CONTINUOUS
 62
     7
 10
6.786598682403565
 20
48.02001953125
 11
6.696590900421143
 21
48.5000114440918
  0
LINE
  8
0
  6
CONTINUOUS
 62
     7
 10
8.602526664733887
 20
41.75431442260742
 11
11.35655784606934
 21
42.4999885559082
  0
LINE
  8
0
  6
CONTINUOUS
 62
     7
 10
8.586551666259766
 20
48.25001907348633
 11
11.35656452178955
 21
47.50001907348633
  0
LINE
  8
0
  6
CONTINUOUS
 62
     7
 10
-5.000020980834961
 20
42.11328506469727
 11
-2.594623401819263E-005
 21
39.22653579711914
  0
LINE
  8
0
  6
CONTINUOUS
 62
     7
 10
-4.999999046325684
 20
47.88676452636719
 11
-4.999999046325684
 21
45.00003051757813
  0
LINE
  8
0
  6
CONTINUOUS
 62
     7
 10
-3.605537494877353E-005
 20
50.77349472045898
 11
-5.000030994415283
 21
47.88674926757813
  0
LINE
  8
0
  6
CONTINUOUS
 62
     7
 10
-4.999999046325684
 20
45.00003051757813
 11
-4.999999046325684
 21
42.11329650878906
  0
LINE
  8
0
  6
CONTINUOUS
 62
     7
 10
3.937795877456665
 20
48.50001525878906
 11
3.528876550262794E-005
 21
50.77348327636719
  0
LINE
  8
0
  6
CONTINUOUS
 62
     7
 10
1.945758049259894E-005
 20
39.22655868530273
 11
3.937780141830444
 21
41.50002670288086
  0
LINE
  8
0
  6
CONTINUOUS
 62
     7
 10
257.75
 20
60
 11
372.25
 21
60
  0
LINE
  8
0
  6
CONTINUOUS
 62
     7
 10
257.75
 20
60
 11
256.25
 21
58.50000762939453
  0
LINE
  8
0
  6
CONTINUOUS
 62
     7
 10
372.25
 20
59.99999618530273
 11
373.75
 21
58.49999237060547
  0
LINE
  8
0
  6
CONTINUOUS
 62
     7
 10
283.75
 20
35
 11
283.75
 21
32.32476806640625
  0
LINE
  8
0
  6
CONTINUOUS
 62
     7
 10
283.2716064453125
 20
27.57989120483398
 11
280.3699645996094
 21
12.44705963134766
  0
LINE
  8
0
  6
CONTINUOUS
 62
     7
 10
266.25
 20
35
 11
266.25
 21
30.07476806640625
  0
LINE
  8
0
  6
CONTINUOUS
 62
     7
 10
266.2500305175781
 20
30.07475852966309
 11
269.6300659179688
 21
12.44706535339356
  0
LINE
  8
0
  6
CONTINUOUS
 62
     7
 10
363.75
 20
35
 11
363.75
 21
32.32476806640625
  0
LINE
  8
0
  6
CONTINUOUS
 62
     7
 10
363.2716369628906
 20
27.57988357543945
 11
360.3699951171875
 21
12.44705390930176
  0
LINE
  8
0
  6
CONTINUOUS
 62
     7
 10
346.25
 20
35
 11
346.25
 21
30.07476806640625
  0
LINE
  8
0
  6
CONTINUOUS
 62
     7
 10
346.2500305175781
 20
30.07475662231445
 11
349.6300354003906
 21
12.44706249237061
  0
LINE
  8
0
  6
DASHED
 62
     7
 10
-31.25
 20
17.00001525878906
 11
-48.75
 21
17.00001525878906
  0
LINE
  8
0
  6
CONTINUOUS
 62
     7
 10
135
 20
31
 11
135
 21
0
  0
LINE
  8
0
  6
CENTER
 62
     7
 10
157.5
 20
32
 11
157.5
 21
-1.000015258789063
  0
LINE
  8
0
  6
DASHED
 62
     7
 10
148.75
 20
31
 11
148.75
 21
17
  0
LINE
  8
0
  6
DASHED
 62
     7
 10
166.25
 20
31
 11
166.25
 21
17
  0
LINE
  8
0
  6
DASHED
 62
     7
 10
152
 20
17
 11
152
 21
-1.52587890625E-005
  0
LINE
  8
0
  6
DASHED
 62
     7
 10
163
 20
17
 11
163
 21
-1.52587890625E-005
  0
LINE
  8
0
  6
DASHED
 62
     7
 10
166.25
 20
17
 11
148.75
 21
17
  0
LINE
  8
0
  6
CONTINUOUS
 62
     7
 10
135
 20
9.841472625732422
 11
240.2000122070313
 21
9.841472625732422
  0
LINE
  8
0
  6
CONTINUOUS
 62
     7
 10
135
 20
5.973219871520996
 11
495
 21
5.973219871520996
  0
LINE
  8
0
  6
CONTINUOUS
 62
     7
 10
135
 20
15.48288440704346
 11
235.5
 21
15.48288440704346
  0
LINE
  8
0
  6
CONTINUOUS
 62
     7
 10
135
 20
25.81719017028809
 11
235.5
 21
25.81719017028809
  0
LINE
  8
0
  6
CONTINUOUS
 62
     7
 10
135
 20
22.18286323547363
 11
235.5
 21
22.18286323547363
  0
LINE
  8
0
  6
CONTINUOUS
 62
     7
 10
495
 20
31
 11
394.5
 21
31
  0
LINE
  8
0
  6
CONTINUOUS
 62
     7
 10
495
 20
25.81719017028809
 11
394.5
 21
25.81719017028809
  0
LINE
  8
0
  6
CONTINUOUS
 62
     7
 10
495
 20
9.841472625732422
 11
389.7999877929688
 21
9.841472625732422
  0
LINE
  8
0
  6
CONTINUOUS
 62
     7
 10
495
 20
15.48288440704346
 11
394.5
 21
15.48288440704346
  0
LINE
  8
0
  6
CONTINUOUS
 62
     7
 10
495
 20
31
 11
495
 21
0
  0
LINE
  8
0
  6
CONTINUOUS
 62
     7
 10
495
 20
22.18286323547363
 11
394.5
 21
22.18286323547363
  0
LINE
  8
0
  6
CENTER
 62
     7
 10
262.5
 20
9.04949951171875
 11
262.5
 21
-1.000015258789063
  0
LINE
  8
0
  6
CENTER
 62
     7
 10
367.5
 20
9.04949951171875
 11
367.5
 21
-1.000015258789063
  0
LINE
  8
0
  6
CENTER
 62
     7
 10
472.5
 20
32
 11
472.5
 21
-1.000015258789063
  0
LINE
  8
0
  6
CONTINUOUS
 62
     7
 10
135
 20
205
 11
235.5
 21
205
  0
LINE
  8
0
  6
CONTINUOUS
 62
     7
 10
238
 20
184
 11
256.25
 21
184
  0
LINE
  8
0
  6
CONTINUOUS
 62
     7
 10
235.5
 20
204
 11
238
 21
201.5
  0
LINE
  8
0
  6
CENTER
 62
     7
 10
275
 20
182
 11
275
 21
168
  0
LINE
  8
0
  6
CENTER
 62
     7
 10
268
 20
175
 11
282
 21
175
  0
LINE
  8
0
  6
CONTINUOUS
 62
     7
 10
135
 20
238.9999694824219
 11
235.5
 21
238.9999694824219
  0
LINE
  8
0
  6
CONTINUOUS
 62
     7
 10
135
 20
210.1828155517578
 11
235.5
 21
210.1828155517578
  0
LINE
  8
0
  6
CENTER
 62
     7
 10
157.5
 20
234.75
 11
157.5
 21
215.25
  0
LINE
  8
0
  6
CENTER
 62
     7
 10
147.75
 20
225
 11
167.25
 21
225
  0
LINE
  8
0
  6
CONTINUOUS
 62
     7
 10
256.25
 20
165
 11
256.25
 21
365
  0
LINE
  8
0
  6
CONTINUOUS
 62
     7
 10
240.2000122070313
 20
184
 11
240.2000122070313
 21
346
  0
LINE
  8
0
  6
CONTINUOUS
 62
     7
 10
238
 20
184
 11
238
 21
346
  0
LINE
  8
0
  6
CONTINUOUS
 62
     7
 10
235.5
 20
204
 11
235.5
 21
260
  0
LINE
  8
0
  6
CONTINUOUS
 62
     7
 10
135
 20
205
 11
135
 21
325
  0
LINE
  8
0
  6
CONTINUOUS
 62
     7
 10
135
 20
325
 11
235.5
 21
325
  0
LINE
  8
0
  6
CONTINUOUS
 62
     7
 10
238
 20
346
 11
256.25
 21
346
  0
LINE
  8
0
  6
CONTINUOUS
 62
     7
 10
235.5
 20
326
 11
238
 21
328.5
  0
LINE
  8
0
  6
CENTER
 62
     7
 10
157.5
 20
295.25
 11
157.5
 21
314.75
  0
LINE
  8
0
  6
CONTINUOUS
 62
     7
 10
135
 20
291.0000305175781
 11
235.5
 21
291.0000305175781
  0
LINE
  8
0
  6
CONTINUOUS
 62
     7
 10
135
 20
319.8171997070313
 11
235.5
 21
319.8171997070313
  0
LINE
  8
0
  6
CENTER
 62
     7
 10
275
 20
348
 11
275
 21
362
  0
LINE
  8
0
  6
CENTER
 62
     7
 10
268
 20
355
 11
282
 21
355
  0
LINE
  8
0
  6
CENTER
 62
     7
 10
147.75
 20
305
 11
167.25
 21
305
  0
LINE
  8
0
  6
CENTER
 62
     7
 10
275
 20
258
 11
275
 21
272
  0
LINE
  8
0
  6
CENTER
 62
     7
 10
262.5
 20
234.75
 11
262.5
 21
215.25
  0
LINE
  8
0
  6
CENTER
 62
     7
 10
252.75
 20
225
 11
272.25
 21
225
  0
LINE
  8
0
  6
CENTER
 62
     7
 10
262.5
 20
295.25
 11
262.5
 21
314.75
  0
LINE
  8
0
  6
CENTER
 62
     7
 10
252.75
 20
305
 11
272.25
 21
305
  0
LINE
  8
0
  6
CENTER
 62
     7
 10
377.25
 20
305
 11
357.75
 21
305
  0
LINE
  8
0
  6
CENTER
 62
     7
 10
367.5
 20
295.25
 11
367.5
 21
314.75
  0
LINE
  8
0
  6
CONTINUOUS
 62
     7
 10
373.75
 20
165
 11
256.25
 21
165
  0
LINE
  8
0
  6
CENTER
 62
     7
 10
496
 20
265
 11
134
 21
265
  0
LINE
  8
0
  6
CONTINUOUS
 62
     7
 10
495
 20
205
 11
394.5
 21
205
  0
LINE
  8
0
  6
CONTINUOUS
 62
     7
 10
392
 20
184
 11
373.75
 21
184
  0
LINE
  8
0
  6
CONTINUOUS
 62
     7
 10
394.5
 20
204
 11
392
 21
201.5000152587891
  0
LINE
  8
0
  6
CONTINUOUS
 62
     7
 10
373.75
 20
243.9999542236328
 11
256.25
 21
243.9999542236328
  0
LINE
  8
0
  6
CENTER
 62
     7
 10
472.5
 20
234.75
 11
472.5
 21
215.25
  0
LINE
  8
0
  6
CONTINUOUS
 62
     7
 10
495
 20
238.9999694824219
 11
394.5
 21
238.9999694824219
  0
LINE
  8
0
  6
CONTINUOUS
 62
     7
 10
495
 20
210.1828155517578
 11
394.5
 21
210.1828155517578
  0
LINE
  8
0
  6
CONTINUOUS
 62
     7
 10
373.75
 20
208.9999694824219
 11
256.25
 21
208.9999694824219
  0
LINE
  8
0
  6
CENTER
 62
     7
 10
355
 20
182
 11
355
 21
168
  0
LINE
  8
0
  6
CONTINUOUS
 62
     7
 10
389.7999877929688
 20
184
 11
389.7999877929688
 21
346
  0
LINE
  8
0
  6
CENTER
 62
     7
 10
362
 20
175
 11
348
 21
175
  0
LINE
  8
0
  6
CENTER
 62
     7
 10
482.25
 20
225
 11
462.75
 21
225
  0
LINE
  8
0
  6
CONTINUOUS
 62
     7
 10
373.75
 20
165
 11
373.75
 21
365
  0
LINE
  8
0
  6
CONTINUOUS
 62
     7
 10
392
 20
184
 11
392
 21
346
  0
LINE
  8
0
  6
CONTINUOUS
 62
     7
 10
394.5
 20
204
 11
394.5
 21
326
  0
LINE
  8
0
  6
CONTINUOUS
 62
     7
 10
495
 20
205
 11
495
 21
325
  0
LINE
  8
0
  6
CONTINUOUS
 62
     7
 10
373.75
 20
365
 11
256.25
 21
365
  0
LINE
  8
0
  6
CONTINUOUS
 62
     7
 10
495
 20
325
 11
394.5
 21
325
  0
LINE
  8
0
  6
CONTINUOUS
 62
     7
 10
392
 20
346
 11
373.75
 21
346
  0
LINE
  8
0
  6
CONTINUOUS
 62
     7
 10
394.5
 20
326
 11
392
 21
328.5
  0
LINE
  8
0
  6
CONTINUOUS
 62
     7
 10
373.75
 20
286.0000610351563
 11
256.25
 21
286.0000610351563
  0
LINE
  8
0
  6
CENTER
 62
     7
 10
472.5
 20
295.25
 11
472.5
 21
314.75
  0
LINE
  8
0
  6
CONTINUOUS
 62
     7
 10
495
 20
291.0000305175781
 11
394.5
 21
291.0000305175781
  0
LINE
  8
0
  6
CONTINUOUS
 62
     7
 10
495
 20
319.8171997070313
 11
394.5
 21
319.8171997070313
  0
LINE
  8
0
  6
CONTINUOUS
 62
     7
 10
373.75
 20
321.0000305175781
 11
256.25
 21
321.0000305175781
  0
LINE
  8
0
  6
CENTER
 62
     7
 10
355
 20
348
 11
355
 21
362
  0
LINE
  8
0
  6
CENTER
 62
     7
 10
362
 20
355
 11
348
 21
355
  0
LINE
  8
0
  6
CENTER
 62
     7
 10
355
 20
258
 11
355
 21
272
  0
LINE
  8
0
  6
CENTER
 62
     7
 10
482.25
 20
305
 11
462.75
 21
305
  0
LINE
  8
0
  6
CENTER
 62
     7
 10
377.25
 20
225
 11
357.75
 21
225
  0
LINE
  8
0
  6
CENTER
 62
     7
 10
367.5
 20
234.75
 11
367.5
 21
215.25
  0
LINE
  8
0
  6
CENTER
 62
     7
 10
222.9628448486328
 20
251.9113616943359
 11
228.5417785644531
 21
265.3800659179688
  0
LINE
  8
0
  6
CONTINUOUS
 62
     7
 10
221.3830261230469
 20
254.3688354492188
 11
225.8176422119141
 21
252.5319519042969
  0
LINE
  8
0
  6
CONTINUOUS
 62
     7
 10
221.5847778320313
 20
257.2077026367188
 11
227.682373046875
 21
254.6820068359375
  0
LINE
  8
0
  6
CONTINUOUS
 62
     7
 10
221.3830413818359
 20
254.3688354492188
 11
221.5848083496094
 21
257.2077331542969
  0
LINE
  8
0
  6
CONTINUOUS
 62
     7
 10
225.8176727294922
 20
252.5319519042969
 11
227.6824035644531
 21
254.6819915771484
  0
LINE
  8
0
  6
CONTINUOUS
 62
     7
 10
222.323486328125
 20
260.9285888671875
 11
222.7381591796875
 21
261.9296569824219
  0
LINE
  8
0
  6
CONTINUOUS
 62
     7
 10
229.7911071777344
 20
257.8353881835938
 11
230.2057647705078
 21
258.8364868164063
  0
LINE
  8
0
  6
CONTINUOUS
 62
     7
 10
223.5176086425781
 20
262.25244140625
 11
222.7381744384766
 21
261.9295959472656
  0
LINE
  8
0
  6
CONTINUOUS
 62
     7
 10
223.9608001708984
 20
259.6010131835938
 11
224.8333740234375
 21
261.7075500488281
  0
LINE
  8
0
  6
CONTINUOUS
 62
     7
 10
227.694580078125
 20
258.0544128417969
 11
228.5671539306641
 21
260.1609497070313
  0
LINE
  8
0
  6
CONTINUOUS
 62
     7
 10
222.8787384033203
 20
262.5171508789063
 11
229.8829040527344
 21
259.6159362792969
  0
LINE
  8
0
  6
CONTINUOUS
 62
     7
 10
230.2057647705078
 20
258.83642578125
 11
229.8829040527344
 21
259.6158752441406
  0
LINE
  8
0
  6
CONTINUOUS
 62
     7
 10
222.7150726318359
 20
258.6298828125
 11
227.8887786865234
 21
256.4868469238281
  0
LINE
  8
0
  6
CONTINUOUS
 62
     7
 10
233.2999877929688
 20
270
 11
233.2999877929688
 21
260
  0
LINE
  8
0
  6
CONTINUOUS
 62
     7
 10
222.8000030517578
 20
266.7999877929688
 11
222.8000030517578
 21
263.1452941894531
  0
LINE
  8
0
  6
CONTINUOUS
 62
     7
 10
233.2999877929688
 20
270
 11
238
 21
270
  0
LINE
  8
0
  6
CONTINUOUS
 62
     7
 10
225.8000030517578
 20
269.7999877929688
 11
233.2999877929688
 21
269.7999877929688
  0
LINE
  8
0
  6
CONTINUOUS
 62
     7
 10
228.4728698730469
 20
260.2000122070313
 11
233.2999877929688
 21
260.2000122070313
  0
LINE
  8
0
  6
CONTINUOUS
 62
     7
 10
233.2999877929688
 20
260
 11
238
 21
260
  0
LINE
  8
0
  6
CENTER
 62
     7
 10
221.2411041259766
 20
265
 11
239.5
 21
265
  0
LINE
  8
0
  6
CONTINUOUS
 62
     7
 10
235.5
 20
270
 11
235.5
 21
326
  0
LINE
  8
0
  6
CONTINUOUS
 62
     7
 10
222.5532989501953
 20
260.1840209960938
 11
229.1020965576172
 21
257.4714050292969
  0
ARC
  8
0
  6
CONTINUOUS
 62
     7
 10
-57.13134765625
 20
8.437728881835938
 40
0.9999999999999997
 50
252.5949201317127
 51
347.405081651625
  0
ARC
  8
0
  6
CONTINUOUS
 62
     7
 10
77.2821044921875
 20
14
 40
6
 50
277.347614476298
 51
344.9999893373032
  0
ARC
  8
0
  6
CONTINUOUS
 62
     7
 10
96.79388427734375
 20
25
 40
10
 50
89.99998201391064
 51
164.9999670255028
  0
ARC
  8
0
  6
CONTINUOUS
 62
     7
 10
-59.6259765625
 20
17.71499633789063
 40
3.720000028610226
 50
6.093024355253037
 51
83.90709810442239
  0
ARC
  8
0
  6
CONTINUOUS
 62
     7
 10
59.6259765625
 20
30.28500366210938
 40
3.72000002861023
 50
186.093001843937
 51
263.9069633218719
  0
ARC
  8
0
  6
CONTINUOUS
 62
     7
 10
59.6259765625
 20
17.71499633789063
 40
3.72000002861023
 50
96.09286592339883
 51
173.9069435145497
  0
ARC
  8
0
  6
CONTINUOUS
 62
     7
 10
59.79998779296875
 20
9.000015258789063
 40
0.8000000715255751
 50
179.9999640278213
 51
269.9999460417319
  0
ARC
  8
0
  6
CONTINUOUS
 62
     7
 10
-59.6259765625
 20
30.28500366210938
 40
3.720000028610229
 50
276.0930111786042
 51
353.906975644747
  0
ARC
  8
0
  6
CONTINUOUS
 62
     7
 10
-66.5
 20
12.5
 40
6.000000000000001
 50
253.8086379170347
 51
286.1914117155223
  0
ARC
  8
0
  6
CONTINUOUS
 62
     7
 10
-65.04998779296875
 20
7.506256103515625
 40
0.8000000715255727
 50
286.1917532249806
 51
3.597217805199504E-005
  0
ARC
  8
0
  6
CONTINUOUS
 62
     7
 10
-67.95001220703125
 20
7.506256103515625
 40
0.8000000715255686
 50
180.000008651422
 51
253.8082827471978
  0
ARC
  8
0
  6
CONTINUOUS
 62
     7
 10
-77.2821044921875
 20
14
 40
6.000000000000004
 50
195.4282311939435
 51
262.6524624770157
  0
ARC
  8
0
  6
CONTINUOUS
 62
     7
 10
-96.79388427734375
 20
25
 40
9.999999999999995
 50
15.0000328608116
 51
90.00001616485648
  0
ARC
  8
0
  6
CONTINUOUS
 62
     7
 10
-59.79998779296875
 20
9.000015258789063
 40
0.8000000715255745
 50
270.0000521370354
 51
3.597217811560613E-005
  0
ARC
  8
0
  6
CONTINUOUS
 62
     7
 10
270
 20
12.5
 40
5.999999999999999
 50
253.8085901057106
 51
286.1913639041981
  0
ARC
  8
0
  6
CONTINUOUS
 62
     7
 10
268.5499877929688
 20
7.506256103515625
 40
0.8000000715255609
 50
179.9999640278213
 51
253.8082449537847
  0
ARC
  8
0
  6
CONTINUOUS
 62
     7
 10
271.4500122070313
 20
7.506256103515625
 40
0.800000071525581
 50
286.1917190740366
 51
359.9999913485778
  0
ARC
  8
0
  6
CONTINUOUS
 62
     7
 10
225.8000183105469
 20
46.79995727539063
 40
2.999999999999999
 50
89.99998201391043
 51
165.8646416536699
  0
ARC
  8
0
  6
CONTINUOUS
 62
     7
 10
225.7999877929688
 20
43.19998168945313
 40
3.000000000000005
 50
195.642863058422
 51
270.000072627603
  0
ARC
  8
0
  6
CONTINUOUS
 62
     7
 10
8.446578025817871
 20
42.71002197265625
 40
0.9683421850204466
 50
215.3314570768741
 51
278.297222506794
  0
ARC
  8
0
  6
CONTINUOUS
 62
     7
 10
7.456587791442871
 20
40.92002868652344
 40
1.246148109436035
 50
80.76452806729958
 51
142.1250351177264
  0
ARC
  8
0
  6
CONTINUOUS
 62
     7
 10
7.456587791442871
 20
49.08003234863281
 40
1.254199028015138
 50
217.8749648822736
 51
279.2353626496737
  0
ARC
  8
0
  6
CONTINUOUS
 62
     7
 10
8.446578025817871
 20
47.29002380371094
 40
0.9701611399650598
 50
81.70288677623263
 51
144.668542923126
  0
ARC
  8
0
  6
CONTINUOUS
 62
     7
 10
0
 20
45.00003051757813
 40
4.79999923706055
 50
46.95109601507203
 51
313.1834072577874
  0
CIRCLE
  8
0
  6
CONTINUOUS
 62
     7
 10
275
 20
175
 40
5.25
  0
CIRCLE
  8
0
  6
CONTINUOUS
 62
     7
 10
275
 20
175
 40
6
  0
CIRCLE
  8
0
  6
CONTINUOUS
 62
     7
 10
157.5
 20
225
 40
5.5
  0
CIRCLE
  8
0
  6
CONTINUOUS
 62
     7
 10
157.5
 20
225
 40
8.75
  0
ARC
  8
0
  6
CONTINUOUS
 62
     7
 10
224.6335906982422
 20
255.9449005126953
 40
3.299999237060546
 50
131.5803705110077
 51
157.4999548639656
  0
ARC
  8
0
  6
CONTINUOUS
 62
     7
 10
224.6335906982422
 20
255.9449005126953
 40
3.299999237060545
 50
337.5000181569009
 51
3.419602296414694
  0
ARC
  8
0
  6
CONTINUOUS
 62
     7
 10
216.7172393798828
 20
258.7909851074219
 40
6.000000000000008
 50
2.433650829345248
 51
20.87173987704925
  0
ARC
  8
0
  6
CONTINUOUS
 62
     7
 10
232.2437896728516
 20
252.3596801757813
 40
6.000000000000011
 50
114.1278165022775
 51
132.5663219780772
  0
ARC
  8
0
  6
CONTINUOUS
 62
     7
 10
221.9125366210938
 20
259.0117797851563
 40
0.7999999523163035
 50
311.579832747295
 51
2.433049772696593
  0
ARC
  8
0
  6
CONTINUOUS
 62
     7
 10
228.7262878417969
 20
256.189453125
 40
0.7999999523162747
 50
132.5669776762372
 51
183.4201402735692
  0
ARC
  8
0
  6
CONTINUOUS
 62
     7
 10
225.8000030517578
 20
266.7999877929688
 40
2.999999999999977
 50
89.99998201391043
 51
179.9999640278208
  0
ARC
  8
0
  6
CONTINUOUS
 62
     7
 10
225.8000030517578
 20
263.2000122070313
 40
3
 50
180.0000906136925
 51
193.1569474081041
  0
POLYLINE
  8
0
  6
CONTINUOUS
 62
     7
 66
     1
 10
0
 20
0
 70
     1
  0
VERTEX
  8
0
  6
CONTINUOUS
 62
     7
 10
223.6000061035156
 20
47.50003051757813
 42
0.1103779502481582
  0
VERTEX
  8
0
  6
CONTINUOUS
 62
     7
 10
222.6878489906299
 20
47.29501400120969
 42
0.1025061363305933
  0
VERTEX
  8
0
  6
CONTINUOUS
 62
     7
 10
221.9405148857151
 20
46.73100607129057
 42
0.09328984133183661
  0
VERTEX
  8
0
  6
CONTINUOUS
 62
     7
 10
221.4629094449836
 20
45.92411405023785
 42
0.08782075722817834
  0
VERTEX
  8
0
  6
CONTINUOUS
 62
     7
 10
221.3000183105469
 20
45.00001525878906
 42
0.08777240355445695
  0
VERTEX
  8
0
  6
CONTINUOUS
 62
     7
 10
221.4627456309958
 20
44.07639721281186
 42
0.09326057043995148
  0
VERTEX
  8
0
  6
CONTINUOUS
 62
     7
 10
221.940043199607
 20
43.26959140805171
 42
0.1026309427587838
  0
VERTEX
  8
0
  6
CONTINUOUS
 62
     7
 10
222.6882498336323
 20
42.70486001215557
 42
0.1103317950026862
  0
VERTEX
  8
0
  6
CONTINUOUS
 62
     7
 10
223.6000366210938
 20
42.50003051757813
 42
0.1103779342945213
  0
VERTEX
  8
0
  6
CONTINUOUS
 62
     7
 10
224.5121937907163
 20
42.70504679735041
 42
0.1025061762890644
  0
VERTEX
  8
0
  6
CONTINUOUS
 62
     7
 10
225.2595280076436
 20
43.26905457083787
 42
0.09328989687607099
  0
VERTEX
  8
0
  6
CONTINUOUS
 62
     7
 10
225.737133449443
 20
44.07594658368452
 42
0.08782082819388538
  0
VERTEX
  8
0
  6
CONTINUOUS
 62
     7
 10
225.9000244140625
 20
45.00004577636719
 42
0.08777239923530354
  0
VERTEX
  8
0
  6
CONTINUOUS
 62
     7
 10
225.7372967233451
 20
45.92366375690579
 42
0.09326049889068216
  0
VERTEX
  8
0
  6
CONTINUOUS
 62
     7
 10
225.2599989562671
 20
46.73046945340855
 42
0.1026308733384601
  0
VERTEX
  8
0
  6
CONTINUOUS
 62
     7
 10
224.5117923443615
 20
47.29520090739473
 42
0.1103317858920438
  0
SEQEND
  8
0
  0
POLYLINE
  8
0
  6
CONTINUOUS
 62
     7
 66
     1
 10
0
 20
0
  0
VERTEX
  8
0
  6
CONTINUOUS
 62
     7
 10
222.6000366210938
 20
42.76002502441406
 42
0.06376896049958492
  0
VERTEX
  8
0
  6
CONTINUOUS
 62
     7
 10
223.1955588708344
 20
42.23066592634043
 42
0.07496051584316664
  0
VERTEX
  8
0
  6
CONTINUOUS
 62
     7
 10
223.9134586529607
 20
41.88420345441469
 42
0.06462656992508825
  0
VERTEX
  8
0
  6
CONTINUOUS
 62
     7
 10
224.7000122070313
 20
41.75003051757813
 42
0
  0
SEQEND
  8
0
  0
POLYLINE
  8
0
  6
CONTINUOUS
 62
     7
 66
     1
 10
0
 20
0
  0
VERTEX
  8
0
  6
CONTINUOUS
 62
     7
 10
222.4759437648467
 20
42.81891735348537
 42
0.06283189615912194
  0
VERTEX
  8
0
  6
CONTINUOUS
 62
     7
 10
223.0402415572532
 20
42.29274597921992
 42
0.06649687559818465
  0
VERTEX
  8
0
  6
CONTINUOUS
 62
     7
 10
223.7202405642311
 20
41.9282414549344
 42
0.06915540403803036
  0
VERTEX
  8
0
  6
CONTINUOUS
 62
     7
 10
224.4725937848539
 20
41.75938220054928
 42
0.0697528124987887
  0
VERTEX
  8
0
  6
CONTINUOUS
 62
     7
 10
225.241347484164
 20
41.80337893738132
 42
0.06816338028405751
  0
VERTEX
  8
0
  6
CONTINUOUS
 62
     7
 10
225.9691902242827
 20
42.05519873783851
 42
0.06499579177942633
  0
VERTEX
  8
0
  6
CONTINUOUS
 62
     7
 10
226.6057558889988
 20
42.49002797734163
 42
0.06129081696035932
  0
VERTEX
  8
0
  6
CONTINUOUS
 62
     7
 10
227.1138140738743
 20
43.07012668461971
 42
0.0580795354120603
  0
VERTEX
  8
0
  6
CONTINUOUS
 62
     7
 10
227.4708125953943
 20
43.75411847340259
 42
0.05590530537248314
  0
VERTEX
  8
0
  6
CONTINUOUS
 62
     7
 10
227.6644733565574
 20
44.50126057768571
 42
0.0549634731427409
  0
VERTEX
  8
0
  6
CONTINUOUS
 62
     7
 10
227.6894910031622
 20
45.27198183044673
 42
0.05547278308574261
  0
VERTEX
  8
0
  6
CONTINUOUS
 62
     7
 10
227.5454178378766
 20
46.02987099980157
 42
0.05727994281426664
  0
VERTEX
  8
0
  6
CONTINUOUS
 62
     7
 10
227.2360161642736
 20
46.73631481707687
 42
0.06026853389445303
  0
VERTEX
  8
0
  6
CONTINUOUS
 62
     7
 10
226.7707847250201
 20
47.35162796727554
 42
0.06395328574733153
  0
VERTEX
  8
0
  6
CONTINUOUS
 62
     7
 10
226.168583523296
 20
47.83401089892085
 42
0.06744598444483239
  0
VERTEX
  8
0
  6
CONTINUOUS
 62
     7
 10
225.4619289487019
 20
48.14347556994446
 42
0.06944206707373885
  0
VERTEX
  8
0
  6
CONTINUOUS
 62
     7
 10
224.7000427246094
 20
48.25003051757813
 42
0
  0
SEQEND
  8
0
  0
POLYLINE
  8
0
  6
CONTINUOUS
 62
     7
 66
     1
 10
0
 20
0
  0
VERTEX
  8
0
  6
CONTINUOUS
 62
     7
 10
222.618351224975
 20
47.26089684810614
 42
-0.0632770030595145
  0
VERTEX
  8
0
  6
CONTINUOUS
 62
     7
 10
223.2109397921077
 20
47.77976543978292
 42
-0.07412480351042301
  0
VERTEX
  8
0
  6
CONTINUOUS
 62
     7
 10
223.922254967265
 20
48.11856024796231
 42
-0.06381305383780228
  0
VERTEX
  8
0
  6
CONTINUOUS
 62
     7
 10
224.6998901367188
 20
48.25003051757813
 42
0
  0
SEQEND
  8
0
  0
POLYLINE
  8
0
  6
CONTINUOUS
 62
     7
 66
     1
 10
0
 20
0
 70
     1
  0
VERTEX
  8
0
  6
CONTINUOUS
 62
     7
 10
11.35658168792725
 20
47.50003051757813
 42
0.255159272785623
  0
VERTEX
  8
0
  6
CONTINUOUS
 62
     7
 10
10.82677183743896
 20
47.07514241785192
 42
0.06319138472292138
  0
VERTEX
  8
0
  6
CONTINUOUS
 62
     7
 10
10.57267674894329
 20
46.41225577204143
 42
0.03518638918179281
  0
VERTEX
  8
0
  6
CONTINUOUS
 62
     7
 10
10.44594705325642
 20
45.71220601059709
 42
0.02798531261541686
  0
VERTEX
  8
0
  6
CONTINUOUS
 62
     7
 10
10.40658473968506
 20
45.00003051757812
 42
0.02789942791003103
  0
VERTEX
  8
0
  6
CONTINUOUS
 62
     7
 10
10.44571839668897
 20
44.28988295727014
 42
0.03516017990494653
  0
VERTEX
  8
0
  6
CONTINUOUS
 62
     7
 10
10.5722122853401
 20
43.58959244075556
 42
0.06315573245377147
  0
VERTEX
  8
0
  6
CONTINUOUS
 62
     7
 10
10.82624427847951
 20
42.92585219941262
 42
0.2552844263597306
  0
VERTEX
  8
0
  6
CONTINUOUS
 62
     7
 10
11.35658168792724
 20
42.50003051757813
 42
0.255159444242903
  0
VERTEX
  8
0
  6
CONTINUOUS
 62
     7
 10
11.88639179703004
 20
42.92491824981082
 42
0.06319147493970329
  0
VERTEX
  8
0
  6
CONTINUOUS
 62
     7
 10
12.14048693918092
 20
43.58780486861096
 42
0.03518642902219905
  0
VERTEX
  8
0
  6
CONTINUOUS
 62
     7
 10
12.26721652355681
 20
44.28785464865479
 42
0.02798535021578121
  0
VERTEX
  8
0
  6
CONTINUOUS
 62
     7
 10
12.30657863616943
 20
45.00003051757813
 42
0.02789949247686317
  0
VERTEX
  8
0
  6
CONTINUOUS
 62
     7
 10
12.26744543152288
 20
45.71017810127693
 42
0.03516026408843458
  0
VERTEX
  8
0
  6
CONTINUOUS
 62
     7
 10
12.14095178490499
 20
46.41046865820344
 42
0.06315586914455605
  0
VERTEX
  8
0
  6
CONTINUOUS
 62
     7
 10
11.88691973960936
 20
47.07420886844242
 42
0.2552843449375599
  0
SEQEND
  8
0
  0
POLYLINE
  8
0
  6
CONTINUOUS
 62
     7
 66
     1
 10
0
 20
0
  0
VERTEX
  8
0
  6
CONTINUOUS
 62
     7
 10
7.656569480895996
 20
47.85000610351563
 42
0.1885746071952243
  0
VERTEX
  8
0
  6
CONTINUOUS
 62
     7
 10
7.296839012636421
 20
47.69031748598262
 42
0.07574462457754144
  0
VERTEX
  8
0
  6
CONTINUOUS
 62
     7
 10
7.052604531215247
 20
47.37248103892077
 42
0.03933592155750244
  0
VERTEX
  8
0
  6
CONTINUOUS
 62
     7
 10
6.882742896526243
 20
47.00714748151644
 42
0.02577124213932674
  0
VERTEX
  8
0
  6
CONTINUOUS
 62
     7
 10
6.760588476065744
 20
46.62299684601094
 42
0.01950520664568619
  0
VERTEX
  8
0
  6
CONTINUOUS
 62
     7
 10
6.673097821167869
 20
46.2287850898756
 42
0.0162146019438487
  0
VERTEX
  8
0
  6
CONTINUOUS
 62
     7
 10
6.613737784255141
 20
45.82919413245131
 42
0.01446653041898646
  0
VERTEX
  8
0
  6
CONTINUOUS
 62
     7
 10
6.578870267237786
 20
45.42666947004981
 42
0.01369125893321381
  0
VERTEX
  8
0
  6
CONTINUOUS
 62
     7
 10
6.5666223267431
 20
45.02252540977759
 42
0.0136048281231903
  0
VERTEX
  8
0
  6
CONTINUOUS
 62
     7
 10
6.576339272367937
 20
44.61968027772543
 42
0.01431525146579053
  0
VERTEX
  8
0
  6
CONTINUOUS
 62
     7
 10
6.608489721768306
 20
44.21742898673902
 42
0.01598184561791165
  0
VERTEX
  8
0
  6
CONTINUOUS
 62
     7
 10
6.665001475163574
 20
43.81661114403033
 42
0.01902674421869664
  0
VERTEX
  8
0
  6
CONTINUOUS
 62
     7
 10
6.749063948991042
 20
43.42145799133
 42
0.02487976259998188
  0
VERTEX
  8
0
  6
CONTINUOUS
 62
     7
 10
6.867080435955424
 20
43.03506223922935
 42
0.03729613158320196
  0
VERTEX
  8
0
  6
CONTINUOUS
 62
     7
 10
7.031156179356922
 20
42.66587921664179
 42
0.06998281406659843
  0
VERTEX
  8
0
  6
CONTINUOUS
 62
     7
 10
7.266742334307275
 20
42.33854920496911
 42
0.1738206737492014
  0
VERTEX
  8
0
  6
CONTINUOUS
 62
     7
 10
7.616510111377388
 20
42.15195219283167
 42
0
  0
SEQEND
  8
0
  0
POLYLINE
  8
0
  6
CONTINUOUS
 62
     7
 66
     1
 10
0
 20
0
  0
VERTEX
  8
0
  6
CONTINUOUS
 62
     7
 10
269.6300354003906
 20
12.44708251953125
 42
0.1215483381485171
  0
VERTEX
  8
0
  6
CONTINUOUS
 62
     7
 10
270.8626627510984
 20
10.65899557995243
 42
0.1150711674518312
  0
VERTEX
  8
0
  6
CONTINUOUS
 62
     7
 10
272.8241182392405
 20
9.721509658990907
 42
0.05929758770676784
  0
VERTEX
  8
0
  6
CONTINUOUS
 62
     7
 10
275
 20
9.48712158203125
 42
0.059334922647223
  0
VERTEX
  8
0
  6
CONTINUOUS
 62
     7
 10
277.1769695753511
 20
9.7217725008004
 42
0.1151839474469748
  0
VERTEX
  8
0
  6
CONTINUOUS
 62
     7
 10
279.1390857959293
 20
10.66043882545046
 42
0.1213617818884794
  0
VERTEX
  8
0
  6
CONTINUOUS
 62
     7
 10
280.3699951171875
 20
12.44708251953125
 42
0
  0
SEQEND
  8
0
  0
POLYLINE
  8
0
  6
CONTINUOUS
 62
     7
 66
     1
 10
0
 20
0
  0
VERTEX
  8
0
  6
CONTINUOUS
 62
     7
 10
283.75
 20
32.32476806640625
 42
-0.004853543480486734
  0
VERTEX
  8
0
  6
CONTINUOUS
 62
     7
 10
283.6212647130793
 20
30.74017834504097
 42
-0.0048524775380959
  0
VERTEX
  8
0
  6
CONTINUOUS
 62
     7
 10
283.4617880044091
 20
29.15835354176798
 42
-0.00485586945611795
  0
VERTEX
  8
0
  6
CONTINUOUS
 62
     7
 10
283.2716369628906
 20
27.57992553710938
 42
0
  0
SEQEND
  8
0
  0
POLYLINE
  8
0
  6
CONTINUOUS
 62
     7
 66
     1
 10
0
 20
0
  0
VERTEX
  8
0
  6
CONTINUOUS
 62
     7
 10
349.6300354003906
 20
12.44708251953125
 42
0.1215483381483324
  0
VERTEX
  8
0
  6
CONTINUOUS
 62
     7
 10
350.8626627510984
 20
10.65899557995243
 42
0.1150711674508726
  0
VERTEX
  8
0
  6
CONTINUOUS
 62
     7
 10
352.8241182392405
 20
9.721509658990907
 42
0.05929758770698978
  0
VERTEX
  8
0
  6
CONTINUOUS
 62
     7
 10
355
 20
9.48712158203125
 42
0.05933492264740282
  0
VERTEX
  8
0
  6
CONTINUOUS
 62
     7
 10
357.1769695753511
 20
9.7217725008004
 42
0.1151839474463651
  0
VERTEX
  8
0
  6
CONTINUOUS
 62
     7
 10
359.1390857959293
 20
10.66043882545046
 42
0.1213617818876457
  0
VERTEX
  8
0
  6
CONTINUOUS
 62
     7
 10
360.3699951171875
 20
12.44708251953125
 42
0
  0
SEQEND
  8
0
  0
POLYLINE
  8
0
  6
CONTINUOUS
 62
     7
 66
     1
 10
0
 20
0
  0
VERTEX
  8
0
  6
CONTINUOUS
 62
     7
 10
363.75
 20
32.32476806640625
 42
-0.004853543480521596
  0
VERTEX
  8
0
  6
CONTINUOUS
 62
     7
 10
363.6212647130793
 20
30.74017834504097
 42
-0.004852477538081912
  0
VERTEX
  8
0
  6
CONTINUOUS
 62
     7
 10
363.4617880044091
 20
29.15835354176798
 42
-0.004855869456250736
  0
VERTEX
  8
0
  6
CONTINUOUS
 62
     7
 10
363.2716369628906
 20
27.57992553710938
 42
0
  0
SEQEND
  8
0
  0
TEXT
  8
0
  6
CONTINUOUS
 62
     7
 10
-11.28550004959106
 20
-31.79999995231628
 40
3.599999904632568
 41
1.007125066575079
  1
HRW60CA
  0
ENDSEC
  0
EOF
