  0
SECTION
  2
HEADER
  0
ENDSEC
  0
SECTION
  2
TABLES
  0
TABLE
  2
LTYPE
 70
    22
  0
LTYPE
  2
CONTINUOUS
 70
    64
  3
Solid line
 72
    65
 73
     0
 40
0.000000
  0
LTYPE
  2
DASHED
 70
    64
  3
__ __ __ __ __ __ __ __ __ __ __ __ __ __ __
 72
    65
 73
     2
 40
3.500000
 49
2.000000
 49
-1.500000
  0
LTYPE
  2
CENTER
 70
    64
  3
____ _ ____ _ ____ _ ____ _ ____ _ ____ _ ____
 72
    65
 73
     4
 40
17.500000
 49
13.000000
 49
-1.500000
 49
1.500000
 49
-1.500000
  0
LTYPE
  2
PHANTOM
 70
    64
  3
_____ _ _ _____ _ _ _____ _ _ _____ _ _ ____  
 72
    65
 73
     6
 40
15.500000
 49
8.000000
 49
-1.500000
 49
1.500000
 49
-1.500000
 49
1.500000
 49
-1.500000
  0
LTYPE
  2
DOT
 70
    64
  3
. . . . . . . . . . . . . . . . . . . . . . . .
 72
    65
 73
     2
 40
0.25
 49
0.0
 49
-0.25
  0
ENDTAB
  0
TABLE
  2
LAYER
 70
     1
  0
LAYER
  2
0
 70
     0
 62
     7
  6
CONTINUOUS
  0
ENDTAB
  0
TABLE
  2
STYLE
 70
     1
  0
STYLE
  2
STANDARD
 70
     0
 40
0.000000
 41
1.000000
 50
0.000000
 71
     0
 42
0.200000
  3
txt
  0
ENDTAB
  0
TABLE
  2
VIEW
 70
     0
  0
ENDTAB
  0
ENDSEC
  0
SECTION
  2
BLOCKS
  0
ENDSEC
  0
SECTION
  2
ENTITIES
  0
LINE
  8
0
  6
CONTINUOUS
 62
     7
 10
64.75
 20
19.4
 11
64.75
 21
3.0999999
  0
LINE
  8
0
  6
CONTINUOUS
 62
     7
 10
95.25
 20
19.4
 11
95.25
 21
3.0999999
  0
LINE
  8
0
  6
CONTINUOUS
 62
     7
 10
64.75
 20
3.0999999
 11
95.25
 21
3.0999999
  0
LINE
  8
0
  6
CONTINUOUS
 62
     7
 10
64.75
 20
19.4
 11
65.349998
 21
20
  0
LINE
  8
0
  6
CONTINUOUS
 62
     7
 10
94.650002
 20
19.999998
 11
95.25
 21
19.4
  0
LINE
  8
0
  6
CENTER
 62
     7
 10
87.5
 20
20.688091
 11
87.5
 21
12.604612
  0
LINE
  8
0
  6
CENTER
 62
     7
 10
72.5
 20
20.725342
 11
72.5
 21
12.604612
  0
LINE
  8
0
  6
DASHED
 62
     7
 10
70.5
 20
20
 11
70.5
 21
15.5
  0
LINE
  8
0
  6
DASHED
 62
     7
 10
74.5
 20
20
 11
74.5
 21
15.5
  0
LINE
  8
0
  6
DASHED
 62
     7
 10
74.119995
 20
20
 11
74.119995
 21
14.1
  0
LINE
  8
0
  6
DASHED
 62
     7
 10
70.880005
 20
20
 11
70.880005
 21
14.1
  0
LINE
  8
0
  6
DASHED
 62
     7
 10
70.5
 20
15.5
 11
74.5
 21
15.5
  0
LINE
  8
0
  6
DASHED
 62
     7
 10
70.880005
 20
14.1
 11
74.119995
 21
14.1
  0
LINE
  8
0
  6
DASHED
 62
     7
 10
74.120003
 20
15.120002
 11
74.5
 21
15.500001
  0
LINE
  8
0
  6
DASHED
 62
     7
 10
72.5
 20
13.164693
 11
74.120003
 21
14.100003
  0
LINE
  8
0
  6
DASHED
 62
     7
 10
72.5
 20
13.16469
 11
70.879997
 21
14.099997
  0
LINE
  8
0
  6
DASHED
 62
     7
 10
70.879997
 20
15.120002
 11
70.5
 21
15.500001
  0
LINE
  8
0
  6
CONTINUOUS
 62
     7
 10
64.75
 20
14.200001
 11
95.25
 21
14.200001
  0
LINE
  8
0
  6
CONTINUOUS
 62
     7
 10
65.350006
 20
20
 11
94.650002
 21
20
  0
LINE
  8
0
  6
CONTINUOUS
 62
     7
 10
59
 20
17.5
 11
59
 21
3.3
  0
LINE
  8
0
  6
CONTINUOUS
 62
     7
 10
64.75
 20
17.5
 11
64.75
 21
3.3
  0
LINE
  8
0
  6
CONTINUOUS
 62
     7
 10
59
 20
17.5
 11
64.75
 21
17.5
  0
LINE
  8
0
  6
CONTINUOUS
 62
     7
 10
59
 20
3.3
 11
64.75
 21
3.3
  0
LINE
  8
0
  6
CONTINUOUS
 62
     7
 10
57.5
 20
17.4
 11
57.5
 21
3.5999999
  0
LINE
  8
0
  6
CONTINUOUS
 62
     7
 10
57.5
 20
17.4
 11
59
 21
17.4
  0
LINE
  8
0
  6
CONTINUOUS
 62
     7
 10
57.5
 20
3.5999999
 11
59
 21
3.5999999
  0
LINE
  8
0
  6
CONTINUOUS
 62
     7
 10
101
 20
17.5
 11
95.25
 21
17.5
  0
LINE
  8
0
  6
CONTINUOUS
 62
     7
 10
102.5
 20
17.4
 11
101
 21
17.4
  0
LINE
  8
0
  6
CONTINUOUS
 62
     7
 10
102.5
 20
17.4
 11
102.5
 21
3.5999999
  0
LINE
  8
0
  6
CONTINUOUS
 62
     7
 10
102.5
 20
3.5999999
 11
101
 21
3.5999999
  0
LINE
  8
0
  6
CONTINUOUS
 62
     7
 10
101
 20
17.5
 11
101
 21
3.3
  0
LINE
  8
0
  6
CONTINUOUS
 62
     7
 10
101
 20
3.3
 11
95.25
 21
3.3
  0
LINE
  8
0
  6
CONTINUOUS
 62
     7
 10
30
 20
11
 11
57.5
 21
11
  0
LINE
  8
0
  6
CONTINUOUS
 62
     7
 10
30
 20
9.6499996
 11
57.5
 21
9.6499996
  0
LINE
  8
0
  6
CONTINUOUS
 62
     7
 10
30
 20
8.3500004
 11
57.5
 21
8.3500004
  0
LINE
  8
0
  6
CONTINUOUS
 62
     7
 10
30
 20
6.1499996
 11
57.5
 21
6.1499996
  0
LINE
  8
0
  6
CONTINUOUS
 62
     7
 10
30
 20
4.2656403
 11
57.5
 21
4.2656403
  0
LINE
  8
0
  6
CONTINUOUS
 62
     7
 10
30
 20
0
 11
130
 21
0
  0
LINE
  8
0
  6
CONTINUOUS
 62
     7
 10
30
 20
11
 11
30
 21
0
  0
LINE
  8
0
  6
CONTINUOUS
 62
     7
 10
130
 20
11
 11
130
 21
0
  0
LINE
  8
0
  6
CONTINUOUS
 62
     7
 10
102.5
 20
11
 11
130
 21
11
  0
LINE
  8
0
  6
CONTINUOUS
 62
     7
 10
102.5
 20
9.6499996
 11
130
 21
9.6499996
  0
LINE
  8
0
  6
CONTINUOUS
 62
     7
 10
102.5
 20
8.3500004
 11
130
 21
8.3500004
  0
LINE
  8
0
  6
CONTINUOUS
 62
     7
 10
102.5
 20
6.1499996
 11
130
 21
6.1499996
  0
LINE
  8
0
  6
CONTINUOUS
 62
     7
 10
102.5
 20
4.2656403
 11
130
 21
4.2656403
  0
LINE
  8
0
  6
CONTINUOUS
 62
     7
 10
30
 20
2.99547
 11
130
 21
2.99547
  0
LINE
  8
0
  6
CONTINUOUS
 62
     7
 10
-12.5
 20
3.0999999
 11
-6.9099998
 21
3.0999999
  0
LINE
  8
0
  6
CONTINUOUS
 62
     7
 10
13.5
 20
19.5
 11
13.5
 21
14.200001
  0
LINE
  8
0
  6
CONTINUOUS
 62
     7
 10
-13.499998
 20
19.499998
 11
-12.999999
 21
19.999998
  0
LINE
  8
0
  6
CONTINUOUS
 62
     7
 10
12.999999
 20
20
 11
13.499999
 21
19.499998
  0
LINE
  8
0
  6
CONTINUOUS
 62
     7
 10
-4
 20
19.5
 11
4
 21
19.5
  0
LINE
  8
0
  6
CONTINUOUS
 62
     7
 10
3.9999995
 20
19.499998
 11
4.5
 21
20
  0
LINE
  8
0
  6
CONTINUOUS
 62
     7
 10
-4.5000014
 20
20
 11
-4.000001
 21
19.5
  0
LINE
  8
0
  6
CONTINUOUS
 62
     7
 10
-13.200001
 20
14
 11
-13.200001
 21
3.8
  0
LINE
  8
0
  6
CONTINUOUS
 62
     7
 10
-13.500001
 20
14.300001
 11
-13.200001
 21
14
  0
LINE
  8
0
  6
CONTINUOUS
 62
     7
 10
13.3
 20
14
 11
13.3
 21
3.8
  0
LINE
  8
0
  6
CONTINUOUS
 62
     7
 10
13.299999
 20
14
 11
13.499999
 21
14.2
  0
LINE
  8
0
  6
CONTINUOUS
 62
     7
 10
12.599999
 20
3.0999997
 11
13.299999
 21
3.7999995
  0
LINE
  8
0
  6
CONTINUOUS
 62
     7
 10
-13.200001
 20
3.7999988
 11
-12.5
 21
3.0999982
  0
LINE
  8
0
  6
CENTER
 62
     7
 10
-7.5
 20
20.533947
 11
-7.5
 21
12.721682
  0
LINE
  8
0
  6
CENTER
 62
     7
 10
7.5
 20
20.652313
 11
7.5
 21
12.800594
  0
LINE
  8
0
  6
CONTINUOUS
 62
     7
 10
6.9099998
 20
3.0999997
 11
6.5635891
 21
3.3
  0
LINE
  8
0
  6
CONTINUOUS
 62
     7
 10
6.9099998
 20
3.0999999
 11
12.6
 21
3.0999999
  0
LINE
  8
0
  6
CONTINUOUS
 62
     7
 10
-13
 20
20
 11
-4.5
 21
20
  0
LINE
  8
0
  6
CONTINUOUS
 62
     7
 10
4.5
 20
20
 11
13
 21
20
  0
LINE
  8
0
  6
CONTINUOUS
 62
     7
 10
-13.5
 20
19.5
 11
-13.5
 21
14.299999
  0
LINE
  8
0
  6
CONTINUOUS
 62
     7
 10
5.2000003
 20
1.6858739E-007
 11
5.9999995
 21
0.79999977
  0
LINE
  8
0
  6
CONTINUOUS
 62
     7
 10
-5.2000003
 20
-1.6858739E-007
 11
-6
 21
0.79999995
  0
LINE
  8
0
  6
CONTINUOUS
 62
     7
 10
6.0000005
 20
2.99547
 11
3.8000004
 21
4.2656407
  0
LINE
  8
0
  6
CONTINUOUS
 62
     7
 10
-6
 20
2.9954698
 11
-3.7999997
 21
4.2656407
  0
LINE
  8
0
  6
CONTINUOUS
 62
     7
 10
-5.2000008
 20
0
 11
5.1999998
 21
0
  0
LINE
  8
0
  6
CONTINUOUS
 62
     7
 10
-6
 20
2.99547
 11
-6
 21
0.79999995
  0
LINE
  8
0
  6
CONTINUOUS
 62
     7
 10
6
 20
2.99547
 11
6
 21
0.79999995
  0
LINE
  8
0
  6
CONTINUOUS
 62
     7
 10
-3.7999992
 20
6.1499996
 11
-3.7999992
 21
4.2656403
  0
LINE
  8
0
  6
CONTINUOUS
 62
     7
 10
3.7999992
 20
6.1499996
 11
3.7999992
 21
4.2656403
  0
LINE
  8
0
  6
CONTINUOUS
 62
     7
 10
-12.200001
 20
3.3
 11
-6.8725376
 21
3.3
  0
LINE
  8
0
  6
CONTINUOUS
 62
     7
 10
-12.200001
 20
17.5
 11
12.2
 21
17.5
  0
LINE
  8
0
  6
CONTINUOUS
 62
     7
 10
-12.799999
 20
16.899998
 11
-12.799999
 21
3.9000001
  0
LINE
  8
0
  6
CONTINUOUS
 62
     7
 10
12.8
 20
16.899998
 11
12.8
 21
3.9000006
  0
LINE
  8
0
  6
CONTINUOUS
 62
     7
 10
-12.799999
 20
16.9
 11
-12.199999
 21
17.5
  0
LINE
  8
0
  6
CONTINUOUS
 62
     7
 10
12.199999
 20
17.499998
 11
12.8
 21
16.899998
  0
LINE
  8
0
  6
CONTINUOUS
 62
     7
 10
-12.799998
 20
3.8999999
 11
-12.199999
 21
3.3
  0
LINE
  8
0
  6
CONTINUOUS
 62
     7
 10
12.2
 20
3.3
 11
12.799999
 21
3.8999999
  0
LINE
  8
0
  6
CONTINUOUS
 62
     7
 10
2.3999996
 20
17.4
 11
2.3999996
 21
14.799999
  0
LINE
  8
0
  6
CONTINUOUS
 62
     7
 10
-2.3999996
 20
17.4
 11
-2.3999996
 21
14.799999
  0
LINE
  8
0
  6
CONTINUOUS
 62
     7
 10
-9
 20
17.4
 11
-9
 21
14.9
  0
LINE
  8
0
  6
CONTINUOUS
 62
     7
 10
-4
 20
17.4
 11
-4
 21
14.9
  0
LINE
  8
0
  6
CONTINUOUS
 62
     7
 10
-4.6499996
 20
11
 11
4.6499996
 21
11
  0
LINE
  8
0
  6
CONTINUOUS
 62
     7
 10
-6.000001
 20
9.6500006
 11
-5.8956375
 21
9.754364
  0
LINE
  8
0
  6
CONTINUOUS
 62
     7
 10
-6
 20
9.6499996
 11
-6
 21
8.3500004
  0
LINE
  8
0
  6
CONTINUOUS
 62
     7
 10
-6.0000005
 20
8.3500013
 11
-5.8956347
 21
8.245635
  0
LINE
  8
0
  6
CONTINUOUS
 62
     7
 10
-4.754364
 20
10.895638
 11
-4.650001
 21
11
  0
LINE
  8
0
  6
CONTINUOUS
 62
     7
 10
-4.754364
 20
7.1043644
 11
-3.7999992
 21
6.1499996
  0
LINE
  8
0
  6
CONTINUOUS
 62
     7
 10
4.754364
 20
10.895636
 11
4.6499996
 21
11
  0
LINE
  8
0
  6
CONTINUOUS
 62
     7
 10
6.0000005
 20
9.6499996
 11
5.8956356
 21
9.754364
  0
LINE
  8
0
  6
CONTINUOUS
 62
     7
 10
6
 20
9.6499996
 11
6
 21
8.3500004
  0
LINE
  8
0
  6
CONTINUOUS
 62
     7
 10
5.9999995
 20
8.3500004
 11
5.8956351
 21
8.245636
  0
LINE
  8
0
  6
CONTINUOUS
 62
     7
 10
4.754364
 20
7.1043644
 11
3.7999997
 21
6.1500001
  0
LINE
  8
0
  6
CONTINUOUS
 62
     7
 10
6.8725386
 20
3.3
 11
12.2
 21
3.3
  0
LINE
  8
0
  6
CONTINUOUS
 62
     7
 10
64.75
 20
73.5
 11
64.75
 21
46.5
  0
LINE
  8
0
  6
CONTINUOUS
 62
     7
 10
95.25
 20
73.5
 11
95.25
 21
46.5
  0
LINE
  8
0
  6
CONTINUOUS
 62
     7
 10
64.75
 20
46.5
 11
95.25
 21
46.5
  0
LINE
  8
0
  6
CONTINUOUS
 62
     7
 10
64.75
 20
73.5
 11
95.25
 21
73.5
  0
LINE
  8
0
  6
CENTER
 62
     7
 10
27.103197
 20
60
 11
133.13806
 21
60
  0
LINE
  8
0
  6
CONTINUOUS
 62
     7
 10
64.75
 20
64.5
 11
95.25
 21
64.5
  0
LINE
  8
0
  6
CONTINUOUS
 62
     7
 10
64.75
 20
55.5
 11
95.25
 21
55.5
  0
LINE
  8
0
  6
CONTINUOUS
 62
     7
 10
59
 20
73
 11
59
 21
47
  0
LINE
  8
0
  6
CONTINUOUS
 62
     7
 10
59
 20
73
 11
64.75
 21
73
  0
LINE
  8
0
  6
CONTINUOUS
 62
     7
 10
59
 20
47
 11
64.75
 21
47
  0
LINE
  8
0
  6
CONTINUOUS
 62
     7
 10
57.5
 20
72.799995
 11
57.5
 21
62.249989
  0
LINE
  8
0
  6
CONTINUOUS
 62
     7
 10
57.5
 20
72.799995
 11
59
 21
72.799995
  0
LINE
  8
0
  6
CONTINUOUS
 62
     7
 10
57.5
 20
47.199997
 11
59
 21
47.199997
  0
LINE
  8
0
  6
CONTINUOUS
 62
     7
 10
101
 20
73
 11
95.25
 21
73
  0
LINE
  8
0
  6
CONTINUOUS
 62
     7
 10
101
 20
73
 11
101
 21
47
  0
LINE
  8
0
  6
CONTINUOUS
 62
     7
 10
102.5
 20
72.799995
 11
101
 21
72.799995
  0
LINE
  8
0
  6
CONTINUOUS
 62
     7
 10
102.5
 20
72.799995
 11
102.5
 21
47.199997
  0
LINE
  8
0
  6
CONTINUOUS
 62
     7
 10
102.5
 20
47.199997
 11
101
 21
47.199997
  0
LINE
  8
0
  6
CONTINUOUS
 62
     7
 10
101
 20
47
 11
95.25
 21
47
  0
LINE
  8
0
  6
CONTINUOUS
 62
     7
 10
30
 20
66
 11
30
 21
54
  0
LINE
  8
0
  6
CONTINUOUS
 62
     7
 10
30
 20
66
 11
57.5
 21
66
  0
LINE
  8
0
  6
CONTINUOUS
 62
     7
 10
30
 20
64.649994
 11
57.5
 21
64.649994
  0
LINE
  8
0
  6
CONTINUOUS
 62
     7
 10
130
 20
66
 11
130
 21
54
  0
LINE
  8
0
  6
CONTINUOUS
 62
     7
 10
30
 20
55.349998
 11
57.5
 21
55.349998
  0
LINE
  8
0
  6
CONTINUOUS
 62
     7
 10
30
 20
54
 11
57.5
 21
54
  0
LINE
  8
0
  6
CONTINUOUS
 62
     7
 10
102.5
 20
66
 11
130
 21
66
  0
LINE
  8
0
  6
CONTINUOUS
 62
     7
 10
102.5
 20
64.649994
 11
130
 21
64.649994
  0
LINE
  8
0
  6
CONTINUOUS
 62
     7
 10
102.5
 20
55.349998
 11
130
 21
55.349998
  0
LINE
  8
0
  6
CONTINUOUS
 62
     7
 10
102.5
 20
54
 11
130
 21
54
  0
LINE
  8
0
  6
CONTINUOUS
 62
     7
 10
58.5
 20
72.799995
 11
58.5
 21
47.199997
  0
LINE
  8
0
  6
CONTINUOUS
 62
     7
 10
57.799999
 20
68.188751
 11
57.799999
 21
64.811241
  0
LINE
  8
0
  6
CONTINUOUS
 62
     7
 10
57.799999
 20
68.188751
 11
58.5
 21
68.25
  0
LINE
  8
0
  6
CONTINUOUS
 62
     7
 10
57.799999
 20
64.811241
 11
58.5
 21
64.75
  0
LINE
  8
0
  6
CONTINUOUS
 62
     7
 10
57.799999
 20
55.188755
 11
58.5
 21
55.249996
  0
LINE
  8
0
  6
CONTINUOUS
 62
     7
 10
57.799999
 20
51.811237
 11
57.799999
 21
55.188755
  0
LINE
  8
0
  6
CONTINUOUS
 62
     7
 10
57.799999
 20
51.811237
 11
58.5
 21
51.749996
  0
LINE
  8
0
  6
CONTINUOUS
 62
     7
 10
102.19999
 20
68.188759
 11
101.49999
 21
68.25
  0
LINE
  8
0
  6
CONTINUOUS
 62
     7
 10
102.2
 20
68.188751
 11
102.2
 21
64.811241
  0
LINE
  8
0
  6
CONTINUOUS
 62
     7
 10
102.2
 20
64.811241
 11
101.50001
 21
64.75
  0
LINE
  8
0
  6
CONTINUOUS
 62
     7
 10
102.2
 20
55.188755
 11
101.49999
 21
55.25
  0
LINE
  8
0
  6
CONTINUOUS
 62
     7
 10
102.2
 20
51.811237
 11
101.50001
 21
51.749996
  0
LINE
  8
0
  6
CONTINUOUS
 62
     7
 10
102.5
 20
69
 11
101.5
 21
69
  0
LINE
  8
0
  6
CONTINUOUS
 62
     7
 10
101.5
 20
72.799995
 11
101.5
 21
47.199997
  0
LINE
  8
0
  6
CONTINUOUS
 62
     7
 10
102.5
 20
64
 11
101.5
 21
64
  0
LINE
  8
0
  6
CONTINUOUS
 62
     7
 10
102.5
 20
56
 11
101.5
 21
56
  0
LINE
  8
0
  6
CONTINUOUS
 62
     7
 10
102.5
 20
51
 11
101.5
 21
51
  0
LINE
  8
0
  6
CONTINUOUS
 62
     7
 10
60
 20
11.5
 11
60
 21
6.5
  0
LINE
  8
0
  6
CONTINUOUS
 62
     7
 10
59
 20
11.5
 11
60
 21
11.5
  0
LINE
  8
0
  6
CONTINUOUS
 62
     7
 10
59
 20
6.5
 11
60
 21
6.5
  0
LINE
  8
0
  6
CONTINUOUS
 62
     7
 10
59.299999
 20
10.688758
 11
59.299999
 21
7.3112416
  0
LINE
  8
0
  6
CONTINUOUS
 62
     7
 10
59.299999
 20
10.688758
 11
60
 21
10.75
  0
LINE
  8
0
  6
CONTINUOUS
 62
     7
 10
59.299995
 20
7.3112416
 11
60
 21
7.2499995
  0
LINE
  8
0
  6
CONTINUOUS
 62
     7
 10
101
 20
11.5
 11
100
 21
11.5
  0
LINE
  8
0
  6
CONTINUOUS
 62
     7
 10
100
 20
11.5
 11
100
 21
6.5
  0
LINE
  8
0
  6
CONTINUOUS
 62
     7
 10
101
 20
6.5
 11
100
 21
6.5
  0
LINE
  8
0
  6
CONTINUOUS
 62
     7
 10
100.7
 20
7.3112416
 11
99.999992
 21
7.2499995
  0
LINE
  8
0
  6
CONTINUOUS
 62
     7
 10
100.7
 20
10.688759
 11
100.7
 21
7.3112416
  0
LINE
  8
0
  6
CONTINUOUS
 62
     7
 10
100.7
 20
10.688758
 11
100
 21
10.75
  0
LINE
  8
0
  6
CENTER
 62
     7
 10
72.5
 20
70
 11
72.5
 21
65
  0
LINE
  8
0
  6
CENTER
 62
     7
 10
70
 20
67.5
 11
75
 21
67.5
  0
LINE
  8
0
  6
CENTER
 62
     7
 10
87.5
 20
70
 11
87.5
 21
65
  0
LINE
  8
0
  6
CENTER
 62
     7
 10
85
 20
67.5
 11
90
 21
67.5
  0
LINE
  8
0
  6
CENTER
 62
     7
 10
87.5
 20
55
 11
87.5
 21
50
  0
LINE
  8
0
  6
CENTER
 62
     7
 10
85
 20
52.5
 11
90
 21
52.5
  0
LINE
  8
0
  6
CENTER
 62
     7
 10
72.5
 20
55
 11
72.5
 21
50
  0
LINE
  8
0
  6
CENTER
 62
     7
 10
70
 20
52.5
 11
75
 21
52.5
  0
LINE
  8
0
  6
CENTER
 62
     7
 10
40
 20
63
 11
40
 21
57
  0
LINE
  8
0
  6
CENTER
 62
     7
 10
80
 20
63
 11
80
 21
57
  0
LINE
  8
0
  6
CENTER
 62
     7
 10
120
 20
63
 11
120
 21
57
  0
LINE
  8
0
  6
CENTER
 62
     7
 10
0
 20
22.216555
 11
0
 21
-0.37073588
  0
LINE
  8
0
  6
DASHED
 62
     7
 10
-3
 20
11
 11
-3
 21
6.5
  0
LINE
  8
0
  6
DASHED
 62
     7
 10
3
 20
11
 11
3
 21
6.5
  0
LINE
  8
0
  6
DASHED
 62
     7
 10
1.75
 20
6.5
 11
1.75
 21
0
  0
LINE
  8
0
  6
DASHED
 62
     7
 10
-1.75
 20
6.5
 11
-1.75
 21
0
  0
LINE
  8
0
  6
DASHED
 62
     7
 10
-3
 20
6.5
 11
3
 21
6.5
  0
LINE
  8
0
  6
CENTER
 62
     7
 10
40
 20
11.893713
 11
40
 21
-0.37073588
  0
LINE
  8
0
  6
DASHED
 62
     7
 10
37
 20
11
 11
37
 21
6.5
  0
LINE
  8
0
  6
DASHED
 62
     7
 10
43
 20
11
 11
43
 21
6.5
  0
LINE
  8
0
  6
DASHED
 62
     7
 10
41.75
 20
6.5
 11
41.75
 21
0
  0
LINE
  8
0
  6
DASHED
 62
     7
 10
38.25
 20
6.5
 11
38.25
 21
0
  0
LINE
  8
0
  6
DASHED
 62
     7
 10
37
 20
6.5
 11
43
 21
6.5
  0
LINE
  8
0
  6
CONTINUOUS
 62
     7
 10
57.25
 20
57.75
 11
57.25
 21
62.249989
  0
LINE
  8
0
  6
CONTINUOUS
 62
     7
 10
57.25
 20
61.749989
 11
55.25
 21
61.749989
  0
LINE
  8
0
  6
CONTINUOUS
 62
     7
 10
57.25
 20
58.25
 11
55.25
 21
58.25
  0
LINE
  8
0
  6
CONTINUOUS
 62
     7
 10
58.5
 20
62.249989
 11
57.25
 21
62.249989
  0
LINE
  8
0
  6
CONTINUOUS
 62
     7
 10
58.5
 20
57.75
 11
57.25
 21
57.75
  0
LINE
  8
0
  6
CONTINUOUS
 62
     7
 10
57.5
 20
57.75
 11
57.5
 21
47.199997
  0
LINE
  8
0
  6
CONTINUOUS
 62
     7
 10
57.25
 20
12.549999
 11
57.25
 21
17.04999
  0
LINE
  8
0
  6
CONTINUOUS
 62
     7
 10
57.25
 20
16.54999
 11
55.25
 21
16.54999
  0
LINE
  8
0
  6
CONTINUOUS
 62
     7
 10
57.25
 20
13.049999
 11
55.25
 21
13.049999
  0
LINE
  8
0
  6
CONTINUOUS
 62
     7
 10
57.5
 20
17.04999
 11
57.25
 21
17.04999
  0
LINE
  8
0
  6
CONTINUOUS
 62
     7
 10
57.5
 20
12.549999
 11
57.25
 21
12.549999
  0
LINE
  8
0
  6
CONTINUOUS
 62
     7
 10
102.2
 20
55.188755
 11
102.2
 21
51.811241
  0
LINE
  8
0
  6
CENTER
 62
     7
 10
80
 20
11.893713
 11
80
 21
-0.37073588
  0
LINE
  8
0
  6
CENTER
 62
     7
 10
120
 20
11.893713
 11
120
 21
-0.37073588
  0
LINE
  8
0
  6
CONTINUOUS
 62
     7
 10
-4.9399519
 20
11.700001
 11
4.93995
 21
11.700001
  0
LINE
  8
0
  6
CONTINUOUS
 62
     7
 10
6.6999998
 20
9.939949
 11
4.9399495
 21
11.7
  0
LINE
  8
0
  6
CONTINUOUS
 62
     7
 10
-6.6999993
 20
9.9399509
 11
-4.9399514
 21
11.7
  0
LINE
  8
0
  6
CONTINUOUS
 62
     7
 10
-6.6999998
 20
9.9399509
 11
-6.6999998
 21
8.060051
  0
LINE
  8
0
  6
CONTINUOUS
 62
     7
 10
-6.6999993
 20
8.060051
 11
-4.499999
 21
5.8600502
  0
LINE
  8
0
  6
CONTINUOUS
 62
     7
 10
-4.499999
 20
5.8600502
 11
-4.499999
 21
4.669786
  0
LINE
  8
0
  6
CONTINUOUS
 62
     7
 10
-6.8725376
 20
3.3
 11
-4.4999986
 21
4.669786
  0
LINE
  8
0
  6
CONTINUOUS
 62
     7
 10
6.8725386
 20
3.3
 11
4.499999
 21
4.6697865
  0
LINE
  8
0
  6
CONTINUOUS
 62
     7
 10
4.499999
 20
5.8600502
 11
4.499999
 21
4.6697865
  0
LINE
  8
0
  6
CONTINUOUS
 62
     7
 10
6.6999998
 20
8.060051
 11
4.499999
 21
5.8600502
  0
LINE
  8
0
  6
CONTINUOUS
 62
     7
 10
6.6999998
 20
9.93995
 11
6.6999998
 21
8.060051
  0
LINE
  8
0
  6
CONTINUOUS
 62
     7
 10
4
 20
17.4
 11
4
 21
14.9
  0
LINE
  8
0
  6
CONTINUOUS
 62
     7
 10
9
 20
17.4
 11
9
 21
14.9
  0
LINE
  8
0
  6
CONTINUOUS
 62
     7
 10
-7.2071066
 20
14.192893
 11
-5.7928929
 21
15.607106
  0
LINE
  8
0
  6
CONTINUOUS
 62
     7
 10
-7.2071075
 20
15.607107
 11
-5.7928929
 21
14.192893
  0
LINE
  8
0
  6
CONTINUOUS
 62
     7
 10
6.5635891
 20
3.4783721
 11
6.5635891
 21
3.3
  0
LINE
  8
0
  6
CONTINUOUS
 62
     7
 10
-6.9099998
 20
3.0999997
 11
-6.5635891
 21
3.3
  0
LINE
  8
0
  6
CONTINUOUS
 62
     7
 10
-6.5635891
 20
3.4783721
 11
-6.5635891
 21
3.3
  0
LINE
  8
0
  6
CONTINUOUS
 62
     7
 10
7.2071066
 20
14.192893
 11
5.7928929
 21
15.607106
  0
LINE
  8
0
  6
CONTINUOUS
 62
     7
 10
7.2071075
 20
15.607107
 11
5.7928929
 21
14.192893
  0
LINE
  8
0
  6
CONTINUOUS
 62
     7
 10
4.9529243
 20
3.5999999
 11
6.3529234
 21
3.5999999
  0
LINE
  8
0
  6
CONTINUOUS
 62
     7
 10
-4.9529243
 20
3.5999999
 11
-6.3529234
 21
3.5999999
  0
LINE
  8
0
  6
CENTER
 62
     7
 10
-3.25
 20
14.799999
 11
3.25
 21
14.799999
  0
LINE
  8
0
  6
CENTER
 62
     7
 10
58.580883
 20
14.799994
 11
52.818729
 21
14.799994
  0
ARC
  8
0
  6
CONTINUOUS
 62
     7
 10
0
 20
14.799999
 40
2.4000001
 50
179.99999
 51
1.0017913E-005
  0
ARC
  8
0
  6
CONTINUOUS
 62
     7
 10
-6.5
 20
14.9
 40
2.5
 50
179.99999
 51
1.0017913E-005
  0
CIRCLE
  8
0
  6
CONTINUOUS
 62
     7
 10
72.5
 20
52.5
 40
2
  0
CIRCLE
  8
0
  6
CONTINUOUS
 62
     7
 10
72.5
 20
52.5
 40
1.62
  0
CIRCLE
  8
0
  6
CONTINUOUS
 62
     7
 10
120
 20
60
 40
3
  0
CIRCLE
  8
0
  6
CONTINUOUS
 62
     7
 10
120
 20
60
 40
1.75
  0
CIRCLE
  8
0
  6
CONTINUOUS
 62
     7
 10
40
 20
60
 40
1.75
  0
CIRCLE
  8
0
  6
CONTINUOUS
 62
     7
 10
40
 20
60
 40
3
  0
CIRCLE
  8
0
  6
CONTINUOUS
 62
     7
 10
-6.5
 20
14.9
 40
1.75
  0
ARC
  8
0
  6
CONTINUOUS
 62
     7
 10
55.25
 20
60
 40
1.75
 50
90.000003
 51
270
  0
CIRCLE
  8
0
  6
CONTINUOUS
 62
     7
 10
0
 20
14.799999
 40
1.75
  0
CIRCLE
  8
0
  6
CONTINUOUS
 62
     7
 10
0
 20
14.799999
 40
2.25
  0
ARC
  8
0
  6
CONTINUOUS
 62
     7
 10
55.25
 20
14.799999
 40
1.75
 50
90.000003
 51
270.00008
  0
ARC
  8
0
  6
CONTINUOUS
 62
     7
 10
6
 20
11
 40
1.25
 50
184.78927
 51
265.21073
  0
ARC
  8
0
  6
CONTINUOUS
 62
     7
 10
-6
 20
11
 40
1.25
 50
274.78918
 51
355.21082
  0
ARC
  8
0
  6
CONTINUOUS
 62
     7
 10
6
 20
7
 40
1.25
 50
94.789304
 51
175.2107
  0
ARC
  8
0
  6
CONTINUOUS
 62
     7
 10
-6
 20
7
 40
1.25
 50
4.7893158
 51
85.210688
  0
CIRCLE
  8
0
  6
CONTINUOUS
 62
     7
 10
6.5
 20
14.9
 40
1.75
  0
ARC
  8
0
  6
CONTINUOUS
 62
     7
 10
6.5
 20
14.9
 40
2.5
 50
179.99999
 51
1.0017913E-005
  0
TEXT
  8
0
  6
CONTINUOUS
 62
     7
 10
-1.6
 20
-16.8
 40
3.5999999
 41
0.86834734
  1
ＨＳＲ１２ＲＭ
  0
ENDSEC
  0
EOF
