  0
SECTION
  2
HEADER
  0
ENDSEC
  0
SECTION
  2
TABLES
  0
TABLE
  2
LTYPE
 70
    22
  0
LTYPE
  2
CONTINUOUS
 70
    64
  3
Solid line
 72
    65
 73
     0
 40
0.000000
  0
LTYPE
  2
DASHED
 70
    64
  3
__ __ __ __ __ __ __ __ __ __ __ __ __ __ __
 72
    65
 73
     2
 40
3.500000
 49
2.000000
 49
-1.500000
  0
LTYPE
  2
CENTER
 70
    64
  3
____ _ ____ _ ____ _ ____ _ ____ _ ____ _ ____
 72
    65
 73
     4
 40
17.500000
 49
13.000000
 49
-1.500000
 49
1.500000
 49
-1.500000
  0
LTYPE
  2
PHANTOM
 70
    64
  3
_____ _ _ _____ _ _ _____ _ _ _____ _ _ ____  
 72
    65
 73
     6
 40
15.500000
 49
8.000000
 49
-1.500000
 49
1.500000
 49
-1.500000
 49
1.500000
 49
-1.500000
  0
LTYPE
  2
DOT
 70
    64
  3
. . . . . . . . . . . . . . . . . . . . . . . .
 72
    65
 73
     2
 40
0.25
 49
0.0
 49
-0.25
  0
ENDTAB
  0
TABLE
  2
LAYER
 70
     1
  0
LAYER
  2
0
 70
     0
 62
     7
  6
CONTINUOUS
  0
ENDTAB
  0
TABLE
  2
STYLE
 70
     1
  0
STYLE
  2
STANDARD
 70
     0
 40
0.000000
 41
1.000000
 50
0.000000
 71
     0
 42
0.200000
  3
txt
  0
ENDTAB
  0
TABLE
  2
VIEW
 70
     0
  0
ENDTAB
  0
ENDSEC
  0
SECTION
  2
BLOCKS
  0
ENDSEC
  0
SECTION
  2
ENTITIES
  0
LINE
  8
0
  6
CONTINUOUS
 62
     7
 10
592.9996948242188
 20
140.9999389648438
 11
592.9996948242188
 21
27.00006675720215
  0
LINE
  8
0
  6
CONTINUOUS
 62
     7
 10
596.9999389648438
 20
144.9999542236328
 11
903.00048828125
 21
144.9999542236328
  0
LINE
  8
0
  6
CONTINUOUS
 62
     7
 10
592.9996948242188
 20
104.9999465942383
 11
906.9996948242188
 21
104.9999465942383
  0
LINE
  8
0
  6
CONTINUOUS
 62
     7
 10
592.9996948242188
 20
27.00014305114746
 11
906.9996948242188
 21
27.00014305114746
  0
LINE
  8
0
  6
CONTINUOUS
 62
     7
 10
597.0004272460938
 20
144.9967346191406
 11
593.0003662109375
 21
140.9966888427734
  0
LINE
  8
0
  6
CONTINUOUS
 62
     7
 10
903.002197265625
 20
144.9963836669922
 11
906.9996948242188
 21
140.9989318847656
  0
LINE
  8
0
  6
CONTINUOUS
 62
     7
 10
561.0001831054688
 20
134.9999542236328
 11
592.9996948242188
 21
134.9999542236328
  0
LINE
  8
0
  6
CONTINUOUS
 62
     7
 10
557.9996948242188
 20
28.0001277923584
 11
592.9996948242188
 21
28.0001277923584
  0
LINE
  8
0
  6
CENTER
 62
     7
 10
634.9996948242188
 20
145.9999542236328
 11
634.9996948242188
 21
33.35884857177734
  0
LINE
  8
0
  6
CONTINUOUS
 62
     7
 10
554.9996948242188
 20
133.0001373291016
 11
557.9996948242188
 21
133.0001373291016
  0
LINE
  8
0
  6
CONTINUOUS
 62
     7
 10
551.9999389648438
 20
28.0001277923584
 11
557.9996948242188
 21
28.0001277923584
  0
LINE
  8
0
  6
CONTINUOUS
 62
     7
 10
554.9996948242188
 20
89.69518280029297
 11
552.0009155273438
 21
86.69636535644531
  0
LINE
  8
0
  6
CONTINUOUS
 62
     7
 10
561.000732421875
 20
134.9964599609375
 11
558.000732421875
 21
131.9964141845703
  0
LINE
  8
0
  6
CONTINUOUS
 62
     7
 10
621.9999389648438
 20
25.24178886413574
 11
621.9999389648438
 21
27.00006675720215
  0
LINE
  8
0
  6
CONTINUOUS
 62
     7
 10
607.9996948242188
 20
25.24178886413574
 11
607.9996948242188
 21
27.00006675720215
  0
LINE
  8
0
  6
CONTINUOUS
 62
     7
 10
945.0033569335938
 20
89.69559478759766
 11
947.9996948242188
 21
86.69930267333984
  0
LINE
  8
0
  6
CONTINUOUS
 62
     7
 10
944.9996948242188
 20
133.0001373291016
 11
941.9996948242188
 21
133.0001373291016
  0
LINE
  8
0
  6
CONTINUOUS
 62
     7
 10
939.0023803710938
 20
134.9961700439453
 11
941.9996948242188
 21
131.9988098144531
  0
LINE
  8
0
  6
CONTINUOUS
 62
     7
 10
938.9988403320313
 20
134.9999542236328
 11
906.9996948242188
 21
134.9999542236328
  0
LINE
  8
0
  6
CONTINUOUS
 62
     7
 10
941.9996948242188
 20
28.0001277923584
 11
906.9996948242188
 21
28.0001277923584
  0
LINE
  8
0
  6
CONTINUOUS
 62
     7
 10
947.9996948242188
 20
28.0001277923584
 11
941.9988403320313
 21
28.0001277923584
  0
LINE
  8
0
  6
CONTINUOUS
 62
     7
 10
-171.0009918212891
 20
144.9999542236328
 11
-104.9987869262695
 21
144.9999542236328
  0
LINE
  8
0
  6
CONTINUOUS
 62
     7
 10
-171.001220703125
 20
144.9991455078125
 11
-175
 21
141.0003662109375
  0
LINE
  8
0
  6
CONTINUOUS
 62
     7
 10
170.9982604980469
 20
144.99951171875
 11
175
 21
140.9977722167969
  0
LINE
  8
0
  6
CONTINUOUS
 62
     7
 10
-102.9992752075195
 20
142.9999847412109
 11
-48.00049209594727
 21
142.9999847412109
  0
LINE
  8
0
  6
CONTINUOUS
 62
     7
 10
-45.99975967407227
 20
144.9999542236328
 11
45.99975967407227
 21
144.9999542236328
  0
LINE
  8
0
  6
CONTINUOUS
 62
     7
 10
47.99927139282227
 20
142.9999847412109
 11
103.0004959106445
 21
142.9999847412109
  0
LINE
  8
0
  6
CONTINUOUS
 62
     7
 10
105.0000076293945
 20
144.9999542236328
 11
170.9997711181641
 21
144.9999542236328
  0
LINE
  8
0
  6
CONTINUOUS
 62
     7
 10
-103.0009002685547
 20
143.0002136230469
 11
-105.0008544921875
 21
145.0001678466797
  0
LINE
  8
0
  6
CONTINUOUS
 62
     7
 10
47.99917602539063
 20
143.0003204345703
 11
45.99922180175781
 21
145.0002746582031
  0
LINE
  8
0
  6
CONTINUOUS
 62
     7
 10
102.9985122680664
 20
142.9990692138672
 11
104.9985275268555
 21
144.9990844726563
  0
LINE
  8
0
  6
CONTINUOUS
 62
     7
 10
-48.00037384033203
 20
142.9996337890625
 11
-46.00041961669922
 21
144.9996032714844
  0
LINE
  8
0
  6
CONTINUOUS
 62
     7
 10
-175
 20
109.0002517700195
 11
-170.9997100830078
 21
104.9999465942383
  0
LINE
  8
0
  6
CONTINUOUS
 62
     7
 10
96.99951934814453
 20
27.99987983703613
 11
96.99951934814453
 21
26.99997138977051
  0
LINE
  8
0
  6
CONTINUOUS
 62
     7
 10
96.99951934814453
 20
26.99997138977051
 11
117.5903396606445
 21
26.99997138977051
  0
LINE
  8
0
  6
CONTINUOUS
 62
     7
 10
145.0335083007813
 20
86.47012329101563
 11
132.0774688720703
 21
38.11751174926758
  0
LINE
  8
0
  6
CONTINUOUS
 62
     7
 10
175
 20
109.0018615722656
 11
170.9978179931641
 21
104.9996871948242
  0
LINE
  8
0
  6
CONTINUOUS
 62
     7
 10
169.1833648681641
 20
104.999870300293
 11
170.9997711181641
 21
104.999870300293
  0
LINE
  8
0
  6
CONTINUOUS
 62
     7
 10
-171.0009918212891
 20
104.999870300293
 11
-169.1821441650391
 21
104.999870300293
  0
LINE
  8
0
  6
CONTINUOUS
 62
     7
 10
-60.41626358032227
 20
85.00002288818359
 11
60.41748428344727
 21
85.00002288818359
  0
LINE
  8
0
  6
CONTINUOUS
 62
     7
 10
-72
 20
3.00045919418335
 11
-69.00061798095703
 21
0.001076261978596449
  0
LINE
  8
0
  6
CONTINUOUS
 62
     7
 10
-57.50000381469727
 20
49.08296966552734
 11
-57.50000381469727
 21
34.49997329711914
  0
LINE
  8
0
  6
CONTINUOUS
 62
     7
 10
-72
 20
20.00144004821777
 11
-57.50069046020508
 21
34.50074768066406
  0
LINE
  8
0
  6
CONTINUOUS
 62
     7
 10
-57.50063705444336
 20
49.08336639404297
 11
-61.9053840637207
 21
53.48811721801758
  0
LINE
  8
0
  6
CONTINUOUS
 62
     7
 10
-72
 20
73.41770172119141
 11
-70.66140747070313
 21
74.75629425048828
  0
LINE
  8
0
  6
CONTINUOUS
 62
     7
 10
-61.90543746948242
 20
83.51226806640625
 11
-60.41733551025391
 21
85.0003662109375
  0
LINE
  8
0
  6
CONTINUOUS
 62
     7
 10
-70.66135406494141
 20
62.24408721923828
 11
-72
 21
63.58272933959961
  0
LINE
  8
0
  6
CONTINUOUS
 62
     7
 10
-45.00000381469727
 20
1.49993908405304
 11
-20.00000190734863
 21
1.49993908405304
  0
LINE
  8
0
  6
CONTINUOUS
 62
     7
 10
-45.00116348266602
 20
1.500991582870483
 11
-46.50134658813477
 21
0.0008065220899879932
  0
LINE
  8
0
  6
CONTINUOUS
 62
     7
 10
-20.00032615661621
 20
1.501261353492737
 11
-18.50014114379883
 21
0.001076261978596449
  0
LINE
  8
0
  6
CONTINUOUS
 62
     7
 10
-18.49975776672363
 20
0
 11
18.50097846984863
 21
0
  0
LINE
  8
0
  6
CONTINUOUS
 62
     7
 10
19.99966621398926
 20
1.500128388404846
 11
18.49948120117188
 21
-5.664536365657114E-005
  0
LINE
  8
0
  6
CONTINUOUS
 62
     7
 10
45.00000381469727
 20
1.49993908405304
 11
20.00000190734863
 21
1.49993908405304
  0
LINE
  8
0
  6
CONTINUOUS
 62
     7
 10
44.99942398071289
 20
1.50104546546936
 11
46.49961090087891
 21
0.0008604700560681522
  0
LINE
  8
0
  6
CONTINUOUS
 62
     7
 10
68.99903106689453
 20
0
 11
46.49902725219727
 21
0
  0
LINE
  8
0
  6
CONTINUOUS
 62
     7
 10
72
 20
3.001977443695068
 11
68.99849700927734
 21
0.0004714953247457743
  0
LINE
  8
0
  6
CONTINUOUS
 62
     7
 10
72
 20
20.00047492980957
 11
57.49918365478516
 21
34.50130081176758
  0
LINE
  8
0
  6
CONTINUOUS
 62
     7
 10
57.50000381469727
 20
49.08296966552734
 11
57.50000381469727
 21
34.49997329711914
  0
LINE
  8
0
  6
CONTINUOUS
 62
     7
 10
57.49862289428711
 20
49.08264923095703
 11
61.90424346923828
 21
53.48824310302734
  0
LINE
  8
0
  6
CONTINUOUS
 62
     7
 10
70.66063690185547
 20
62.24414825439453
 11
72
 21
63.58352279663086
  0
LINE
  8
0
  6
CONTINUOUS
 62
     7
 10
72
 20
73.41765594482422
 11
70.66047668457031
 21
74.75716400146484
  0
LINE
  8
0
  6
CONTINUOUS
 62
     7
 10
61.90472030639648
 20
83.51333618164063
 11
60.41661834716797
 21
85.00144195556641
  0
LINE
  8
0
  6
CONTINUOUS
 62
     7
 10
-118.9975738525391
 20
134.9999542236328
 11
119.0002517700195
 21
134.9999542236328
  0
LINE
  8
0
  6
CONTINUOUS
 62
     7
 10
128.9990386962891
 20
35.9999885559082
 11
128.9990386962891
 21
124.9999465942383
  0
LINE
  8
0
  6
CONTINUOUS
 62
     7
 10
118.9980239868164
 20
134.99951171875
 11
128.9978179931641
 21
124.9997100830078
  0
LINE
  8
0
  6
CONTINUOUS
 62
     7
 10
120.9997634887695
 20
28.00003242492676
 11
116.9995193481445
 21
28.00003242492676
  0
LINE
  8
0
  6
CONTINUOUS
 62
     7
 10
128.9987335205078
 20
36.00071716308594
 11
120.9990005493164
 21
28.00098419189453
  0
LINE
  8
0
  6
CENTER
 62
     7
 10
0
 20
-1
 11
0
 21
145.9999542236328
  0
LINE
  8
0
  6
CONTINUOUS
 62
     7
 10
-116.9980087280273
 20
132.9999084472656
 11
116.9995193481445
 21
132.9999084472656
  0
LINE
  8
0
  6
CONTINUOUS
 62
     7
 10
116.9980163574219
 20
132.9998931884766
 11
126.998664855957
 21
122.9992294311523
  0
LINE
  8
0
  6
CONTINUOUS
 62
     7
 10
126.9995193481445
 20
37.99995803833008
 11
126.9995193481445
 21
122.9999008178711
  0
LINE
  8
0
  6
CONTINUOUS
 62
     7
 10
126.9981307983398
 20
38.00053787231445
 11
116.9984970092773
 21
28.00088882446289
  0
LINE
  8
0
  6
CONTINUOUS
 62
     7
 10
116.9995193481445
 20
28.00003242492676
 11
64.00025177001953
 21
28.00003242492676
  0
LINE
  8
0
  6
CONTINUOUS
 62
     7
 10
-62.36206436157227
 20
89.69995880126953
 11
62.36328506469727
 21
89.69995880126953
  0
LINE
  8
0
  6
CONTINUOUS
 62
     7
 10
76.69941711425781
 20
75.36415100097656
 11
62.36299896240234
 21
89.70043182373047
  0
LINE
  8
0
  6
CONTINUOUS
 62
     7
 10
62.19916915893555
 20
47.13654708862305
 11
76.69865417480469
 21
61.63603591918945
  0
LINE
  8
0
  6
CONTINUOUS
 62
     7
 10
76.70044708251953
 20
75.36379241943359
 11
76.70044708251953
 21
61.63614654541016
  0
LINE
  8
0
  6
CONTINUOUS
 62
     7
 10
62.19971084594727
 20
47.13617706298828
 11
62.19971084594727
 21
36.44684219360352
  0
LINE
  8
0
  6
CONTINUOUS
 62
     7
 10
70.64591217041016
 20
28.00034141540527
 11
62.19895172119141
 21
36.44729995727539
  0
LINE
  8
0
  6
CENTER
 62
     7
 10
-149.9997863769531
 20
91.93513488769531
 11
-149.9997863769531
 21
145.9999542236328
  0
LINE
  8
0
  6
CONTINUOUS
 62
     7
 10
71.50025177001953
 20
27.89999198913574
 11
96.99951934814453
 21
27.89999198913574
  0
LINE
  8
0
  6
DASHED
 62
     7
 10
-29.00024604797363
 20
38.99994277954102
 11
-29.00024604797363
 21
85.00002288818359
  0
LINE
  8
0
  6
DASHED
 62
     7
 10
29.00024604797363
 20
38.99994277954102
 11
29.00024604797363
 21
85.00002288818359
  0
LINE
  8
0
  6
DASHED
 62
     7
 10
-29.00024604797363
 20
38.99994277954102
 11
29.00024604797363
 21
38.99994277954102
  0
LINE
  8
0
  6
CONTINUOUS
 62
     7
 10
-96.99951934814453
 20
26.99997138977051
 11
-96.99951934814453
 21
27.99987983703613
  0
LINE
  8
0
  6
CONTINUOUS
 62
     7
 10
-117.5903396606445
 20
26.99997138977051
 11
-96.99951934814453
 21
26.99997138977051
  0
LINE
  8
0
  6
CONTINUOUS
 62
     7
 10
-128.9990386962891
 20
124.9984893798828
 11
-128.9990386962891
 21
35.9999885559082
  0
LINE
  8
0
  6
CONTINUOUS
 62
     7
 10
-116.9995193481445
 20
28.00003242492676
 11
-120.9997634887695
 21
28.00003242492676
  0
LINE
  8
0
  6
CONTINUOUS
 62
     7
 10
-120.9979400634766
 20
28.00039672851563
 11
-128.9977722167969
 21
36.0002326965332
  0
LINE
  8
0
  6
CONTINUOUS
 62
     7
 10
-126.9995193481445
 20
122.9983825683594
 11
-126.9995193481445
 21
37.99995803833008
  0
LINE
  8
0
  6
CONTINUOUS
 62
     7
 10
-116.9975967407227
 20
28.00031280517578
 11
-126.9973831176758
 21
38.00011444091797
  0
LINE
  8
0
  6
CONTINUOUS
 62
     7
 10
-64.00025177001953
 20
28.00003242492676
 11
-116.9995193481445
 21
28.00003242492676
  0
LINE
  8
0
  6
CONTINUOUS
 62
     7
 10
-62.36188125610352
 20
89.69939422607422
 11
-76.69829559326172
 21
75.36311340332031
  0
LINE
  8
0
  6
CONTINUOUS
 62
     7
 10
-76.69754028320313
 20
61.63550186157227
 11
-62.19804763793945
 21
47.13600921630859
  0
LINE
  8
0
  6
CONTINUOUS
 62
     7
 10
-76.70044708251953
 20
61.63614654541016
 11
-76.70044708251953
 21
75.36379241943359
  0
LINE
  8
0
  6
CONTINUOUS
 62
     7
 10
-62.19971084594727
 20
36.44684219360352
 11
-62.19971084594727
 21
47.13617706298828
  0
LINE
  8
0
  6
CONTINUOUS
 62
     7
 10
-62.19815444946289
 20
36.44643402099609
 11
-70.64511108398438
 21
27.99947738647461
  0
LINE
  8
0
  6
DASHED
 62
     7
 10
-14.84769630432129
 20
96.00000762939453
 11
14.99635219573975
 21
96.00000762939453
  0
LINE
  8
0
  6
CONTINUOUS
 62
     7
 10
-96.99951934814453
 20
27.89999198913574
 11
-71.50025177001953
 21
27.89999198913574
  0
LINE
  8
0
  6
CONTINUOUS
 62
     7
 10
-81.99951934814453
 20
27.89993476867676
 11
-81.99951934814453
 21
25.24185562133789
  0
LINE
  8
0
  6
CONTINUOUS
 62
     7
 10
-95.99976348876953
 20
27.89993476867676
 11
-95.99976348876953
 21
25.24185562133789
  0
LINE
  8
0
  6
CENTER
 62
     7
 10
-89.00025177001953
 20
29.00003242492676
 11
-89.00025177001953
 21
20.99995422363281
  0
LINE
  8
0
  6
CONTINUOUS
 62
     7
 10
-68.99954223632813
 20
0
 11
-46.50024795532227
 21
0
  0
LINE
  8
0
  6
CONTINUOUS
 62
     7
 10
-145.0343322753906
 20
86.47032165527344
 11
-132.0784912109375
 21
38.11845397949219
  0
LINE
  8
0
  6
CENTER
 62
     7
 10
614.9992065429688
 20
28.00014305114746
 11
614.9992065429688
 21
20.99995422363281
  0
LINE
  8
0
  6
DASHED
 62
     7
 10
-130.49951171875
 20
34.36314010620117
 11
-130.49951171875
 21
104.9999847412109
  0
LINE
  8
0
  6
DASHED
 62
     7
 10
-170.9996948242188
 20
104.9999465942383
 11
-130.4996643066406
 21
104.9999465942383
  0
LINE
  8
0
  6
CONTINUOUS
 62
     7
 10
-175
 20
109.0002517700195
 11
-175
 21
141.0003662109375
  0
LINE
  8
0
  6
CONTINUOUS
 62
     7
 10
175
 20
109.0018692016602
 11
175
 21
140.9977722167969
  0
LINE
  8
0
  6
CONTINUOUS
 62
     7
 10
-72
 20
3.000457286834717
 11
-72
 21
20.00144195556641
  0
LINE
  8
0
  6
CONTINUOUS
 62
     7
 10
72
 20
3.001976013183594
 11
72
 21
20.00047302246094
  0
LINE
  8
0
  6
CONTINUOUS
 62
     7
 10
-72
 20
63.58273315429688
 11
-72
 21
73.41770172119141
  0
LINE
  8
0
  6
CONTINUOUS
 62
     7
 10
72
 20
63.58352279663086
 11
72
 21
73.41765594482422
  0
LINE
  8
0
  6
DASHED
 62
     7
 10
-19.5
 20
1.000935554504395
 11
-19.5
 21
38.99994277954102
  0
LINE
  8
0
  6
DASHED
 62
     7
 10
19.5
 20
1.000463008880615
 11
19.5
 21
38.99994277954102
  0
LINE
  8
0
  6
DASHED
 62
     7
 10
-139.5997924804688
 20
104.9999465942383
 11
-139.5997924804688
 21
144.9999542236328
  0
LINE
  8
0
  6
DASHED
 62
     7
 10
-160.3997955322266
 20
104.9999465942383
 11
-160.3997955322266
 21
144.9999542236328
  0
LINE
  8
0
  6
DASHED
 62
     7
 10
10.39999961853027
 20
96.00000762939453
 11
10.39999961853027
 21
144.9999542236328
  0
LINE
  8
0
  6
DASHED
 62
     7
 10
-10.39999961853027
 20
96.00000762939453
 11
-10.39999961853027
 21
144.9999542236328
  0
LINE
  8
0
  6
DASHED
 62
     7
 10
645.3997192382813
 20
144.9999542236328
 11
645.3997192382813
 21
104.9999465942383
  0
LINE
  8
0
  6
DASHED
 62
     7
 10
624.5996704101563
 20
144.9999542236328
 11
624.5996704101563
 21
104.9999465942383
  0
LINE
  8
0
  6
CENTER
 62
     7
 10
749.9996948242188
 20
145.9999542236328
 11
749.9996948242188
 21
33.35884857177734
  0
LINE
  8
0
  6
CENTER
 62
     7
 10
864.9996948242188
 20
145.9999542236328
 11
864.9996948242188
 21
33.35884857177734
  0
LINE
  8
0
  6
CONTINUOUS
 62
     7
 10
906.9996948242188
 20
140.9989624023438
 11
906.9996948242188
 21
27.00006675720215
  0
LINE
  8
0
  6
CONTINUOUS
 62
     7
 10
557.9996948242188
 20
133.0001373291016
 11
557.9996948242188
 21
28.0001277923584
  0
LINE
  8
0
  6
CONTINUOUS
 62
     7
 10
551.9996948242188
 20
86.69518280029297
 11
551.9996948242188
 21
28.0001277923584
  0
LINE
  8
0
  6
CONTINUOUS
 62
     7
 10
941.9996948242188
 20
133.0001373291016
 11
941.9996948242188
 21
28.0001277923584
  0
LINE
  8
0
  6
CONTINUOUS
 62
     7
 10
554.9996948242188
 20
133.0001373291016
 11
554.9996948242188
 21
28.0001277923584
  0
LINE
  8
0
  6
CONTINUOUS
 62
     7
 10
944.9996948242188
 20
133.0001373291016
 11
944.9996948242188
 21
28.0001277923584
  0
LINE
  8
0
  6
CONTINUOUS
 62
     7
 10
947.9996948242188
 20
86.69932556152344
 11
947.9996948242188
 21
28.0001277923584
  0
LINE
  8
0
  6
CONTINUOUS
 62
     7
 10
8.360671997070313
 20
112.4999313354492
 11
5.773818969726563
 21
112.4999313354492
  0
LINE
  8
0
  6
CONTINUOUS
 62
     7
 10
8.360694885253906
 20
119.4999313354492
 11
5.773818969726563
 21
119.4999313354492
  0
LINE
  8
0
  6
CONTINUOUS
 62
     7
 10
7
 20
120.041374206543
 11
7
 21
119.4999313354492
  0
LINE
  8
0
  6
CONTINUOUS
 62
     7
 10
-9.759569365996867E-006
 20
124.0828170776367
 11
6.999974727630615
 21
120.041374206543
  0
LINE
  8
0
  6
CONTINUOUS
 62
     7
 10
7.000028133392334
 20
111.9584884643555
 11
-8.581405381846707E-006
 21
107.9170074462891
  0
LINE
  8
0
  6
CONTINUOUS
 62
     7
 10
7
 20
112.4999313354492
 11
7
 21
111.9584884643555
  0
LINE
  8
0
  6
CENTER
 62
     7
 10
-9.9193115234375
 20
115.9999313354492
 11
15.83950805664063
 21
115.9999313354492
  0
LINE
  8
0
  6
CONTINUOUS
 62
     7
 10
-7.000046253204346
 20
111.9585189819336
 11
4.315087062423118E-005
 21
107.9170150756836
  0
LINE
  8
0
  6
CONTINUOUS
 62
     7
 10
-7
 20
120.0413436889648
 11
-7
 21
111.9584884643555
  0
LINE
  8
0
  6
CONTINUOUS
 62
     7
 10
1.459641134715639E-005
 20
124.0827941894531
 11
-6.999969959259033
 21
120.0413513183594
  0
LINE
  8
0
  6
CONTINUOUS
 62
     7
 10
11.51142978668213
 20
119.2683334350586
 11
13.95835685729981
 21
118.376953125
  0
LINE
  8
0
  6
CONTINUOUS
 62
     7
 10
11.51142120361328
 20
112.7315444946289
 11
13.95835113525391
 21
113.6229248046875
  0
LINE
  8
0
  6
CONTINUOUS
 62
     7
 10
9.660207748413086
 20
113.1526107788086
 11
11.20188903808594
 21
112.7188949584961
  0
LINE
  8
0
  6
CONTINUOUS
 62
     7
 10
9.660223007202148
 20
118.8472747802734
 11
11.20187854766846
 21
119.2809829711914
  0
LINE
  8
0
  6
CONTINUOUS
 62
     7
 10
-118.9980239868164
 20
134.99951171875
 11
-128.9978179931641
 21
124.9997100830078
  0
LINE
  8
0
  6
CONTINUOUS
 62
     7
 10
-116.9980163574219
 20
132.9998931884766
 11
-126.998664855957
 21
122.9992294311523
  0
LINE
  8
0
  6
CENTER
 62
     7
 10
89.00025177001953
 20
29.00003242492676
 11
89.00025177001953
 21
20.99995422363281
  0
LINE
  8
0
  6
CENTER
 62
     7
 10
149.9997863769531
 20
91.93513488769531
 11
149.9997863769531
 21
145.9999542236328
  0
LINE
  8
0
  6
CENTER
 62
     7
 10
704.9992065429688
 20
28.00014305114746
 11
704.9992065429688
 21
20.99995422363281
  0
LINE
  8
0
  6
CENTER
 62
     7
 10
794.9992065429688
 20
28.00014305114746
 11
794.9992065429688
 21
20.99995422363281
  0
LINE
  8
0
  6
CENTER
 62
     7
 10
884.9992065429688
 20
28.00014305114746
 11
884.9992065429688
 21
20.99995422363281
  0
LINE
  8
0
  6
CONTINUOUS
 62
     7
 10
541.4998779296875
 20
119.5000076293945
 11
545.56982421875
 21
119.5000076293945
  0
LINE
  8
0
  6
CONTINUOUS
 62
     7
 10
541.4998779296875
 20
112.5000076293945
 11
545.56982421875
 21
112.5000076293945
  0
LINE
  8
0
  6
CONTINUOUS
 62
     7
 10
548.9996948242188
 20
122.0621719360352
 11
548.9996948242188
 21
109.9378433227539
  0
LINE
  8
0
  6
CONTINUOUS
 62
     7
 10
549.4996948242188
 20
124.082893371582
 11
554.4996948242188
 21
124.082893371582
  0
LINE
  8
0
  6
CENTER
 62
     7
 10
536.2002563476563
 20
116.0000076293945
 11
556.7188110351563
 21
116.0000076293945
  0
LINE
  8
0
  6
CONTINUOUS
 62
     7
 10
543.9467163085938
 20
122.7500076293945
 11
549.0546264648438
 21
122.7500076293945
  0
LINE
  8
0
  6
CONTINUOUS
 62
     7
 10
549.4996948242188
 20
120.0414505004883
 11
554.4996948242188
 21
120.0414505004883
  0
LINE
  8
0
  6
CONTINUOUS
 62
     7
 10
549.4996948242188
 20
111.9585647583008
 11
554.4996948242188
 21
111.9585647583008
  0
LINE
  8
0
  6
CONTINUOUS
 62
     7
 10
549.4996948242188
 20
107.917121887207
 11
554.4996948242188
 21
107.917121887207
  0
LINE
  8
0
  6
CONTINUOUS
 62
     7
 10
545.56982421875
 20
119.5000152587891
 11
547.47607421875
 21
116.0000076293945
  0
LINE
  8
0
  6
CONTINUOUS
 62
     7
 10
545.56982421875
 20
112.5000152587891
 11
547.47607421875
 21
116.0000076293945
  0
LINE
  8
0
  6
CONTINUOUS
 62
     7
 10
543.9467163085938
 20
109.2500076293945
 11
549.0546264648438
 21
109.2500076293945
  0
LINE
  8
0
  6
CONTINUOUS
 62
     7
 10
324.9996948242188
 20
0
 11
1174.999755859375
 21
0
  0
LINE
  8
0
  6
CONTINUOUS
 62
     7
 10
324.9996948242188
 20
85.00002288818359
 11
551.9996948242188
 21
85.00002288818359
  0
LINE
  8
0
  6
CONTINUOUS
 62
     7
 10
324.9996948242188
 20
74.68700408935547
 11
551.9996948242188
 21
74.68700408935547
  0
LINE
  8
0
  6
CONTINUOUS
 62
     7
 10
324.9996948242188
 20
62.31301116943359
 11
551.9996948242188
 21
62.31301116943359
  0
LINE
  8
0
  6
CONTINUOUS
 62
     7
 10
324.9996948242188
 20
49.08296966552734
 11
551.9996948242188
 21
49.08296966552734
  0
LINE
  8
0
  6
CONTINUOUS
 62
     7
 10
324.9996948242188
 20
34.49997329711914
 11
551.9996948242188
 21
34.49997329711914
  0
LINE
  8
0
  6
CONTINUOUS
 62
     7
 10
324.9996948242188
 20
20.00047302246094
 11
1174.999755859375
 21
20.00047302246094
  0
LINE
  8
0
  6
CONTINUOUS
 62
     7
 10
324.9996948242188
 20
85.00002288818359
 11
324.9996948242188
 21
0
  0
LINE
  8
0
  6
CENTER
 62
     7
 10
374.9996948242188
 20
-1
 11
374.9996948242188
 21
86.00002288818359
  0
LINE
  8
0
  6
DASHED
 62
     7
 10
345.9994506835938
 20
38.99994277954102
 11
345.9994506835938
 21
85.00002288818359
  0
LINE
  8
0
  6
DASHED
 62
     7
 10
403.9999389648438
 20
38.99994277954102
 11
403.9999389648438
 21
85.00002288818359
  0
LINE
  8
0
  6
DASHED
 62
     7
 10
394.4996948242188
 20
0
 11
394.4996948242188
 21
38.99994277954102
  0
LINE
  8
0
  6
DASHED
 62
     7
 10
355.4996948242188
 20
0
 11
355.4996948242188
 21
38.99994277954102
  0
LINE
  8
0
  6
DASHED
 62
     7
 10
345.9994506835938
 20
38.99994277954102
 11
403.9999389648438
 21
38.99994277954102
  0
LINE
  8
0
  6
CENTER
 62
     7
 10
624.9996948242188
 20
-1
 11
624.9996948242188
 21
28.00014305114746
  0
LINE
  8
0
  6
CONTINUOUS
 62
     7
 10
1174.999755859375
 20
34.49997329711914
 11
947.9996948242188
 21
34.49997329711914
  0
LINE
  8
0
  6
CONTINUOUS
 62
     7
 10
1174.999755859375
 20
74.68700408935547
 11
947.9996948242188
 21
74.68700408935547
  0
LINE
  8
0
  6
CENTER
 62
     7
 10
1124.999755859375
 20
-1
 11
1124.999755859375
 21
86.00002288818359
  0
LINE
  8
0
  6
CONTINUOUS
 62
     7
 10
1174.999755859375
 20
85.00002288818359
 11
1174.999755859375
 21
0
  0
LINE
  8
0
  6
CENTER
 62
     7
 10
874.9996948242188
 20
-1
 11
874.9996948242188
 21
28.00014305114746
  0
LINE
  8
0
  6
CONTINUOUS
 62
     7
 10
1174.999755859375
 20
49.08296966552734
 11
947.9996948242188
 21
49.08296966552734
  0
LINE
  8
0
  6
CONTINUOUS
 62
     7
 10
1174.999755859375
 20
62.31301116943359
 11
947.9996948242188
 21
62.31301116943359
  0
LINE
  8
0
  6
CONTINUOUS
 62
     7
 10
1174.999755859375
 20
85.00002288818359
 11
947.9996948242188
 21
85.00002288818359
  0
LINE
  8
0
  6
CENTER
 62
     7
 10
323.9996948242188
 20
569.9999389648438
 11
1175.999755859375
 21
569.9999389648438
  0
LINE
  8
0
  6
CONTINUOUS
 62
     7
 10
592.9996948242188
 20
394.9999389648438
 11
906.9996948242188
 21
394.9999389648438
  0
LINE
  8
0
  6
CONTINUOUS
 62
     7
 10
592.9996948242188
 20
744.9999389648438
 11
906.9996948242188
 21
744.9999389648438
  0
LINE
  8
0
  6
CONTINUOUS
 62
     7
 10
592.9996948242188
 20
744.9999389648438
 11
592.9996948242188
 21
394.9999389648438
  0
LINE
  8
0
  6
CONTINUOUS
 62
     7
 10
906.9996948242188
 20
744.9999389648438
 11
906.9996948242188
 21
394.9999389648438
  0
LINE
  8
0
  6
CONTINUOUS
 62
     7
 10
592.9996948242188
 20
674.9987182617188
 11
906.9996948242188
 21
674.9987182617188
  0
LINE
  8
0
  6
CONTINUOUS
 62
     7
 10
592.9996948242188
 20
615.9996948242188
 11
906.9996948242188
 21
615.9996948242188
  0
LINE
  8
0
  6
CONTINUOUS
 62
     7
 10
592.9996948242188
 20
524.0001831054688
 11
906.9996948242188
 21
524.0001831054688
  0
LINE
  8
0
  6
CONTINUOUS
 62
     7
 10
592.9996948242188
 20
464.9999389648438
 11
906.9996948242188
 21
464.9999389648438
  0
LINE
  8
0
  6
DASHED
 62
     7
 10
-137.9997863769531
 20
104.9999465942383
 11
-137.9997863769531
 21
144.9999542236328
  0
LINE
  8
0
  6
DASHED
 62
     7
 10
-161.9997863769531
 20
104.9999465942383
 11
-161.9997863769531
 21
144.9999542236328
  0
LINE
  8
0
  6
DASHED
 62
     7
 10
12
 20
96.00000762939453
 11
12
 21
144.9999542236328
  0
LINE
  8
0
  6
DASHED
 62
     7
 10
-12
 20
96.00000762939453
 11
-12
 21
144.9999542236328
  0
LINE
  8
0
  6
DASHED
 62
     7
 10
646.9996948242188
 20
144.9999542236328
 11
646.9996948242188
 21
104.9999465942383
  0
LINE
  8
0
  6
DASHED
 62
     7
 10
622.9996948242188
 20
144.9999542236328
 11
622.9996948242188
 21
104.9999465942383
  0
LINE
  8
0
  6
CENTER
 62
     7
 10
634.9996948242188
 20
433.0001525878906
 11
634.9996948242188
 21
407.0001525878906
  0
LINE
  8
0
  6
CENTER
 62
     7
 10
621.9996948242188
 20
420.0001525878906
 11
647.9996948242188
 21
420.0001525878906
  0
LINE
  8
0
  6
CENTER
 62
     7
 10
634.9996948242188
 20
732.999755859375
 11
634.9996948242188
 21
706.999755859375
  0
LINE
  8
0
  6
CENTER
 62
     7
 10
621.9996948242188
 20
719.999755859375
 11
647.9996948242188
 21
719.999755859375
  0
LINE
  8
0
  6
CENTER
 62
     7
 10
749.9996948242188
 20
732.999755859375
 11
749.9996948242188
 21
706.999755859375
  0
LINE
  8
0
  6
CENTER
 62
     7
 10
736.9996948242188
 20
719.999755859375
 11
762.9996948242188
 21
719.999755859375
  0
LINE
  8
0
  6
CENTER
 62
     7
 10
864.9996948242188
 20
732.999755859375
 11
864.9996948242188
 21
706.999755859375
  0
LINE
  8
0
  6
CENTER
 62
     7
 10
851.9996948242188
 20
719.999755859375
 11
877.9996948242188
 21
719.999755859375
  0
LINE
  8
0
  6
CENTER
 62
     7
 10
864.9996948242188
 20
433.0001525878906
 11
864.9996948242188
 21
407.0001525878906
  0
LINE
  8
0
  6
CENTER
 62
     7
 10
851.9996948242188
 20
420.0001525878906
 11
877.9996948242188
 21
420.0001525878906
  0
LINE
  8
0
  6
CENTER
 62
     7
 10
749.9996948242188
 20
433.0001525878906
 11
749.9996948242188
 21
407.0001525878906
  0
LINE
  8
0
  6
CENTER
 62
     7
 10
736.9996948242188
 20
420.0001525878906
 11
762.9996948242188
 21
420.0001525878906
  0
LINE
  8
0
  6
CENTER
 62
     7
 10
634.9996948242188
 20
582.9999389648438
 11
634.9996948242188
 21
556.9999389648438
  0
LINE
  8
0
  6
CENTER
 62
     7
 10
749.9996948242188
 20
582.9999389648438
 11
749.9996948242188
 21
556.9999389648438
  0
LINE
  8
0
  6
CENTER
 62
     7
 10
864.9996948242188
 20
582.9999389648438
 11
864.9996948242188
 21
556.9999389648438
  0
LINE
  8
0
  6
CONTINUOUS
 62
     7
 10
557.9996948242188
 20
441.0009155273438
 11
592.9996948242188
 21
441.0009155273438
  0
LINE
  8
0
  6
CONTINUOUS
 62
     7
 10
554.9996948242188
 20
443.0004272460938
 11
557.9996948242188
 21
443.0004272460938
  0
LINE
  8
0
  6
CONTINUOUS
 62
     7
 10
554.9996948242188
 20
696.9994506835938
 11
557.9996948242188
 21
696.9994506835938
  0
LINE
  8
0
  6
CONTINUOUS
 62
     7
 10
557.9996948242188
 20
698.9989624023438
 11
592.9996948242188
 21
698.9989624023438
  0
LINE
  8
0
  6
CONTINUOUS
 62
     7
 10
557.9996948242188
 20
698.9989624023438
 11
557.9996948242188
 21
441.0009155273438
  0
LINE
  8
0
  6
CONTINUOUS
 62
     7
 10
554.9996948242188
 20
696.9994506835938
 11
554.9996948242188
 21
443.0004272460938
  0
LINE
  8
0
  6
CONTINUOUS
 62
     7
 10
551.9996948242188
 20
643.7003784179688
 11
551.9996948242188
 21
576.9999389648438
  0
LINE
  8
0
  6
CONTINUOUS
 62
     7
 10
551.9996948242188
 20
496.2994995117188
 11
554.9996948242188
 21
493.2994995117188
  0
LINE
  8
0
  6
CONTINUOUS
 62
     7
 10
551.9996948242188
 20
643.700439453125
 11
554.9996948242188
 21
646.7003784179688
  0
LINE
  8
0
  6
CONTINUOUS
 62
     7
 10
324.9996948242188
 20
641.9999389648438
 11
324.9996948242188
 21
497.9999389648438
  0
LINE
  8
0
  6
CONTINUOUS
 62
     7
 10
324.9996948242188
 20
497.9999389648438
 11
551.9996948242188
 21
497.9999389648438
  0
LINE
  8
0
  6
CONTINUOUS
 62
     7
 10
324.9996948242188
 20
641.9999389648438
 11
551.9996948242188
 21
641.9999389648438
  0
LINE
  8
0
  6
CONTINUOUS
 62
     7
 10
324.9996948242188
 20
630.4176025390625
 11
551.9996948242188
 21
630.4176025390625
  0
LINE
  8
0
  6
CONTINUOUS
 62
     7
 10
324.9996948242188
 20
508.1603088378906
 11
551.9996948242188
 21
508.1603088378906
  0
LINE
  8
0
  6
CENTER
 62
     7
 10
374.9996948242188
 20
599.9999389648438
 11
374.9996948242188
 21
539.9999389648438
  0
LINE
  8
0
  6
CONTINUOUS
 62
     7
 10
1174.999755859375
 20
497.9999389648438
 11
947.9996948242188
 21
497.9999389648438
  0
LINE
  8
0
  6
CONTINUOUS
 62
     7
 10
1174.999755859375
 20
508.1603088378906
 11
947.9996948242188
 21
508.1603088378906
  0
LINE
  8
0
  6
CONTINUOUS
 62
     7
 10
1174.999755859375
 20
641.9999389648438
 11
947.9996948242188
 21
641.9999389648438
  0
LINE
  8
0
  6
CONTINUOUS
 62
     7
 10
947.9996948242188
 20
496.2994995117188
 11
944.9996948242188
 21
493.2994995117188
  0
LINE
  8
0
  6
CONTINUOUS
 62
     7
 10
947.9996948242188
 20
643.7003784179688
 11
947.9996948242188
 21
496.2994995117188
  0
LINE
  8
0
  6
CONTINUOUS
 62
     7
 10
944.9996948242188
 20
696.9994506835938
 11
944.9996948242188
 21
443.0004272460938
  0
LINE
  8
0
  6
CONTINUOUS
 62
     7
 10
941.9996948242188
 20
698.9989624023438
 11
941.9996948242188
 21
441.0009155273438
  0
LINE
  8
0
  6
CONTINUOUS
 62
     7
 10
941.9996948242188
 20
698.9989624023438
 11
906.9996948242188
 21
698.9989624023438
  0
LINE
  8
0
  6
CONTINUOUS
 62
     7
 10
944.9996948242188
 20
696.9994506835938
 11
941.9996948242188
 21
696.9994506835938
  0
LINE
  8
0
  6
CONTINUOUS
 62
     7
 10
944.9996948242188
 20
443.0004272460938
 11
941.9996948242188
 21
443.0004272460938
  0
LINE
  8
0
  6
CONTINUOUS
 62
     7
 10
941.9996948242188
 20
441.0009155273438
 11
906.9996948242188
 21
441.0009155273438
  0
LINE
  8
0
  6
CONTINUOUS
 62
     7
 10
1174.999755859375
 20
641.9999389648438
 11
1174.999755859375
 21
497.9999389648438
  0
LINE
  8
0
  6
CONTINUOUS
 62
     7
 10
1174.999755859375
 20
630.4176025390625
 11
947.9996948242188
 21
630.4176025390625
  0
LINE
  8
0
  6
CONTINUOUS
 62
     7
 10
947.9996948242188
 20
643.700439453125
 11
944.9996948242188
 21
646.700439453125
  0
LINE
  8
0
  6
CENTER
 62
     7
 10
1124.999755859375
 20
599.9999389648438
 11
1124.999755859375
 21
539.9999389648438
  0
LINE
  8
0
  6
CENTER
 62
     7
 10
624.9996948242188
 20
599.9999389648438
 11
624.9996948242188
 21
539.9999389648438
  0
LINE
  8
0
  6
CENTER
 62
     7
 10
874.9996948242188
 20
599.9999389648438
 11
874.9996948242188
 21
539.9999389648438
  0
LINE
  8
0
  6
CENTER
 62
     7
 10
540.0799560546875
 20
554.62939453125
 11
547.14599609375
 21
571.688232421875
  0
LINE
  8
0
  6
CONTINUOUS
 62
     7
 10
538.5001831054688
 20
557.0868530273438
 11
542.934814453125
 21
555.2499389648438
  0
LINE
  8
0
  6
CONTINUOUS
 62
     7
 10
538.7019653320313
 20
559.9257202148438
 11
544.799560546875
 21
557.4000244140625
  0
LINE
  8
0
  6
CONTINUOUS
 62
     7
 10
538.5001831054688
 20
557.0868530273438
 11
538.7019653320313
 21
559.9257202148438
  0
LINE
  8
0
  6
CONTINUOUS
 62
     7
 10
542.934814453125
 20
555.25
 11
544.799560546875
 21
557.4000244140625
  0
LINE
  8
0
  6
CONTINUOUS
 62
     7
 10
539.5936889648438
 20
564.0161743164063
 11
540.0083618164063
 21
565.0172729492188
  0
LINE
  8
0
  6
CONTINUOUS
 62
     7
 10
547.0614013671875
 20
560.9229736328125
 11
547.4760131835938
 21
561.9240112304688
  0
LINE
  8
0
  6
CONTINUOUS
 62
     7
 10
540.7879028320313
 20
565.3399658203125
 11
540.0084838867188
 21
565.01708984375
  0
LINE
  8
0
  6
CONTINUOUS
 62
     7
 10
544.9647827148438
 20
561.1419677734375
 11
545.8373413085938
 21
563.24853515625
  0
LINE
  8
0
  6
CONTINUOUS
 62
     7
 10
540.7880249023438
 20
565.340087890625
 11
547.1531372070313
 21
562.7035522460938
  0
LINE
  8
0
  6
CONTINUOUS
 62
     7
 10
547.4759521484375
 20
561.9239501953125
 11
547.153076171875
 21
562.7034301757813
  0
LINE
  8
0
  6
CONTINUOUS
 62
     7
 10
539.751220703125
 20
561.3814697265625
 11
545.0059204101563
 21
559.204833984375
  0
LINE
  8
0
  6
CONTINUOUS
 62
     7
 10
543.9467163085938
 20
576.7499389648438
 11
548.9996948242188
 21
576.7499389648438
  0
LINE
  8
0
  6
CONTINUOUS
 62
     7
 10
548.9996948242188
 20
576.9999389648438
 11
554.9996948242188
 21
576.9999389648438
  0
LINE
  8
0
  6
CONTINUOUS
 62
     7
 10
548.9996948242188
 20
562.9999389648438
 11
554.9996948242188
 21
562.9999389648438
  0
LINE
  8
0
  6
CONTINUOUS
 62
     7
 10
548.9996948242188
 20
576.9999389648438
 11
548.9996948242188
 21
562.9999389648438
  0
LINE
  8
0
  6
CONTINUOUS
 62
     7
 10
545.8339233398438
 20
563.2499389648438
 11
548.9996948242188
 21
563.2499389648438
  0
LINE
  8
0
  6
CONTINUOUS
 62
     7
 10
539.8234252929688
 20
563.2716064453125
 11
546.372314453125
 21
560.5589599609375
  0
LINE
  8
0
  6
CONTINUOUS
 62
     7
 10
541.2310180664063
 20
562.6885375976563
 11
542.1035766601563
 21
564.795166015625
  0
LINE
  8
0
  6
CONTINUOUS
 62
     7
 10
551.9996948242188
 20
562.9999389648438
 11
551.9996948242188
 21
496.2994995117188
  0
ARC
  8
0
  6
CONTINUOUS
 62
     7
 10
619.3998413085938
 20
25.24186515808106
 40
2.599999189376832
 50
286.6016397072624
 51
5.464151336010934E-005
  0
ARC
  8
0
  6
CONTINUOUS
 62
     7
 10
614.9992065429688
 20
39.99993896484375
 40
17.99998474121095
 50
253.3985055479429
 51
286.6016397072623
  0
ARC
  8
0
  6
CONTINUOUS
 62
     7
 10
610.5997924804688
 20
25.24186515808106
 40
2.599999189376775
 50
180.0000359721787
 51
253.3984509064284
  0
ARC
  8
0
  6
CONTINUOUS
 62
     7
 10
-169.1821441650391
 20
79.99994659423828
 40
24.99998664855957
 50
14.99999700231843
 51
89.99998201391067
  0
ARC
  8
0
  6
CONTINUOUS
 62
     7
 10
169.1833648681641
 20
79.99994659423828
 40
24.99998664855957
 50
89.99998201391067
 51
164.9999397047462
  0
ARC
  8
0
  6
CONTINUOUS
 62
     7
 10
-71.83472442626953
 20
84.68698883056641
 40
9.999986648559567
 50
276.7464963576344
 51
353.2535421190224
  0
ARC
  8
0
  6
CONTINUOUS
 62
     7
 10
-71.83472442626953
 20
52.31302642822266
 40
9.99998664855957
 50
6.746396409275042
 51
83.25344900085219
  0
ARC
  8
0
  6
CONTINUOUS
 62
     7
 10
71.83472442626953
 20
52.31302642822266
 40
9.999986648559567
 50
96.74646038545573
 51
173.2535402977896
  0
ARC
  8
0
  6
CONTINUOUS
 62
     7
 10
71.83472442626953
 20
84.68698883056641
 40
9.99998664855957
 50
186.7464597022104
 51
263.2535396145443
  0
ARC
  8
0
  6
CONTINUOUS
 62
     7
 10
-117.5891189575195
 20
41.99999237060547
 40
14.99999141693115
 50
195.0000602952538
 51
270.0000179860894
  0
ARC
  8
0
  6
CONTINUOUS
 62
     7
 10
117.5891189575195
 20
41.99999237060547
 40
14.99999141693115
 50
270.0000179860894
 51
344.9999790920195
  0
ARC
  8
0
  6
CONTINUOUS
 62
     7
 10
-89.00025177001953
 20
39.99994659423828
 40
17.9999942779541
 50
253.3983962649163
 51
286.6015304242357
  0
ARC
  8
0
  6
CONTINUOUS
 62
     7
 10
-93.40088653564453
 20
25.24176025390625
 40
2.599998950958249
 50
179.999909386308
 51
253.3983243205588
  0
ARC
  8
0
  6
CONTINUOUS
 62
     7
 10
-84.59961700439453
 20
25.24176025390625
 40
2.599998950958255
 50
286.6015850657492
 51
359.9999640278219
  0
ARC
  8
0
  6
CONTINUOUS
 62
     7
 10
-0.7137680053710938
 20
112.8698043823242
 40
7.875409126281738
 50
357.308301849047
 51
23.41950118275418
  0
ARC
  8
0
  6
CONTINUOUS
 62
     7
 10
13.19907379150391
 20
108.9517135620117
 40
6.000000000000003
 50
139.6351716180684
 51
143.7457433851222
  0
ARC
  8
0
  6
CONTINUOUS
 62
     7
 10
8.369361877441406
 20
114.925895690918
 40
3.552768945693969
 50
162.4033613294958
 51
223.0653859146405
  0
ARC
  8
0
  6
CONTINUOUS
 62
     7
 10
-0.7137680053710938
 20
119.1300888061523
 40
7.875409126281737
 50
336.5804680813946
 51
2.691665707554334
  0
ARC
  8
0
  6
CONTINUOUS
 62
     7
 10
8.369361877441406
 20
117.0739669799805
 40
3.552768945693967
 50
136.9345694617588
 51
197.5965940469035
  0
ARC
  8
0
  6
CONTINUOUS
 62
     7
 10
13.19907379150391
 20
123.0481796264648
 40
6.000000000000004
 50
216.254625445093
 51
220.3651972121467
  0
ARC
  8
0
  6
CONTINUOUS
 62
     7
 10
0
 20
115.9999313354492
 40
6.750000000000006
 50
90.00000250447816
 51
328.7670849058184
  0
ARC
  8
0
  6
CONTINUOUS
 62
     7
 10
0
 20
115.9999313354492
 40
6.749999999999996
 50
31.23292852718877
 51
90.00000250447816
  0
ARC
  8
0
  6
CONTINUOUS
 62
     7
 10
9.389419555664063
 20
119.8098983764648
 40
1
 50
220.3651972121467
 51
285.712717907542
  0
ARC
  8
0
  6
CONTINUOUS
 62
     7
 10
9.389396667480469
 20
112.1899795532227
 40
0.9999999999999941
 50
74.28728209245796
 51
139.6351716180682
  0
ARC
  8
0
  6
CONTINUOUS
 62
     7
 10
561.0082397460938
 20
125.865119934082
 40
17.08318519592281
 50
201.8756838836256
 51
215.2731409217406
  0
ARC
  8
0
  6
CONTINUOUS
 62
     7
 10
543.9467163085938
 20
119.7500076293945
 40
3.000000000000003
 50
90.00000250447738
 51
164.8107161439801
  0
ARC
  8
0
  6
CONTINUOUS
 62
     7
 10
557.7592163085938
 20
116.0000076293945
 40
17.31249999999999
 50
164.8107161439802
 51
169.6547546052449
  0
ARC
  8
0
  6
CONTINUOUS
 62
     7
 10
553.3330078125
 20
122.0621719360352
 40
4.333314895629836
 50
152.2041676909956
 51
207.7958286665384
  0
ARC
  8
0
  6
CONTINUOUS
 62
     7
 10
550.6663818359375
 20
122.0621719360352
 40
4.33331489562985
 50
332.2041678046813
 51
27.79583219531869
  0
ARC
  8
0
  6
CONTINUOUS
 62
     7
 10
565.5829467773438
 20
116.0000076293945
 40
16.58325958251948
 50
165.8946125237477
 51
194.1053838337865
  0
ARC
  8
0
  6
CONTINUOUS
 62
     7
 10
538.4164428710938
 20
116.0000076293945
 40
16.58325958251951
 50
345.8946151987543
 51
14.10538480124569
  0
ARC
  8
0
  6
CONTINUOUS
 62
     7
 10
553.3330078125
 20
109.9378433227539
 40
4.333314895629836
 50
152.2041676909956
 51
207.7958286665384
  0
ARC
  8
0
  6
CONTINUOUS
 62
     7
 10
550.6663818359375
 20
109.9378433227539
 40
4.33331489562985
 50
332.2041678046813
 51
27.79583219531869
  0
ARC
  8
0
  6
CONTINUOUS
 62
     7
 10
561.0082397460938
 20
106.134895324707
 40
17.08318519592283
 50
144.7268590782594
 51
158.1243161163745
  0
ARC
  8
0
  6
CONTINUOUS
 62
     7
 10
555.44677734375
 20
109.6349182128906
 40
17.08318519592289
 50
144.7269410405296
 51
145.6667614099449
  0
ARC
  8
0
  6
CONTINUOUS
 62
     7
 10
555.44677734375
 20
122.365104675293
 40
17.08318519592284
 50
214.3332385900551
 51
215.2730589594704
  0
ARC
  8
0
  6
CONTINUOUS
 62
     7
 10
557.7592163085938
 20
116.0000076293945
 40
17.31250000000001
 50
190.3452453947551
 51
195.1892838560198
  0
ARC
  8
0
  6
CONTINUOUS
 62
     7
 10
543.9467163085938
 20
112.2500076293945
 40
2.99999999999998
 50
195.18928385602
 51
269.9999974955227
  0
CIRCLE
  8
0
  6
CONTINUOUS
 62
     7
 10
634.9996948242188
 20
420.0001525878906
 40
12
  0
CIRCLE
  8
0
  6
CONTINUOUS
 62
     7
 10
634.9996948242188
 20
420.0001525878906
 40
10.39999961853027
  0
CIRCLE
  8
0
  6
CONTINUOUS
 62
     7
 10
374.9996948242188
 20
569.9999389648438
 40
29.00024604797363
  0
CIRCLE
  8
0
  6
CONTINUOUS
 62
     7
 10
374.9996948242188
 20
569.9999389648438
 40
19.5
  0
ARC
  8
0
  6
CONTINUOUS
 62
     7
 10
541.750732421875
 20
558.6629028320313
 40
3.299999237060534
 50
337.5000181569013
 51
2.009806215165055
  0
ARC
  8
0
  6
CONTINUOUS
 62
     7
 10
549.5140380859375
 20
555.447265625
 40
5.999999999999958
 50
114.1278165022778
 51
131.2359377315422
  0
ARC
  8
0
  6
CONTINUOUS
 62
     7
 10
543.9467163085938
 20
566.2499389648438
 40
2.999999999999977
 50
195.1892838560197
 51
200.5897231874528
  0
ARC
  8
0
  6
CONTINUOUS
 62
     7
 10
557.7592163085938
 20
569.9999389648438
 40
17.31249999999999
 50
164.8107161439802
 51
195.1892802135542
  0
ARC
  8
0
  6
CONTINUOUS
 62
     7
 10
543.9467163085938
 20
573.7499389648438
 40
3.000000000000003
 50
90.00000250447738
 51
164.8107161439803
  0
ARC
  8
0
  6
CONTINUOUS
 62
     7
 10
546.5477905273438
 20
558.8312377929688
 40
1.500000000000044
 50
131.2359377315407
 51
182.0098018326104
  0
ARC
  8
0
  6
CONTINUOUS
 62
     7
 10
541.7506713867188
 20
558.6629638671875
 40
3.299999237060538
 50
132.9901898575898
 51
157.4999821847224
  0
ARC
  8
0
  6
CONTINUOUS
 62
     7
 10
538.4776611328125
 20
562.1740112304688
 40
1.500000000000049
 50
312.9901950939179
 51
3.764061756307692
  0
ARC
  8
0
  6
CONTINUOUS
 62
     7
 10
533.9873657226563
 20
561.8786010742188
 40
5.999999999999958
 50
3.764061756306537
 51
20.87218554689281
  0
POLYLINE
  8
0
  6
CONTINUOUS
 62
     7
 66
     1
 10
0
 20
0
  0
VERTEX
  8
0
  6
CONTINUOUS
 62
     7
 10
615.49853515625
 20
104.9999465942383
 42
0.009426632633120709
  0
VERTEX
  8
0
  6
CONTINUOUS
 62
     7
 10
615.678494642476
 20
95.42494265001085
 42
0.009932044730748045
  0
VERTEX
  8
0
  6
CONTINUOUS
 62
     7
 10
616.2276311953417
 20
85.86398341192621
 42
0.01108623302439215
  0
VERTEX
  8
0
  6
CONTINUOUS
 62
     7
 10
617.1762013903647
 20
76.33436483148442
 42
0.01328285606286782
  0
VERTEX
  8
0
  6
CONTINUOUS
 62
     7
 10
618.5847475910064
 20
66.86114318524088
 42
0.01753721166403428
  0
VERTEX
  8
0
  6
CONTINUOUS
 62
     7
 10
620.5668193072628
 20
57.49302560911114
 42
0.02702246947871835
  0
VERTEX
  8
0
  6
CONTINUOUS
 62
     7
 10
623.3547859414229
 20
48.33473414027021
 42
0.0562838825329575
  0
VERTEX
  8
0
  6
CONTINUOUS
 62
     7
 10
627.5340869629772
 20
39.73920364129143
 42
0.2392988635079616
  0
VERTEX
  8
0
  6
CONTINUOUS
 62
     7
 10
635.0010189647489
 20
34.35884917334203
 42
0.239059600538593
  0
VERTEX
  8
0
  6
CONTINUOUS
 62
     7
 10
642.4650568508027
 20
39.74248554131322
 42
0.05625335974142118
  0
VERTEX
  8
0
  6
CONTINUOUS
 62
     7
 10
646.6428000829859
 20
48.33639442960191
 42
0.02701639003649167
  0
VERTEX
  8
0
  6
CONTINUOUS
 62
     7
 10
649.4301740304404
 20
57.49307260756341
 42
0.01753572052320883
  0
VERTEX
  8
0
  6
CONTINUOUS
 62
     7
 10
651.4120853486023
 20
66.86025045489963
 42
0.01328168616061919
  0
VERTEX
  8
0
  6
CONTINUOUS
 62
     7
 10
652.8205378546122
 20
76.33224840896274
 42
0.01108624105656316
  0
VERTEX
  8
0
  6
CONTINUOUS
 62
     7
 10
653.7691793987661
 20
85.86148919289167
 42
0.009933032169171211
  0
VERTEX
  8
0
  6
CONTINUOUS
 62
     7
 10
654.3184461433244
 20
95.4231632157678
 42
0.009428480291492796
  0
VERTEX
  8
0
  6
CONTINUOUS
 62
     7
 10
654.4984741210938
 20
104.9999465942383
 42
0
  0
SEQEND
  8
0
  0
POLYLINE
  8
0
  6
CONTINUOUS
 62
     7
 66
     1
 10
0
 20
0
  0
VERTEX
  8
0
  6
CONTINUOUS
 62
     7
 10
730.49853515625
 20
104.9999465942383
 42
0.009426632633160015
  0
VERTEX
  8
0
  6
CONTINUOUS
 62
     7
 10
730.678494642476
 20
95.42494265001083
 42
0.009932044730785463
  0
VERTEX
  8
0
  6
CONTINUOUS
 62
     7
 10
731.2276311953417
 20
85.8639834119262
 42
0.01108623302435906
  0
VERTEX
  8
0
  6
CONTINUOUS
 62
     7
 10
732.1762013903647
 20
76.33436483148442
 42
0.01328285606281307
  0
VERTEX
  8
0
  6
CONTINUOUS
 62
     7
 10
733.5847475910064
 20
66.86114318524088
 42
0.01753721166406326
  0
VERTEX
  8
0
  6
CONTINUOUS
 62
     7
 10
735.5668193072628
 20
57.49302560911114
 42
0.02702246947884312
  0
VERTEX
  8
0
  6
CONTINUOUS
 62
     7
 10
738.354785941423
 20
48.33473414027019
 42
0.05628388253291918
  0
VERTEX
  8
0
  6
CONTINUOUS
 62
     7
 10
742.5340869629772
 20
39.73920364129143
 42
0.239298863507981
  0
VERTEX
  8
0
  6
CONTINUOUS
 62
     7
 10
750.0010189647489
 20
34.35884917334203
 42
0.2390596005390524
  0
VERTEX
  8
0
  6
CONTINUOUS
 62
     7
 10
757.4650568508029
 20
39.74248554131322
 42
0.05625335974138063
  0
VERTEX
  8
0
  6
CONTINUOUS
 62
     7
 10
761.6428000829859
 20
48.33639442960192
 42
0.02701639003648211
  0
VERTEX
  8
0
  6
CONTINUOUS
 62
     7
 10
764.4301740304404
 20
57.49307260756341
 42
0.01753572052322482
  0
VERTEX
  8
0
  6
CONTINUOUS
 62
     7
 10
766.4120853486023
 20
66.86025045489963
 42
0.01328168616059854
  0
VERTEX
  8
0
  6
CONTINUOUS
 62
     7
 10
767.8205378546122
 20
76.33224840896274
 42
0.01108624105656605
  0
VERTEX
  8
0
  6
CONTINUOUS
 62
     7
 10
768.769179398766
 20
85.86148919289167
 42
0.009933032169168547
  0
VERTEX
  8
0
  6
CONTINUOUS
 62
     7
 10
769.3184461433244
 20
95.4231632157678
 42
0.009428480291499014
  0
VERTEX
  8
0
  6
CONTINUOUS
 62
     7
 10
769.4984741210938
 20
104.9999465942383
 42
0
  0
SEQEND
  8
0
  0
POLYLINE
  8
0
  6
CONTINUOUS
 62
     7
 66
     1
 10
0
 20
0
  0
VERTEX
  8
0
  6
CONTINUOUS
 62
     7
 10
845.4985351562499
 20
104.9999465942383
 42
0.009426632633127704
  0
VERTEX
  8
0
  6
CONTINUOUS
 62
     7
 10
845.678494642476
 20
95.42494265001085
 42
0.009932044730736498
  0
VERTEX
  8
0
  6
CONTINUOUS
 62
     7
 10
846.2276311953417
 20
85.86398341192621
 42
0.01108623302435273
  0
VERTEX
  8
0
  6
CONTINUOUS
 62
     7
 10
847.1762013903647
 20
76.33436483148442
 42
0.01328285606286027
  0
VERTEX
  8
0
  6
CONTINUOUS
 62
     7
 10
848.5847475910063
 20
66.86114318524088
 42
0.01753721166397586
  0
VERTEX
  8
0
  6
CONTINUOUS
 62
     7
 10
850.5668193072627
 20
57.49302560911115
 42
0.02702246947887189
  0
VERTEX
  8
0
  6
CONTINUOUS
 62
     7
 10
853.3547859414229
 20
48.33473414027021
 42
0.05628388253301909
  0
VERTEX
  8
0
  6
CONTINUOUS
 62
     7
 10
857.5340869629772
 20
39.73920364129143
 42
0.239298863508264
  0
VERTEX
  8
0
  6
CONTINUOUS
 62
     7
 10
865.0010189647488
 20
34.35884917334203
 42
0.2390596005378928
  0
VERTEX
  8
0
  6
CONTINUOUS
 62
     7
 10
872.4650568508027
 20
39.74248554131323
 42
0.05625335974120622
  0
VERTEX
  8
0
  6
CONTINUOUS
 62
     7
 10
876.642800082986
 20
48.33639442960193
 42
0.02701639003651055
  0
VERTEX
  8
0
  6
CONTINUOUS
 62
     7
 10
879.4301740304404
 20
57.49307260756343
 42
0.01753572052326613
  0
VERTEX
  8
0
  6
CONTINUOUS
 62
     7
 10
881.4120853486024
 20
66.86025045489966
 42
0.01328168616059676
  0
VERTEX
  8
0
  6
CONTINUOUS
 62
     7
 10
882.8205378546123
 20
76.33224840896278
 42
0.01108624105656116
  0
VERTEX
  8
0
  6
CONTINUOUS
 62
     7
 10
883.7691793987659
 20
85.86148919289168
 42
0.009933032169179207
  0
VERTEX
  8
0
  6
CONTINUOUS
 62
     7
 10
884.3184461433244
 20
95.42316321576784
 42
0.009428480291467924
  0
VERTEX
  8
0
  6
CONTINUOUS
 62
     7
 10
884.4984741210938
 20
104.9999465942383
 42
0
  0
SEQEND
  8
0
  0
POLYLINE
  8
0
  6
CONTINUOUS
 62
     7
 66
     1
 10
0
 20
0
 70
     1
  0
VERTEX
  8
0
  6
CONTINUOUS
 62
     7
 10
13.83154296875
 20
118.3999404907227
 42
0.2547050057845648
  0
VERTEX
  8
0
  6
CONTINUOUS
 62
     7
 10
13.32026563750223
 20
117.9936780324844
 42
0.06365237301008053
  0
VERTEX
  8
0
  6
CONTINUOUS
 62
     7
 10
13.07431071388763
 20
117.3580687650168
 42
0.03549875221947146
  0
VERTEX
  8
0
  6
CONTINUOUS
 62
     7
 10
12.95135926254632
 20
116.6853444047884
 42
0.02816725306335119
  0
VERTEX
  8
0
  6
CONTINUOUS
 62
     7
 10
12.91310923516391
 20
116.0021976487991
 42
0.02812347652206589
  0
VERTEX
  8
0
  6
CONTINUOUS
 62
     7
 10
12.95078549627849
 20
115.3195712244777
 42
0.03541277106667803
  0
VERTEX
  8
0
  6
CONTINUOUS
 62
     7
 10
13.07306991177084
 20
114.6465350819347
 42
0.06347459633217137
  0
VERTEX
  8
0
  6
CONTINUOUS
 62
     7
 10
13.31863677592632
 20
114.0090539560192
 42
0.2547692361181687
  0
VERTEX
  8
0
  6
CONTINUOUS
 62
     7
 10
13.83154296875
 20
113.5999374389649
 42
0.2547037754523366
  0
VERTEX
  8
0
  6
CONTINUOUS
 62
     7
 10
14.3428235219676
 20
114.0061964603298
 42
0.06365332165695097
  0
VERTEX
  8
0
  6
CONTINUOUS
 62
     7
 10
14.58878178840949
 20
114.641804351994
 42
0.03549944801167836
  0
VERTEX
  8
0
  6
CONTINUOUS
 62
     7
 10
14.71173462838212
 20
115.3145284272741
 42
0.02816782885319371
  0
VERTEX
  8
0
  6
CONTINUOUS
 62
     7
 10
14.74998433529585
 20
115.9976749323745
 42
0.02812381740095181
  0
VERTEX
  8
0
  6
CONTINUOUS
 62
     7
 10
14.7123064491514
 20
116.6803011960949
 42
0.03541272322962463
  0
VERTEX
  8
0
  6
CONTINUOUS
 62
     7
 10
14.5900200206871
 20
117.3533369662528
 42
0.06347362881921029
  0
VERTEX
  8
0
  6
CONTINUOUS
 62
     7
 10
14.34445232774456
 20
117.990817817396
 42
0.2547673441362005
  0
SEQEND
  8
0
  0
POLYLINE
  8
0
  6
CONTINUOUS
 62
     7
 66
     1
 10
0
 20
0
  0
VERTEX
  8
0
  6
CONTINUOUS
 62
     7
 10
11.51128484414741
 20
119.2683807490701
 42
0.2419549943369861
  0
VERTEX
  8
0
  6
CONTINUOUS
 62
     7
 10
11.04147379563734
 20
119.2082611889243
 42
0.1040602418277522
  0
VERTEX
  8
0
  6
CONTINUOUS
 62
     7
 10
10.70416787395761
 20
118.8555929121734
 42
0.04748772166612904
  0
VERTEX
  8
0
  6
CONTINUOUS
 62
     7
 10
10.47849792014485
 20
118.4199496646256
 42
0.0291504163128566
  0
VERTEX
  8
0
  6
CONTINUOUS
 62
     7
 10
10.3194353299451
 20
117.9540698694154
 42
0.02124433023186685
  0
VERTEX
  8
0
  6
CONTINUOUS
 62
     7
 10
10.20730615391152
 20
117.4745411295406
 42
0.01734001507281414
  0
VERTEX
  8
0
  6
CONTINUOUS
 62
     7
 10
10.13200472550042
 20
116.9868121242327
 42
0.01529278916238589
  0
VERTEX
  8
0
  6
CONTINUOUS
 62
     7
 10
10.08855204692388
 20
116.4958417835774
 42
0.01441683554782238
  0
VERTEX
  8
0
  6
CONTINUOUS
 62
     7
 10
10.07421170853373
 20
116.003115628647
 42
0.01436644647206553
  0
VERTEX
  8
0
  6
CONTINUOUS
 62
     7
 10
10.08809799850468
 20
115.5118904374552
 42
0.01525598417360296
  0
VERTEX
  8
0
  6
CONTINUOUS
 62
     7
 10
10.13101635750591
 20
115.0213297071009
 42
0.01732076104854651
  0
VERTEX
  8
0
  6
CONTINUOUS
 62
     7
 10
10.20588141181709
 20
114.5327987886093
 42
0.02117974019710585
  0
VERTEX
  8
0
  6
CONTINUOUS
 62
     7
 10
10.31748397194494
 20
114.0527507750955
 42
0.02902604933225929
  0
VERTEX
  8
0
  6
CONTINUOUS
 62
     7
 10
10.4759731925974
 20
113.5860461211051
 42
0.04737184694965533
  0
VERTEX
  8
0
  6
CONTINUOUS
 62
     7
 10
10.70168277841445
 20
113.1480405424413
 42
0.10379999578873
  0
VERTEX
  8
0
  6
CONTINUOUS
 62
     7
 10
11.03938475302447
 20
112.7929206717413
 42
0.2421695498658847
  0
VERTEX
  8
0
  6
CONTINUOUS
 62
     7
 10
11.5099027031909
 20
112.7309808843059
 42
0
  0
SEQEND
  8
0
  0
POLYLINE
  8
0
  6
CONTINUOUS
 62
     7
 66
     1
 10
0
 20
0
  0
VERTEX
  8
0
  6
CONTINUOUS
 62
     7
 10
9.591292277998804
 20
118.8278760777301
 42
0.1426553360552935
  0
VERTEX
  8
0
  6
CONTINUOUS
 62
     7
 10
9.274705862900735
 20
118.6101697523498
 42
0.06078303718306818
  0
VERTEX
  8
0
  6
CONTINUOUS
 62
     7
 10
9.059503280685291
 20
118.2861994461803
 42
0.03423980391173476
  0
VERTEX
  8
0
  6
CONTINUOUS
 62
     7
 10
8.906807122360164
 20
117.9280957436224
 42
0.02354281437424783
  0
VERTEX
  8
0
  6
CONTINUOUS
 62
     7
 10
8.795393524991207
 20
117.5541807669433
 42
0.01829035794370689
  0
VERTEX
  8
0
  6
CONTINUOUS
 62
     7
 10
8.71519565121074
 20
117.1718752659199
 42
0.01545182576234231
  0
VERTEX
  8
0
  6
CONTINUOUS
 62
     7
 10
8.660782172061127
 20
116.7849688008013
 42
0.01392491048266661
  0
VERTEX
  8
0
  6
CONTINUOUS
 62
     7
 10
8.62907755679851
 20
116.3954890933097
 42
0.01324648276167781
  0
VERTEX
  8
0
  6
CONTINUOUS
 62
     7
 10
8.618501355473054
 20
116.0048074875922
 42
0.01319882441779631
  0
VERTEX
  8
0
  6
CONTINUOUS
 62
     7
 10
8.62850045415453
 20
115.6152644023143
 42
0.01387796692484592
  0
VERTEX
  8
0
  6
CONTINUOUS
 62
     7
 10
8.659548044953482
 20
115.2262130883643
 42
0.01542128772595475
  0
VERTEX
  8
0
  6
CONTINUOUS
 62
     7
 10
8.713383095951253
 20
114.8385203257328
 42
0.01824157842770001
  0
VERTEX
  8
0
  6
CONTINUOUS
 62
     7
 10
8.793060067942115
 20
114.4550712878396
 42
0.02340744571968084
  0
VERTEX
  8
0
  6
CONTINUOUS
 62
     7
 10
8.903794734860036
 20
114.0803442869034
 42
0.03403058240559257
  0
VERTEX
  8
0
  6
CONTINUOUS
 62
     7
 10
9.056005670015237
 20
113.7204638759203
 42
0.06024399300298951
  0
VERTEX
  8
0
  6
CONTINUOUS
 62
     7
 10
9.27057553128796
 20
113.3944013934247
 42
0.1417951362054515
  0
VERTEX
  8
0
  6
CONTINUOUS
 62
     7
 10
9.58756870864765
 20
113.1730572364587
 42
0
  0
SEQEND
  8
0
  0
POLYLINE
  8
0
  6
CONTINUOUS
 62
     7
 66
     1
 10
0
 20
0
 70
     1
  0
VERTEX
  8
0
  6
CONTINUOUS
 62
     7
 10
542.934814453125
 20
116.0000076293945
 42
0.08828367656516652
  0
VERTEX
  8
0
  6
CONTINUOUS
 62
     7
 10
542.7773796170887
 20
116.8881996693224
 42
0.09354479084795861
  0
VERTEX
  8
0
  6
CONTINUOUS
 62
     7
 10
542.3162174609895
 20
117.6629952243277
 42
0.1024548856762168
  0
VERTEX
  8
0
  6
CONTINUOUS
 62
     7
 10
541.5949367369019
 20
118.204085982654
 42
0.1097091094866779
  0
VERTEX
  8
0
  6
CONTINUOUS
 62
     7
 10
540.7174682617188
 20
118.4000091552734
 42
0.1096469529179514
  0
VERTEX
  8
0
  6
CONTINUOUS
 62
     7
 10
539.8404861246701
 20
118.2043080214771
 42
0.1023486177963018
  0
VERTEX
  8
0
  6
CONTINUOUS
 62
     7
 10
539.119800551541
 20
117.6641768422795
 42
0.09358419385661437
  0
VERTEX
  8
0
  6
CONTINUOUS
 62
     7
 10
538.6580647536165
 20
116.8894369672759
 42
0.08841098783634734
  0
VERTEX
  8
0
  6
CONTINUOUS
 62
     7
 10
538.5001831054688
 20
116.0000076293945
 42
0.08827991729203441
  0
VERTEX
  8
0
  6
CONTINUOUS
 62
     7
 10
538.6576101401037
 20
115.1118136608422
 42
0.09354605189110557
  0
VERTEX
  8
0
  6
CONTINUOUS
 62
     7
 10
539.1187614415854
 20
114.3370116519216
 42
0.1024600569161325
  0
VERTEX
  8
0
  6
CONTINUOUS
 62
     7
 10
539.8400413469303
 20
113.7959209816919
 42
0.1097067374098166
  0
VERTEX
  8
0
  6
CONTINUOUS
 62
     7
 10
540.7174682617188
 20
113.6000137329102
 42
0.1096429882160802
  0
VERTEX
  8
0
  6
CONTINUOUS
 62
     7
 10
541.5944522837723
 20
113.7957097605702
 42
0.1023443422288072
  0
VERTEX
  8
0
  6
CONTINUOUS
 62
     7
 10
542.3151513624897
 20
114.3358238163593
 42
0.09358440642668531
  0
VERTEX
  8
0
  6
CONTINUOUS
 62
     7
 10
542.7769125184288
 20
115.1105486458188
 42
0.08841876919268936
  0
SEQEND
  8
0
  0
POLYLINE
  8
0
  6
CONTINUOUS
 62
     7
 66
     1
 10
0
 20
0
  0
VERTEX
  8
0
  6
CONTINUOUS
 62
     7
 10
541.750732421875
 20
112.7000122070313
 42
0.07311624812874912
  0
VERTEX
  8
0
  6
CONTINUOUS
 62
     7
 10
542.5657938337142
 20
112.8201241974537
 42
0.07062055658782257
  0
VERTEX
  8
0
  6
CONTINUOUS
 62
     7
 10
543.3133605811474
 20
113.1664265535714
 42
0.06680086549603234
  0
VERTEX
  8
0
  6
CONTINUOUS
 62
     7
 10
543.9398002769084
 20
113.7031213475872
 42
0.06287589563648374
  0
VERTEX
  8
0
  6
CONTINUOUS
 62
     7
 10
544.4082004221456
 20
114.382597492016
 42
0.05987814786680601
  0
VERTEX
  8
0
  6
CONTINUOUS
 62
     7
 10
544.6980567675532
 20
115.1558255314025
 42
0.05828595589461926
  0
VERTEX
  8
0
  6
CONTINUOUS
 62
     7
 10
544.79941801139
 20
115.9758782563701
 42
0.05815570609497509
  0
VERTEX
  8
0
  6
CONTINUOUS
 62
     7
 10
544.7094585806326
 20
116.7960908300037
 42
0.05969737533047449
  0
VERTEX
  8
0
  6
CONTINUOUS
 62
     7
 10
544.4309204928732
 20
117.5728835461504
 42
0.06266017484516383
  0
VERTEX
  8
0
  6
CONTINUOUS
 62
     7
 10
543.9728645817248
 20
118.2593928200368
 42
0.06660341149188639
  0
VERTEX
  8
0
  6
CONTINUOUS
 62
     7
 10
543.354618380052
 20
118.8064558472218
 42
0.0705498873933984
  0
VERTEX
  8
0
  6
CONTINUOUS
 62
     7
 10
542.6114857183865
 20
119.1657608049283
 42
0.07311536718866095
  0
VERTEX
  8
0
  6
CONTINUOUS
 62
     7
 10
541.7976513872657
 20
119.2996198833056
 42
0.07318673647016094
  0
VERTEX
  8
0
  6
CONTINUOUS
 62
     7
 10
540.9807305370052
 20
119.1930295227045
 42
0.07079614234506468
  0
VERTEX
  8
0
  6
CONTINUOUS
 62
     7
 10
540.227858081935
 20
118.8588497591509
 42
0.0670476493137989
  0
VERTEX
  8
0
  6
CONTINUOUS
 62
     7
 10
539.593200580205
 20
118.3316282921639
 42
0.06307890498777974
  0
VERTEX
  8
0
  6
CONTINUOUS
 62
     7
 10
539.11515557291
 20
117.6589395637667
 42
0
  0
SEQEND
  8
0
  0
POLYLINE
  8
0
  6
CONTINUOUS
 62
     7
 66
     1
 10
0
 20
0
  0
VERTEX
  8
0
  6
CONTINUOUS
 62
     7
 10
539.1146114441176
 20
114.3420908662924
 42
0.01519440679849154
  0
VERTEX
  8
0
  6
CONTINUOUS
 62
     7
 10
539.2164120522872
 20
114.1655227515407
 42
0.01540042719751306
  0
VERTEX
  8
0
  6
CONTINUOUS
 62
     7
 10
539.3288217078972
 20
113.9955038033993
 42
0.01562165705169624
  0
VERTEX
  8
0
  6
CONTINUOUS
 62
     7
 10
539.4515602445001
 20
113.8327747088846
 42
0.01585544452084735
  0
VERTEX
  8
0
  6
CONTINUOUS
 62
     7
 10
539.5842974137536
 20
113.6780825573746
 42
0.01609864100407494
  0
VERTEX
  8
0
  6
CONTINUOUS
 62
     7
 10
539.7266474848492
 20
113.5321766434982
 42
0.01634757672505813
  0
VERTEX
  8
0
  6
CONTINUOUS
 62
     7
 10
539.8781640507428
 20
113.3958028609116
 42
0.0165980620333092
  0
VERTEX
  8
0
  6
CONTINUOUS
 62
     7
 10
540.038335343162
 20
113.2696966132117
 42
0.01684542024870003
  0
VERTEX
  8
0
  6
CONTINUOUS
 62
     7
 10
540.2065804093849
 20
113.1545742377873
 42
0.01708456202288711
  0
VERTEX
  8
0
  6
CONTINUOUS
 62
     7
 10
540.3822465405409
 20
113.051123032505
 42
0.01731010454802494
  0
VERTEX
  8
0
  6
CONTINUOUS
 62
     7
 10
540.5646083532687
 20
112.9599900913185
 42
0.01751653954000392
  0
VERTEX
  8
0
  6
CONTINUOUS
 62
     7
 10
540.7528689032356
 20
112.8817702859931
 42
0.01769844510541825
  0
VERTEX
  8
0
  6
CONTINUOUS
 62
     7
 10
540.9461631414765
 20
112.816993864513
 42
0.01785073100506716
  0
VERTEX
  8
0
  6
CONTINUOUS
 62
     7
 10
541.1435639085177
 20
112.7661142548298
 42
0.01796890119726684
  0
VERTEX
  8
0
  6
CONTINUOUS
 62
     7
 10
541.3440904999055
 20
112.7294967448972
 42
0.01804930916092723
  0
VERTEX
  8
0
  6
CONTINUOUS
 62
     7
 10
541.5467196421874
 20
112.7074087365195
 42
0.01811904889365877
  0
VERTEX
  8
0
  6
CONTINUOUS
 62
     7
 10
541.750732421875
 20
112.7000122070313
 42
0
  0
SEQEND
  8
0
  0
TEXT
  8
0
  6
CONTINUOUS
 62
     7
 10
-11.28550004959106
 20
-31.79999995231628
 40
3.599999904632568
 41
1.00619571870364
  1
HSR150HA
  0
ENDSEC
  0
EOF
