  0
SECTION
  2
HEADER
  0
ENDSEC
  0
SECTION
  2
TABLES
  0
TABLE
  2
LTYPE
 70
    22
  0
LTYPE
  2
CONTINUOUS
 70
    64
  3
Solid line
 72
    65
 73
     0
 40
0.000000
  0
LTYPE
  2
DASHED
 70
    64
  3
__ __ __ __ __ __ __ __ __ __ __ __ __ __ __
 72
    65
 73
     2
 40
3.500000
 49
2.000000
 49
-1.500000
  0
LTYPE
  2
CENTER
 70
    64
  3
____ _ ____ _ ____ _ ____ _ ____ _ ____ _ ____
 72
    65
 73
     4
 40
17.500000
 49
13.000000
 49
-1.500000
 49
1.500000
 49
-1.500000
  0
LTYPE
  2
PHANTOM
 70
    64
  3
_____ _ _ _____ _ _ _____ _ _ _____ _ _ ____  
 72
    65
 73
     6
 40
15.500000
 49
8.000000
 49
-1.500000
 49
1.500000
 49
-1.500000
 49
1.500000
 49
-1.500000
  0
LTYPE
  2
DOT
 70
    64
  3
. . . . . . . . . . . . . . . . . . . . . . . .
 72
    65
 73
     2
 40
0.25
 49
0.0
 49
-0.25
  0
ENDTAB
  0
TABLE
  2
LAYER
 70
     1
  0
LAYER
  2
0
 70
     0
 62
     7
  6
CONTINUOUS
  0
ENDTAB
  0
TABLE
  2
STYLE
 70
     1
  0
STYLE
  2
STANDARD
 70
     0
 40
0.000000
 41
1.000000
 50
0.000000
 71
     0
 42
0.200000
  3
txt
  0
ENDTAB
  0
TABLE
  2
VIEW
 70
     0
  0
ENDTAB
  0
ENDSEC
  0
SECTION
  2
BLOCKS
  0
ENDSEC
  0
SECTION
  2
ENTITIES
  0
LINE
  8
0
  6
CONTINUOUS
 62
     7
 10
51.524994
 20
97.4319
 11
101.72498
 21
97.4319
  0
LINE
  8
0
  6
CONTINUOUS
 62
     7
 10
51.524994
 20
82.4319
 11
101.72498
 21
82.4319
  0
LINE
  8
0
  6
CONTINUOUS
 62
     7
 10
51.524994
 20
97.4319
 11
51.524994
 21
82.4319
  0
LINE
  8
0
  6
CONTINUOUS
 62
     7
 10
211.52498
 20
97.4319
 11
211.52498
 21
82.4319
  0
LINE
  8
0
  6
CENTER
 62
     7
 10
46.080292
 20
89.9319
 11
217.42342
 21
89.9319
  0
LINE
  8
0
  6
CONTINUOUS
 62
     7
 10
101.72498
 20
105.9319
 11
112.12498
 21
105.9319
  0
LINE
  8
0
  6
CONTINUOUS
 62
     7
 10
101.72498
 20
73.9319
 11
112.12498
 21
73.9319
  0
LINE
  8
0
  6
CONTINUOUS
 62
     7
 10
150.92499
 20
105.9319
 11
161.325
 21
105.9319
  0
LINE
  8
0
  6
CONTINUOUS
 62
     7
 10
150.92499
 20
73.9319
 11
161.325
 21
73.9319
  0
LINE
  8
0
  6
CONTINUOUS
 62
     7
 10
161.325
 20
97.4319
 11
211.52498
 21
97.4319
  0
LINE
  8
0
  6
CONTINUOUS
 62
     7
 10
161.325
 20
82.4319
 11
211.52498
 21
82.4319
  0
LINE
  8
0
  6
CENTER
 62
     7
 10
71.524994
 20
94.6819
 11
71.524994
 21
85.1819
  0
LINE
  8
0
  6
CENTER
 62
     7
 10
131.52498
 20
94.6819
 11
131.52498
 21
85.1819
  0
LINE
  8
0
  6
CENTER
 62
     7
 10
191.52498
 20
94.6819
 11
191.52498
 21
85.1819
  0
LINE
  8
0
  6
CONTINUOUS
 62
     7
 10
51.524994
 20
95.281906
 11
101.72498
 21
95.281906
  0
LINE
  8
0
  6
CONTINUOUS
 62
     7
 10
51.524994
 20
84.581909
 11
101.72498
 21
84.581909
  0
LINE
  8
0
  6
CONTINUOUS
 62
     7
 10
161.325
 20
95.281906
 11
211.52498
 21
95.281906
  0
LINE
  8
0
  6
CONTINUOUS
 62
     7
 10
161.325
 20
84.581909
 11
211.52498
 21
84.581909
  0
LINE
  8
0
  6
CONTINUOUS
 62
     7
 10
161.325
 20
15
 11
211.52498
 21
15
  0
LINE
  8
0
  6
CONTINUOUS
 62
     7
 10
161.325
 20
12.849991
 11
211.52498
 21
12.849991
  0
LINE
  8
0
  6
CONTINUOUS
 62
     7
 10
161.325
 20
11.539993
 11
211.52498
 21
11.539993
  0
LINE
  8
0
  6
CONTINUOUS
 62
     7
 10
161.325
 20
8.8399963
 11
211.52498
 21
8.8399963
  0
LINE
  8
0
  6
CONTINUOUS
 62
     7
 10
161.325
 20
6.8999939
 11
211.52498
 21
6.8999939
  0
LINE
  8
0
  6
CENTER
 62
     7
 10
131.52498
 20
9.9185944
 11
131.52498
 21
-2.4767609
  0
LINE
  8
0
  6
CENTER
 62
     7
 10
71.524994
 20
17.822556
 11
71.524994
 21
-2.3465576
  0
LINE
  8
0
  6
CONTINUOUS
 62
     7
 10
51.524994
 20
15
 11
51.524994
 21
0
  0
LINE
  8
0
  6
CONTINUOUS
 62
     7
 10
51.524994
 20
4.1999969
 11
211.52498
 21
4.1999969
  0
LINE
  8
0
  6
CONTINUOUS
 62
     7
 10
51.524994
 20
8.8399963
 11
101.72498
 21
8.8399963
  0
LINE
  8
0
  6
CONTINUOUS
 62
     7
 10
51.524994
 20
6.8999939
 11
101.72498
 21
6.8999939
  0
LINE
  8
0
  6
CONTINUOUS
 62
     7
 10
51.524994
 20
11.539993
 11
101.72498
 21
11.539993
  0
LINE
  8
0
  6
CONTINUOUS
 62
     7
 10
51.524994
 20
12.849991
 11
101.72498
 21
12.849991
  0
LINE
  8
0
  6
CONTINUOUS
 62
     7
 10
51.524994
 20
15
 11
101.72498
 21
15
  0
LINE
  8
0
  6
CONTINUOUS
 62
     7
 10
51.524994
 20
0.69999695
 11
211.52498
 21
0.69999695
  0
LINE
  8
0
  6
CONTINUOUS
 62
     7
 10
51.524994
 20
0
 11
211.52498
 21
0
  0
LINE
  8
0
  6
CONTINUOUS
 62
     7
 10
211.52498
 20
15
 11
211.52498
 21
0
  0
LINE
  8
0
  6
CENTER
 62
     7
 10
191.52499
 20
17.822556
 11
191.52499
 21
-2.3465576
  0
LINE
  8
0
  6
CONTINUOUS
 62
     7
 10
99.224983
 20
92.9319
 11
100.22498
 21
92.9319
  0
LINE
  8
0
  6
CONTINUOUS
 62
     7
 10
99.224983
 20
86.9319
 11
100.22498
 21
86.9319
  0
LINE
  8
0
  6
CONTINUOUS
 62
     7
 10
99.224983
 20
92.9319
 11
99.224983
 21
86.9319
  0
LINE
  8
0
  6
CONTINUOUS
 62
     7
 10
100.22498
 20
93.6819
 11
101.72498
 21
93.6819
  0
LINE
  8
0
  6
CONTINUOUS
 62
     7
 10
100.22498
 20
86.1819
 11
101.72498
 21
86.1819
  0
LINE
  8
0
  6
CONTINUOUS
 62
     7
 10
101.72498
 20
105.9319
 11
101.72498
 21
73.9319
  0
LINE
  8
0
  6
CONTINUOUS
 62
     7
 10
7.5000186
 20
4.1999922
 11
4.8000093
 21
6.9000015
  0
LINE
  8
0
  6
CONTINUOUS
 62
     7
 10
112.12499
 20
23.505493
 11
101.72498
 21
23.505493
  0
LINE
  8
0
  6
CONTINUOUS
 62
     7
 10
5.7542071
 20
9.7941685
 11
4.8000202
 21
8.8399811
  0
LINE
  8
0
  6
CONTINUOUS
 62
     7
 10
5.7559552
 20
14.594049
 11
5.3500075
 21
14.999996
  0
LINE
  8
0
  6
CONTINUOUS
 62
     7
 10
7.5000172
 20
11.539979
 11
7.0943289
 21
11.13429
  0
LINE
  8
0
  6
CONTINUOUS
 62
     7
 10
7.5
 20
12.849991
 11
7.5
 21
11.539993
  0
LINE
  8
0
  6
CONTINUOUS
 62
     7
 10
4.7999878
 20
8.8399963
 11
4.7999878
 21
6.8999939
  0
LINE
  8
0
  6
CONTINUOUS
 62
     7
 10
7.4999876
 20
0.99999505
 11
6.4999866
 21
-6.0059251E-006
  0
LINE
  8
0
  6
DASHED
 62
     7
 10
2.25
 20
9.6999998
 11
2.25
 21
0
  0
LINE
  8
0
  6
DASHED
 62
     7
 10
3.75
 20
15
 11
3.75
 21
9.6999998
  0
LINE
  8
0
  6
CONTINUOUS
 62
     7
 10
14.999996
 20
5.2055087
 11
14.494978
 21
4.7004905
  0
LINE
  8
0
  6
CONTINUOUS
 62
     7
 10
14.999996
 20
23.005489
 11
15.999997
 21
22.005487
  0
LINE
  8
0
  6
CONTINUOUS
 62
     7
 10
14.500007
 20
23.505478
 11
14.999996
 21
23.005489
  0
LINE
  8
0
  6
CONTINUOUS
 62
     7
 10
16
 20
22.005489
 11
16
 21
6.2054901
  0
LINE
  8
0
  6
CONTINUOUS
 62
     7
 10
158.825
 20
23.505493
 11
158.825
 21
4.7054901
  0
LINE
  8
0
  6
CONTINUOUS
 62
     7
 10
150.92499
 20
23.505493
 11
161.325
 21
23.505493
  0
LINE
  8
0
  6
CONTINUOUS
 62
     7
 10
104.22498
 20
23.505493
 11
104.22498
 21
4.7054901
  0
LINE
  8
0
  6
CONTINUOUS
 62
     7
 10
105.72498
 20
23.505493
 11
105.72498
 21
4.7054901
  0
LINE
  8
0
  6
CONTINUOUS
 62
     7
 10
11.600006
 20
5.2055054
 11
11.600006
 21
4.70049
  0
LINE
  8
0
  6
CONTINUOUS
 62
     7
 10
0
 20
23.505493
 11
14.5
 21
23.505493
  0
LINE
  8
0
  6
CONTINUOUS
 62
     7
 10
101.72498
 20
23.505493
 11
101.72498
 21
4.70049
  0
LINE
  8
0
  6
CONTINUOUS
 62
     7
 10
7.5000067
 20
12.849997
 11
7.0815649
 21
13.268439
  0
LINE
  8
0
  6
CONTINUOUS
 62
     7
 10
157.32498
 20
23.505493
 11
157.32498
 21
4.7054901
  0
LINE
  8
0
  6
CONTINUOUS
 62
     7
 10
161.325
 20
23.505493
 11
161.325
 21
4.70049
  0
LINE
  8
0
  6
DASHED
 62
     7
 10
-2.25
 20
9.6999998
 11
-2.25
 21
0
  0
LINE
  8
0
  6
DASHED
 62
     7
 10
-3.7500002
 20
15
 11
-3.7500002
 21
9.6999998
  0
LINE
  8
0
  6
CONTINUOUS
 62
     7
 10
-7.4999866
 20
4.1999812
 11
-4.7999883
 21
6.8999796
  0
LINE
  8
0
  6
CONTINUOUS
 62
     7
 10
-7.50001
 20
1.0000085
 11
-6.5000086
 21
7.481065E-006
  0
LINE
  8
0
  6
CONTINUOUS
 62
     7
 10
-5.349988
 20
14.999997
 11
-5.7559352
 21
14.594049
  0
LINE
  8
0
  6
CONTINUOUS
 62
     7
 10
-7.0943089
 20
11.134313
 11
-7.4999976
 21
11.540001
  0
LINE
  8
0
  6
CONTINUOUS
 62
     7
 10
-4.7999883
 20
8.8399916
 11
-5.7541766
 21
9.7941799
  0
LINE
  8
0
  6
CONTINUOUS
 62
     7
 10
-7.0815558
 20
13.268429
 11
-7.4999976
 21
12.849987
  0
LINE
  8
0
  6
CONTINUOUS
 62
     7
 10
-7.5
 20
12.849991
 11
-7.5
 21
11.539993
  0
LINE
  8
0
  6
CONTINUOUS
 62
     7
 10
-4.8000183
 20
8.8399963
 11
-4.8000183
 21
6.8999939
  0
LINE
  8
0
  6
CONTINUOUS
 62
     7
 10
-7.5
 20
4.1999969
 11
-7.5
 21
1
  0
LINE
  8
0
  6
CENTER
 62
     7
 10
0
 20
31.013363
 11
0
 21
-3
  0
LINE
  8
0
  6
CONTINUOUS
 62
     7
 10
6.4945207
 20
5.2054901
 11
15
 21
5.2054901
  0
LINE
  8
0
  6
CONTINUOUS
 62
     7
 10
16.000008
 20
6.2054772
 11
15.000007
 21
5.2054763
  0
LINE
  8
0
  6
CONTINUOUS
 62
     7
 10
-6.5
 20
0
 11
6.5
 21
0
  0
LINE
  8
0
  6
CONTINUOUS
 62
     7
 10
7.5
 20
4.1999969
 11
7.5
 21
0.99998474
  0
LINE
  8
0
  6
CONTINUOUS
 62
     7
 10
-5.3500061
 20
15
 11
5.3500061
 21
15
  0
LINE
  8
0
  6
CENTER
 62
     7
 10
-10.299988
 20
21.49999
 11
-14.700012
 21
21.49999
  0
LINE
  8
0
  6
CENTER
 62
     7
 10
-12.5
 20
23.699987
 11
-12.5
 21
18.818716
  0
LINE
  8
0
  6
CONTINUOUS
 62
     7
 10
6.7999992
 20
7.7334208
 11
9.3279362
 21
5.2054839
  0
LINE
  8
0
  6
CONTINUOUS
 62
     7
 10
6.7999878
 20
8.0165596
 11
6.7999878
 21
7.7334137
  0
LINE
  8
0
  6
CONTINUOUS
 62
     7
 10
6.8000102
 20
8.016551
 11
9.5000086
 21
10.716549
  0
LINE
  8
0
  6
CONTINUOUS
 62
     7
 10
9.5
 20
13.683414
 11
9.5
 21
10.716564
  0
LINE
  8
0
  6
CONTINUOUS
 62
     7
 10
6.178422
 20
17.004993
 11
9.4999981
 21
13.683417
  0
LINE
  8
0
  6
CONTINUOUS
 62
     7
 10
2.6070628
 20
17.00499
 11
6.1784363
 21
17.00499
  0
LINE
  8
0
  6
CONTINUOUS
 62
     7
 10
-2.6070628
 20
17.00499
 11
-6.1784363
 21
17.00499
  0
LINE
  8
0
  6
CONTINUOUS
 62
     7
 10
-6.1784234
 20
17.004995
 11
-9.5
 21
13.683418
  0
LINE
  8
0
  6
CONTINUOUS
 62
     7
 10
-9.5
 20
13.683414
 11
-9.5
 21
10.716564
  0
LINE
  8
0
  6
CONTINUOUS
 62
     7
 10
-6.8000116
 20
8.016552
 11
-9.5000105
 21
10.71655
  0
LINE
  8
0
  6
CONTINUOUS
 62
     7
 10
-6.7999878
 20
8.0165596
 11
-6.7999878
 21
7.7334137
  0
LINE
  8
0
  6
CONTINUOUS
 62
     7
 10
-6.8000011
 20
7.7334218
 11
-9.3279381
 21
5.2054849
  0
LINE
  8
0
  6
CONTINUOUS
 62
     7
 10
-6.4995117
 20
5.2054901
 11
-15
 21
5.2054901
  0
LINE
  8
0
  6
CONTINUOUS
 62
     7
 10
0
 20
23.505493
 11
-14.5
 21
23.505493
  0
LINE
  8
0
  6
CONTINUOUS
 62
     7
 10
-16
 20
22.005489
 11
-16
 21
6.2054901
  0
LINE
  8
0
  6
CONTINUOUS
 62
     7
 10
-14.500007
 20
23.505478
 11
-14.999996
 21
23.005487
  0
LINE
  8
0
  6
CONTINUOUS
 62
     7
 10
-14.999996
 20
23.005487
 11
-15.999998
 21
22.005487
  0
LINE
  8
0
  6
CONTINUOUS
 62
     7
 10
-16.000008
 20
6.2054758
 11
-15.000006
 21
5.2054749
  0
LINE
  8
0
  6
CONTINUOUS
 62
     7
 10
-11.600006
 20
5.2055054
 11
-11.600006
 21
4.70049
  0
LINE
  8
0
  6
CONTINUOUS
 62
     7
 10
-14.999995
 20
5.2055073
 11
-14.494978
 21
4.70049
  0
LINE
  8
0
  6
CENTER
 62
     7
 10
12.5
 20
23.699987
 11
12.5
 21
18.818716
  0
LINE
  8
0
  6
CENTER
 62
     7
 10
10.299988
 20
21.49999
 11
14.700012
 21
21.49999
  0
LINE
  8
0
  6
CENTER
 62
     7
 10
94.724983
 20
19.700499
 11
102.57323
 21
19.700499
  0
LINE
  8
0
  6
CONTINUOUS
 62
     7
 10
100.22498
 20
23.450499
 11
101.72498
 21
23.450499
  0
LINE
  8
0
  6
CONTINUOUS
 62
     7
 10
100.22498
 20
15.950498
 11
101.72498
 21
15.950498
  0
LINE
  8
0
  6
CONTINUOUS
 62
     7
 10
100.22498
 20
23.450499
 11
100.22498
 21
15.950498
  0
LINE
  8
0
  6
CONTINUOUS
 62
     7
 10
99.224983
 20
22.700499
 11
99.224983
 21
16.700499
  0
LINE
  8
0
  6
CONTINUOUS
 62
     7
 10
99.224983
 20
22.700499
 11
100.22498
 21
22.700499
  0
LINE
  8
0
  6
CONTINUOUS
 62
     7
 10
99.224983
 20
16.700499
 11
100.22498
 21
16.700499
  0
LINE
  8
0
  6
CONTINUOUS
 62
     7
 10
105.72498
 20
105.9319
 11
105.72498
 21
73.9319
  0
LINE
  8
0
  6
CONTINUOUS
 62
     7
 10
104.22498
 20
105.9319
 11
104.22498
 21
73.9319
  0
LINE
  8
0
  6
CONTINUOUS
 62
     7
 10
100.22499
 20
93.6819
 11
100.22499
 21
86.1819
  0
LINE
  8
0
  6
CONTINUOUS
 62
     7
 10
157.32498
 20
105.9319
 11
157.32498
 21
73.9319
  0
LINE
  8
0
  6
CONTINUOUS
 62
     7
 10
158.825
 20
105.9319
 11
158.825
 21
73.9319
  0
LINE
  8
0
  6
CONTINUOUS
 62
     7
 10
161.325
 20
105.9319
 11
161.325
 21
73.9319
  0
LINE
  8
0
  6
CONTINUOUS
 62
     7
 10
6.2999878
 20
8.2236671
 11
6.2999878
 21
7.5263062
  0
LINE
  8
0
  6
CONTINUOUS
 62
     7
 10
6.3000107
 20
8.2236576
 11
9.0000095
 21
10.923656
  0
LINE
  8
0
  6
CONTINUOUS
 62
     7
 10
1.962467
 20
16.50499
 11
5.9713135
 21
16.50499
  0
LINE
  8
0
  6
CONTINUOUS
 62
     7
 10
5.9713273
 20
16.504982
 11
9.0000095
 21
13.476301
  0
LINE
  8
0
  6
CONTINUOUS
 62
     7
 10
9
 20
13.476307
 11
9
 21
10.923664
  0
LINE
  8
0
  6
CONTINUOUS
 62
     7
 10
6.3000107
 20
7.5263042
 11
8.6208305
 21
5.2054844
  0
LINE
  8
0
  6
CENTER
 62
     7
 10
6.29
 20
19.700491
 11
-6.29
 21
19.700491
  0
LINE
  8
0
  6
CONTINUOUS
 62
     7
 10
-6.3000107
 20
7.5263042
 11
-8.6208305
 21
5.2054844
  0
LINE
  8
0
  6
CONTINUOUS
 62
     7
 10
-9
 20
13.476307
 11
-9
 21
10.923664
  0
LINE
  8
0
  6
CONTINUOUS
 62
     7
 10
-5.9713273
 20
16.504982
 11
-9.0000095
 21
13.476301
  0
LINE
  8
0
  6
CONTINUOUS
 62
     7
 10
-1.962467
 20
16.50499
 11
-5.9713135
 21
16.50499
  0
LINE
  8
0
  6
CONTINUOUS
 62
     7
 10
-6.3000107
 20
8.2236576
 11
-9.0000095
 21
10.923656
  0
LINE
  8
0
  6
CONTINUOUS
 62
     7
 10
-6.2999878
 20
8.2236671
 11
-6.2999878
 21
7.5263062
  0
LINE
  8
0
  6
CENTER
 62
     7
 10
118.52498
 20
80.4319
 11
118.52498
 21
73.4319
  0
LINE
  8
0
  6
CENTER
 62
     7
 10
122.02498
 20
102.9319
 11
115.02498
 21
102.9319
  0
LINE
  8
0
  6
CENTER
 62
     7
 10
118.52498
 20
106.4319
 11
118.52498
 21
99.4319
  0
LINE
  8
0
  6
CENTER
 62
     7
 10
144.52498
 20
106.4319
 11
144.52498
 21
99.4319
  0
LINE
  8
0
  6
CENTER
 62
     7
 10
148.02498
 20
102.9319
 11
141.02498
 21
102.9319
  0
LINE
  8
0
  6
CENTER
 62
     7
 10
122.02498
 20
76.9319
 11
115.02498
 21
76.9319
  0
LINE
  8
0
  6
CONTINUOUS
 62
     7
 10
112.12498
 20
106.9319
 11
112.12498
 21
72.9319
  0
LINE
  8
0
  6
CONTINUOUS
 62
     7
 10
150.92499
 20
106.9319
 11
150.92499
 21
72.9319
  0
LINE
  8
0
  6
CONTINUOUS
 62
     7
 10
112.12498
 20
94.94191
 11
150.92499
 21
94.94191
  0
LINE
  8
0
  6
CONTINUOUS
 62
     7
 10
112.12498
 20
72.9319
 11
150.92499
 21
72.9319
  0
LINE
  8
0
  6
CONTINUOUS
 62
     7
 10
112.12498
 20
84.94191
 11
150.92499
 21
84.94191
  0
LINE
  8
0
  6
CONTINUOUS
 62
     7
 10
112.12498
 20
106.9319
 11
150.92499
 21
106.9319
  0
LINE
  8
0
  6
CONTINUOUS
 62
     7
 10
-16.728607
 20
21.728483
 11
-16.728607
 21
5.9355011
  0
LINE
  8
0
  6
CONTINUOUS
 62
     7
 10
15.671391
 20
4.935492
 11
16.671392
 21
5.935493
  0
LINE
  8
0
  6
CONTINUOUS
 62
     7
 10
-16.728592
 20
5.9354711
 11
-15.728613
 21
4.9354916
  0
LINE
  8
0
  6
CONTINUOUS
 62
     7
 10
-5.3934836
 20
28.000364
 11
-5.028604
 21
27.635485
  0
LINE
  8
0
  6
CONTINUOUS
 62
     7
 10
4.9713845
 20
27.635506
 11
5.3362427
 21
28.000362
  0
LINE
  8
0
  6
CONTINUOUS
 62
     7
 10
-5.028595
 20
27.635494
 11
4.971405
 21
27.635494
  0
LINE
  8
0
  6
CONTINUOUS
 62
     7
 10
16.006525
 20
28.000362
 11
16.999981
 21
27.006908
  0
LINE
  8
0
  6
CONTINUOUS
 62
     7
 10
-16.063694
 20
28.000362
 11
-17.000019
 21
27.064037
  0
LINE
  8
0
  6
CONTINUOUS
 62
     7
 10
-17.000019
 20
21.999895
 11
-16.728607
 21
21.728483
  0
LINE
  8
0
  6
CONTINUOUS
 62
     7
 10
16.671373
 20
21.671511
 11
16.999981
 21
22.000118
  0
LINE
  8
0
  6
CONTINUOUS
 62
     7
 10
16.671387
 20
21.671524
 11
16.671387
 21
5.9355011
  0
LINE
  8
0
  6
CONTINUOUS
 62
     7
 10
14.730011
 20
4.9355011
 11
15.671387
 21
4.9355011
  0
LINE
  8
0
  6
CONTINUOUS
 62
     7
 10
-15.728607
 20
4.9355011
 11
-14.729989
 21
4.9355011
  0
LINE
  8
0
  6
DASHED
 62
     7
 10
-11.028595
 20
28.000364
 11
-11.028595
 21
23.000364
  0
LINE
  8
0
  6
DASHED
 62
     7
 10
-15.028595
 20
28.000364
 11
-15.028595
 21
23.000364
  0
LINE
  8
0
  6
DASHED
 62
     7
 10
-15.028595
 20
23.000364
 11
-11.028595
 21
23.000364
  0
LINE
  8
0
  6
DASHED
 62
     7
 10
-14.728607
 20
20.500364
 11
-11.328613
 21
20.500364
  0
LINE
  8
0
  6
DASHED
 62
     7
 10
-14.728607
 20
28.000364
 11
-14.728607
 21
20.500364
  0
LINE
  8
0
  6
DASHED
 62
     7
 10
-11.328613
 20
28.000364
 11
-11.328613
 21
20.500364
  0
LINE
  8
0
  6
DASHED
 62
     7
 10
-11.328639
 20
22.480772
 11
-11.028644
 21
23.00038
  0
LINE
  8
0
  6
DASHED
 62
     7
 10
-14.728607
 20
20.500362
 11
-13.028615
 21
19.518871
  0
LINE
  8
0
  6
DASHED
 62
     7
 10
-15.028606
 20
23.000376
 11
-14.728603
 21
22.480755
  0
LINE
  8
0
  6
DASHED
 62
     7
 10
-13.028601
 20
19.518869
 11
-11.328582
 21
20.500376
  0
LINE
  8
0
  6
CENTER
 62
     7
 10
-13.028625
 20
31.013363
 11
-13.028625
 21
18.814407
  0
LINE
  8
0
  6
CENTER
 62
     7
 10
12.971375
 20
31.013363
 11
12.971375
 21
18.814407
  0
LINE
  8
0
  6
DASHED
 62
     7
 10
116.525
 20
23.000378
 11
120.525
 21
23.000378
  0
LINE
  8
0
  6
DASHED
 62
     7
 10
120.225
 20
28.000378
 11
120.225
 21
20.500378
  0
LINE
  8
0
  6
DASHED
 62
     7
 10
116.525
 20
28.000378
 11
116.525
 21
23.000378
  0
LINE
  8
0
  6
DASHED
 62
     7
 10
116.825
 20
20.500378
 11
120.225
 21
20.500378
  0
LINE
  8
0
  6
CONTINUOUS
 62
     7
 10
112.12499
 20
27.235504
 11
112.12499
 21
4.70049
  0
LINE
  8
0
  6
CONTINUOUS
 62
     7
 10
112.12499
 20
4.9355164
 11
150.92499
 21
4.9355164
  0
LINE
  8
0
  6
CONTINUOUS
 62
     7
 10
150.92499
 20
27.235504
 11
150.92499
 21
4.70049
  0
LINE
  8
0
  6
DASHED
 62
     7
 10
120.225
 20
22.480766
 11
120.525
 21
23.000387
  0
LINE
  8
0
  6
CENTER
 62
     7
 10
144.52499
 20
29.995556
 11
144.52499
 21
17.730988
  0
LINE
  8
0
  6
DASHED
 62
     7
 10
116.52502
 20
23.000395
 11
116.82502
 21
22.480774
  0
LINE
  8
0
  6
CENTER
 62
     7
 10
118.525
 20
29.995556
 11
118.525
 21
18.528656
  0
LINE
  8
0
  6
CONTINUOUS
 62
     7
 10
150.16014
 20
28.000374
 11
150.925
 21
27.235512
  0
LINE
  8
0
  6
CONTINUOUS
 62
     7
 10
112.125
 20
27.235504
 11
112.88988
 21
28.00038
  0
LINE
  8
0
  6
DASHED
 62
     7
 10
118.52502
 20
19.518888
 11
120.22501
 21
20.50038
  0
LINE
  8
0
  6
DASHED
 62
     7
 10
116.825
 20
20.500378
 11
118.52497
 21
19.518902
  0
LINE
  8
0
  6
DASHED
 62
     7
 10
120.525
 20
28.000378
 11
120.525
 21
23.000378
  0
LINE
  8
0
  6
DASHED
 62
     7
 10
116.825
 20
28.000378
 11
116.825
 21
20.500378
  0
LINE
  8
0
  6
CONTINUOUS
 62
     7
 10
112.88988
 20
28.000378
 11
150.16014
 21
28.000378
  0
LINE
  8
0
  6
CENTER
 62
     7
 10
148.02498
 20
76.9319
 11
141.02498
 21
76.9319
  0
LINE
  8
0
  6
CENTER
 62
     7
 10
144.52498
 20
73.4319
 11
144.52498
 21
80.4319
  0
LINE
  8
0
  6
CONTINUOUS
 62
     7
 10
112.12499
 20
4.70049
 11
101.72498
 21
4.70049
  0
LINE
  8
0
  6
CONTINUOUS
 62
     7
 10
150.92499
 20
4.70049
 11
161.325
 21
4.70049
  0
LINE
  8
0
  6
CONTINUOUS
 62
     7
 10
5.3362432
 20
28.000364
 11
16.006525
 21
28.000364
  0
LINE
  8
0
  6
CONTINUOUS
 62
     7
 10
-16.063694
 20
28.000364
 11
-5.3934832
 21
28.000364
  0
LINE
  8
0
  6
CONTINUOUS
 62
     7
 10
14.494978
 20
4.70049
 11
11.600006
 21
4.70049
  0
LINE
  8
0
  6
CONTINUOUS
 62
     7
 10
-14.494978
 20
4.70049
 11
-11.600006
 21
4.70049
  0
LINE
  8
0
  6
CONTINUOUS
 62
     7
 10
112.12499
 20
22.000507
 11
150.92499
 21
22.000507
  0
LINE
  8
0
  6
CONTINUOUS
 62
     7
 10
-17.000019
 20
27.064037
 11
-17.000019
 21
21.999895
  0
LINE
  8
0
  6
CONTINUOUS
 62
     7
 10
16.999981
 20
27.006908
 11
16.999981
 21
22.000118
  0
LINE
  8
0
  6
CONTINUOUS
 62
     7
 10
112.12499
 20
21.671524
 11
150.92499
 21
21.671524
  0
LINE
  8
0
  6
DASHED
 62
     7
 10
-3.7500002
 20
9.6999998
 11
3.75
 21
9.6999998
  0
LINE
  8
0
  6
DASHED
 62
     7
 10
67.774994
 20
15
 11
67.774994
 21
9.6999998
  0
LINE
  8
0
  6
DASHED
 62
     7
 10
69.274994
 20
9.6999998
 11
69.274994
 21
0
  0
LINE
  8
0
  6
DASHED
 62
     7
 10
75.274994
 20
15
 11
75.274994
 21
9.6999998
  0
LINE
  8
0
  6
DASHED
 62
     7
 10
67.774994
 20
9.6999998
 11
75.274994
 21
9.6999998
  0
LINE
  8
0
  6
DASHED
 62
     7
 10
73.774994
 20
9.6999998
 11
73.774994
 21
0
  0
CIRCLE
  8
0
  6
CONTINUOUS
 62
     7
 10
71.524994
 20
89.9319
 40
3.75
  0
CIRCLE
  8
0
  6
CONTINUOUS
 62
     7
 10
71.524994
 20
89.9319
 40
2.25
  0
ARC
  8
0
  6
CONTINUOUS
 62
     7
 10
99.224983
 20
89.9319
 40
3
 50
89.999982
 51
269.99995
  0
CIRCLE
  8
0
  6
CONTINUOUS
 62
     7
 10
0
 20
19.700491
 40
3.75
  0
ARC
  8
0
  6
CONTINUOUS
 62
     7
 10
-7.3005066
 20
9.5879974
 40
1.5599999
 50
7.5950286
 51
82.404969
  0
ARC
  8
0
  6
CONTINUOUS
 62
     7
 10
-7.3005066
 20
14.813004
 40
1.5599999
 50
278.06778
 51
351.93223
  0
CIRCLE
  8
0
  6
CONTINUOUS
 62
     7
 10
0
 20
19.700491
 40
3
  0
ARC
  8
0
  6
CONTINUOUS
 62
     7
 10
7.3005066
 20
14.813004
 40
1.5599999
 50
188.06777
 51
261.93223
  0
ARC
  8
0
  6
CONTINUOUS
 62
     7
 10
7.3005066
 20
9.5879974
 40
1.5599999
 50
97.595029
 51
172.40497
  0
CIRCLE
  8
0
  6
CONTINUOUS
 62
     7
 10
12.5
 20
21.49999
 40
0.82499999
  0
ARC
  8
0
  6
CONTINUOUS
 62
     7
 10
99.224983
 20
19.700499
 40
3
 50
89.999982
 51
269.99995
  0
CIRCLE
  8
0
  6
CONTINUOUS
 62
     7
 10
118.52498
 20
76.9319
 40
2
  0
CIRCLE
  8
0
  6
CONTINUOUS
 62
     7
 10
118.52498
 20
76.9319
 40
1.7
  0
TEXT
  8
0
  6
CONTINUOUS
 62
     7
 10
-1.2855
 20
-21.8
 40
3.5999999
 41
1.0061957
  1
HSR15M1R
  0
ENDSEC
  0
EOF
