  0
SECTION
  2
HEADER
  0
ENDSEC
  0
SECTION
  2
TABLES
  0
TABLE
  2
LTYPE
 70
    22
  0
LTYPE
  2
CONTINUOUS
 70
    64
  3
Solid line
 72
    65
 73
     0
 40
0.000000
  0
LTYPE
  2
DASHED
 70
    64
  3
__ __ __ __ __ __ __ __ __ __ __ __ __ __ __
 72
    65
 73
     2
 40
3.500000
 49
2.000000
 49
-1.500000
  0
LTYPE
  2
CENTER
 70
    64
  3
____ _ ____ _ ____ _ ____ _ ____ _ ____ _ ____
 72
    65
 73
     4
 40
17.500000
 49
13.000000
 49
-1.500000
 49
1.500000
 49
-1.500000
  0
LTYPE
  2
PHANTOM
 70
    64
  3
_____ _ _ _____ _ _ _____ _ _ _____ _ _ ____  
 72
    65
 73
     6
 40
15.500000
 49
8.000000
 49
-1.500000
 49
1.500000
 49
-1.500000
 49
1.500000
 49
-1.500000
  0
LTYPE
  2
DOT
 70
    64
  3
. . . . . . . . . . . . . . . . . . . . . . . .
 72
    65
 73
     2
 40
0.25
 49
0.0
 49
-0.25
  0
ENDTAB
  0
TABLE
  2
LAYER
 70
     1
  0
LAYER
  2
0
 70
     0
 62
     7
  6
CONTINUOUS
  0
ENDTAB
  0
TABLE
  2
STYLE
 70
     1
  0
STYLE
  2
STANDARD
 70
     0
 40
0.000000
 41
1.000000
 50
0.000000
 71
     0
 42
0.200000
  3
txt
  0
ENDTAB
  0
TABLE
  2
VIEW
 70
     0
  0
ENDTAB
  0
ENDSEC
  0
SECTION
  2
BLOCKS
  0
ENDSEC
  0
SECTION
  2
ENTITIES
  0
LINE
  8
0
  6
CENTER
 62
     7
 10
137.52498
 20
23.699997
 11
143.52498
 21
23.699997
  0
LINE
  8
0
  6
CENTER
 62
     7
 10
4.75
 20
19.699997
 11
-4.75
 21
19.699997
  0
LINE
  8
0
  6
CENTER
 62
     7
 10
96.224976
 20
19.699997
 11
104.07323
 21
19.699997
  0
LINE
  8
0
  6
CONTINUOUS
 62
     7
 10
101.72498
 20
23.449997
 11
103.22498
 21
23.449997
  0
LINE
  8
0
  6
CONTINUOUS
 62
     7
 10
101.72498
 20
15.949997
 11
103.22498
 21
15.949997
  0
LINE
  8
0
  6
CONTINUOUS
 62
     7
 10
101.72498
 20
23.449997
 11
101.72498
 21
15.949997
  0
LINE
  8
0
  6
CONTINUOUS
 62
     7
 10
112.12498
 20
27.230011
 11
112.12498
 21
4.6999969
  0
LINE
  8
0
  6
CONTINUOUS
 62
     7
 10
112.12498
 20
4.9299927
 11
150.92499
 21
4.9299927
  0
LINE
  8
0
  6
CENTER
 62
     7
 10
140.52498
 20
15.199997
 11
140.52498
 21
9.1999969
  0
LINE
  8
0
  6
CONTINUOUS
 62
     7
 10
159.82498
 20
23.5
 11
159.82498
 21
4.6999969
  0
LINE
  8
0
  6
CONTINUOUS
 62
     7
 10
103.22498
 20
23.5
 11
103.22498
 21
4.6999969
  0
LINE
  8
0
  6
CONTINUOUS
 62
     7
 10
150.92499
 20
4.6999969
 11
159.82498
 21
4.6999969
  0
LINE
  8
0
  6
CONTINUOUS
 62
     7
 10
150.92499
 20
27.229996
 11
150.92499
 21
4.6999969
  0
LINE
  8
0
  6
CONTINUOUS
 62
     7
 10
150.92499
 20
23.5
 11
159.82498
 21
23.5
  0
LINE
  8
0
  6
CONTINUOUS
 62
     7
 10
100.72498
 20
22.699997
 11
100.72498
 21
16.699997
  0
LINE
  8
0
  6
DASHED
 62
     7
 10
16.5
 20
21.699997
 11
11.5
 21
21.699997
  0
LINE
  8
0
  6
DASHED
 62
     7
 10
9
 20
25.400009
 11
9
 21
22.000015
  0
LINE
  8
0
  6
DASHED
 62
     7
 10
11.5
 20
25.699997
 11
11.5
 21
21.699997
  0
LINE
  8
0
  6
CENTER
 62
     7
 10
19.303375
 20
23.699997
 11
5.6783142
 21
23.699997
  0
LINE
  8
0
  6
CONTINUOUS
 62
     7
 10
100.72498
 20
22.699997
 11
101.72498
 21
22.699997
  0
LINE
  8
0
  6
DASHED
 62
     7
 10
16.5
 20
25.699997
 11
11.5
 21
25.699997
  0
LINE
  8
0
  6
CENTER
 62
     7
 10
119.52498
 20
12.199997
 11
125.52498
 21
12.199997
  0
LINE
  8
0
  6
CENTER
 62
     7
 10
119.52498
 20
23.699997
 11
125.52498
 21
23.699997
  0
LINE
  8
0
  6
CENTER
 62
     7
 10
122.52498
 20
26.699997
 11
122.52498
 21
20.699997
  0
LINE
  8
0
  6
CONTINUOUS
 62
     7
 10
100.72498
 20
16.699997
 11
101.72498
 21
16.699997
  0
LINE
  8
0
  6
CENTER
 62
     7
 10
137.52498
 20
12.199997
 11
143.52498
 21
12.199997
  0
LINE
  8
0
  6
CONTINUOUS
 62
     7
 10
112.12498
 20
23.5
 11
103.22498
 21
23.5
  0
LINE
  8
0
  6
CONTINUOUS
 62
     7
 10
112.12498
 20
4.6999969
 11
103.22498
 21
4.6999969
  0
LINE
  8
0
  6
CENTER
 62
     7
 10
140.52498
 20
26.699997
 11
140.52498
 21
20.699997
  0
LINE
  8
0
  6
CENTER
 62
     7
 10
19.303375
 20
12.199997
 11
5.6783142
 21
12.199997
  0
LINE
  8
0
  6
CONTINUOUS
 62
     7
 10
51.524994
 20
0
 11
211.52498
 21
0
  0
LINE
  8
0
  6
CONTINUOUS
 62
     7
 10
51.524994
 20
0.69999695
 11
211.52498
 21
0.69999695
  0
LINE
  8
0
  6
CONTINUOUS
 62
     7
 10
51.524994
 20
15
 11
103.22498
 21
15
  0
LINE
  8
0
  6
CONTINUOUS
 62
     7
 10
51.524994
 20
12.849991
 11
103.22498
 21
12.849991
  0
LINE
  8
0
  6
CONTINUOUS
 62
     7
 10
51.524994
 20
11.539993
 11
103.22498
 21
11.539993
  0
LINE
  8
0
  6
CONTINUOUS
 62
     7
 10
51.524994
 20
6.8999939
 11
103.22498
 21
6.8999939
  0
LINE
  8
0
  6
CONTINUOUS
 62
     7
 10
51.524994
 20
8.8399963
 11
103.22498
 21
8.8399963
  0
LINE
  8
0
  6
CONTINUOUS
 62
     7
 10
51.524994
 20
4.1999969
 11
211.52498
 21
4.1999969
  0
LINE
  8
0
  6
CONTINUOUS
 62
     7
 10
51.524994
 20
15
 11
51.524994
 21
0
  0
LINE
  8
0
  6
CENTER
 62
     7
 10
71.524994
 20
17.822556
 11
71.524994
 21
-2.3465576
  0
LINE
  8
0
  6
CENTER
 62
     7
 10
131.52498
 20
9.9185944
 11
131.52498
 21
-2.4767609
  0
LINE
  8
0
  6
CONTINUOUS
 62
     7
 10
159.82498
 20
6.8999939
 11
211.52498
 21
6.8999939
  0
LINE
  8
0
  6
CONTINUOUS
 62
     7
 10
159.82498
 20
8.8399963
 11
211.52498
 21
8.8399963
  0
LINE
  8
0
  6
CONTINUOUS
 62
     7
 10
159.82498
 20
11.539993
 11
211.52498
 21
11.539993
  0
LINE
  8
0
  6
CONTINUOUS
 62
     7
 10
159.82498
 20
12.849991
 11
211.52498
 21
12.849991
  0
LINE
  8
0
  6
DASHED
 62
     7
 10
75.274994
 20
15
 11
75.274994
 21
9.6999969
  0
LINE
  8
0
  6
DASHED
 62
     7
 10
67.774994
 20
9.6999969
 11
75.274994
 21
9.6999969
  0
LINE
  8
0
  6
DASHED
 62
     7
 10
73.774994
 20
9.6999969
 11
73.774994
 21
0
  0
LINE
  8
0
  6
DASHED
 62
     7
 10
67.774994
 20
15
 11
67.774994
 21
9.6999969
  0
LINE
  8
0
  6
DASHED
 62
     7
 10
69.274994
 20
9.6999969
 11
69.274994
 21
0
  0
LINE
  8
0
  6
CONTINUOUS
 62
     7
 10
159.82498
 20
15
 11
211.52498
 21
15
  0
LINE
  8
0
  6
CONTINUOUS
 62
     7
 10
-4.9899888
 20
27.629992
 11
-5.3600068
 21
28.00001
  0
LINE
  8
0
  6
CONTINUOUS
 62
     7
 10
5.3800249
 20
27.999992
 11
5.0100174
 21
27.629986
  0
LINE
  8
0
  6
DASHED
 62
     7
 10
16.5
 20
22.000015
 11
9
 21
22.000015
  0
LINE
  8
0
  6
DASHED
 62
     7
 10
11.499998
 20
21.700014
 11
10.980378
 21
22.000017
  0
LINE
  8
0
  6
DASHED
 62
     7
 10
9.0000095
 20
25.399998
 11
8.0185184
 21
23.700005
  0
LINE
  8
0
  6
CENTER
 62
     7
 10
122.52498
 20
15.199997
 11
122.52498
 21
9.1999969
  0
LINE
  8
0
  6
DASHED
 62
     7
 10
8.9999771
 20
21.999987
 11
8.018486
 21
23.69998
  0
LINE
  8
0
  6
CONTINUOUS
 62
     7
 10
150.15498
 20
27.999996
 11
150.92499
 21
27.229998
  0
LINE
  8
0
  6
DASHED
 62
     7
 10
120.82497
 20
80.931923
 11
122.52496
 21
81.913414
  0
LINE
  8
0
  6
CONTINUOUS
 62
     7
 10
112.89497
 20
28.000002
 11
112.12498
 21
27.230019
  0
LINE
  8
0
  6
CONTINUOUS
 62
     7
 10
112.89497
 20
28
 11
150.15498
 21
28
  0
LINE
  8
0
  6
DASHED
 62
     7
 10
11.499992
 20
25.699986
 11
10.980372
 21
25.399982
  0
LINE
  8
0
  6
DASHED
 62
     7
 10
16.5
 20
25.400009
 11
9
 21
25.400009
  0
LINE
  8
0
  6
CONTINUOUS
 62
     7
 10
16.139923
 20
28
 11
5.3800049
 21
28
  0
LINE
  8
0
  6
CENTER
 62
     7
 10
140.52498
 20
70.628525
 11
140.52498
 21
84.253571
  0
LINE
  8
0
  6
CONTINUOUS
 62
     7
 10
-16.589998
 20
21.589989
 11
-17.000004
 21
21.999992
  0
LINE
  8
0
  6
DASHED
 62
     7
 10
124.22497
 20
80.9319
 11
122.52498
 21
81.913391
  0
LINE
  8
0
  6
CONTINUOUS
 62
     7
 10
112.12498
 20
4.9300079
 11
150.92499
 21
4.9300079
  0
LINE
  8
0
  6
CONTINUOUS
 62
     7
 10
15.395782
 20
4.9299774
 11
14.730011
 21
4.9299774
  0
LINE
  8
0
  6
CONTINUOUS
 62
     7
 10
-17
 20
27.11998
 11
-17
 21
22
  0
LINE
  8
0
  6
CONTINUOUS
 62
     7
 10
-16.589996
 20
21.589996
 11
-16.589996
 21
6.3441925
  0
LINE
  8
0
  6
CONTINUOUS
 62
     7
 10
5.0100098
 20
27.62999
 11
-4.9899902
 21
27.62999
  0
LINE
  8
0
  6
CONTINUOUS
 62
     7
 10
-16.119987
 20
28.000006
 11
-16.999998
 21
27.119995
  0
LINE
  8
0
  6
CONTINUOUS
 62
     7
 10
16.139927
 20
28.000002
 11
16.499998
 21
27.639933
  0
LINE
  8
0
  6
CONTINUOUS
 62
     7
 10
-5.3599854
 20
28
 11
-16.119995
 21
28
  0
LINE
  8
0
  6
CONTINUOUS
 62
     7
 10
16.500002
 20
5.6199737
 11
16.102875
 21
5.2228465
  0
LINE
  8
0
  6
CONTINUOUS
 62
     7
 10
-15.882896
 20
5.2228689
 11
-16.297108
 21
5.6370816
  0
LINE
  8
0
  6
CONTINUOUS
 62
     7
 10
-14.72998
 20
4.9299774
 11
-15.175781
 21
4.9299774
  0
LINE
  8
0
  6
DASHED
 62
     7
 10
-3.75
 20
15
 11
-3.75
 21
9.6500092
  0
LINE
  8
0
  6
DASHED
 62
     7
 10
3.75
 20
9.6500092
 11
-3.75
 21
9.6500092
  0
LINE
  8
0
  6
CONTINUOUS
 62
     7
 10
11.599976
 20
5.1999969
 11
11.599976
 21
4.6999969
  0
LINE
  8
0
  6
CONTINUOUS
 62
     7
 10
-11.600006
 20
5.1999969
 11
-11.600006
 21
4.6999969
  0
LINE
  8
0
  6
CONTINUOUS
 62
     7
 10
16
 20
22
 11
16
 21
6.1999969
  0
LINE
  8
0
  6
CONTINUOUS
 62
     7
 10
-14.500031
 20
4.6999969
 11
-11.600006
 21
4.6999969
  0
LINE
  8
0
  6
CONTINUOUS
 62
     7
 10
6.6999817
 20
8.188736
 11
6.6999817
 21
7.8112793
  0
LINE
  8
0
  6
CONTINUOUS
 62
     7
 10
-7.0815611
 20
13.26845
 11
-7.5000029
 21
12.850007
  0
LINE
  8
0
  6
CONTINUOUS
 62
     7
 10
-7.5000248
 20
11.54
 11
-7.094336
 21
11.134311
  0
LINE
  8
0
  6
CENTER
 62
     7
 10
0
 20
29.371506
 11
0
 21
-1.3004913
  0
LINE
  8
0
  6
CONTINUOUS
 62
     7
 10
7.5
 20
12.850006
 11
7.5
 21
11.540009
  0
LINE
  8
0
  6
CONTINUOUS
 62
     7
 10
-7.5
 20
4.1999969
 11
-7.5
 21
0.69999695
  0
LINE
  8
0
  6
CONTINUOUS
 62
     7
 10
7.4999695
 20
4.2000117
 11
4.7999816
 21
6.8999996
  0
LINE
  8
0
  6
CONTINUOUS
 62
     7
 10
5.7541699
 20
9.7941999
 11
4.7999816
 21
8.8400116
  0
LINE
  8
0
  6
CONTINUOUS
 62
     7
 10
5.3499866
 20
15.000001
 11
5.7559342
 21
14.594053
  0
LINE
  8
0
  6
CONTINUOUS
 62
     7
 10
4.7999878
 20
8.8400116
 11
4.7999878
 21
6.9000092
  0
LINE
  8
0
  6
CONTINUOUS
 62
     7
 10
-7.5000029
 20
4.1999903
 11
-4.7999935
 21
6.8999996
  0
LINE
  8
0
  6
CONTINUOUS
 62
     7
 10
7.4999857
 20
11.540015
 11
7.0942969
 21
11.134327
  0
LINE
  8
0
  6
CONTINUOUS
 62
     7
 10
7.0815439
 20
13.268444
 11
7.4999857
 21
12.850001
  0
LINE
  8
0
  6
CONTINUOUS
 62
     7
 10
7.5
 20
4.1999969
 11
7.5
 21
0.69999695
  0
LINE
  8
0
  6
CONTINUOUS
 62
     7
 10
-5.3500037
 20
15.000007
 11
-5.7559514
 21
14.594059
  0
LINE
  8
0
  6
CONTINUOUS
 62
     7
 10
-4.8000183
 20
8.8400116
 11
-4.8000183
 21
6.9000092
  0
LINE
  8
0
  6
CONTINUOUS
 62
     7
 10
7.4999971
 20
0.69998974
 11
6.7999897
 21
-1.7482513E-005
  0
LINE
  8
0
  6
CONTINUOUS
 62
     7
 10
-7.5000196
 20
0.69999409
 11
-6.800034
 21
8.4799449E-006
  0
LINE
  8
0
  6
DASHED
 62
     7
 10
-2.25
 20
9.6500092
 11
-2.25
 21
0
  0
LINE
  8
0
  6
DASHED
 62
     7
 10
3.75
 20
15
 11
3.75
 21
9.6500092
  0
LINE
  8
0
  6
CONTINUOUS
 62
     7
 10
-14.500016
 20
23.49999
 11
-16.000008
 21
21.999998
  0
LINE
  8
0
  6
CONTINUOUS
 62
     7
 10
-16.000008
 20
6.2000213
 11
-15.000007
 21
5.2000203
  0
LINE
  8
0
  6
CONTINUOUS
 62
     7
 10
-7.5
 20
12.850006
 11
-7.5
 21
11.540009
  0
LINE
  8
0
  6
CONTINUOUS
 62
     7
 10
14.499974
 20
23.499987
 11
15.999965
 21
21.999996
  0
LINE
  8
0
  6
CONTINUOUS
 62
     7
 10
-15
 20
5.1999969
 11
-6.5
 21
5.1999969
  0
LINE
  8
0
  6
CONTINUOUS
 62
     7
 10
-16
 20
22
 11
-16
 21
6.1999969
  0
LINE
  8
0
  6
CONTINUOUS
 62
     7
 10
-6.7000122
 20
8.188736
 11
-6.7000122
 21
7.8112793
  0
LINE
  8
0
  6
CONTINUOUS
 62
     7
 10
9.5
 20
13.53627
 11
9.5
 21
10.988739
  0
LINE
  8
0
  6
CONTINUOUS
 62
     7
 10
-9.5
 20
13.53627
 11
-9.5
 21
10.988739
  0
LINE
  8
0
  6
CENTER
 62
     7
 10
12.5
 20
22.923813
 11
12.5
 21
19.716309
  0
LINE
  8
0
  6
CENTER
 62
     7
 10
13.972748
 20
21.5
 11
10.816986
 21
21.5
  0
LINE
  8
0
  6
CONTINUOUS
 62
     7
 10
9.499999
 20
13.536274
 11
6.0362587
 21
17.000013
  0
LINE
  8
0
  6
CONTINUOUS
 62
     7
 10
-9.5000057
 20
13.536269
 11
-6.0362873
 21
16.999989
  0
LINE
  8
0
  6
CONTINUOUS
 62
     7
 10
6.0362549
 20
17
 11
2.6023865
 21
17
  0
LINE
  8
0
  6
CONTINUOUS
 62
     7
 10
6.7999878
 20
0
 11
-6.8000183
 21
0
  0
LINE
  8
0
  6
CONTINUOUS
 62
     7
 10
14.999984
 20
5.1999941
 11
14.499972
 21
4.6999831
  0
LINE
  8
0
  6
CONTINUOUS
 62
     7
 10
15
 20
5.1999969
 11
6.4999695
 21
5.1999969
  0
LINE
  8
0
  6
CONTINUOUS
 62
     7
 10
14.5
 20
23.5
 11
-14.5
 21
23.5
  0
LINE
  8
0
  6
CENTER
 62
     7
 10
-12.500031
 20
22.923813
 11
-12.500031
 21
19.716309
  0
LINE
  8
0
  6
CONTINUOUS
 62
     7
 10
15.999985
 20
6.1999955
 11
14.999984
 21
5.1999941
  0
LINE
  8
0
  6
DASHED
 62
     7
 10
2.25
 20
9.6500092
 11
2.25
 21
0
  0
LINE
  8
0
  6
CENTER
 62
     7
 10
-13.972778
 20
21.5
 11
-10.817017
 21
21.5
  0
LINE
  8
0
  6
CONTINUOUS
 62
     7
 10
-9.3112955
 20
5.1999917
 11
-6.7000194
 21
7.8112674
  0
LINE
  8
0
  6
CONTINUOUS
 62
     7
 10
14.5
 20
4.6999969
 11
11.599976
 21
4.6999969
  0
LINE
  8
0
  6
CONTINUOUS
 62
     7
 10
5.3499756
 20
15
 11
-5.3500061
 21
15
  0
LINE
  8
0
  6
CONTINUOUS
 62
     7
 10
-2.602417
 20
17
 11
-6.0362854
 21
17
  0
LINE
  8
0
  6
CONTINUOUS
 62
     7
 10
-9.5000267
 20
10.988738
 11
-6.7000194
 21
8.1887302
  0
LINE
  8
0
  6
CONTINUOUS
 62
     7
 10
9.3112402
 20
5.1999912
 11
6.6999645
 21
7.8112669
  0
LINE
  8
0
  6
CONTINUOUS
 62
     7
 10
-5.7542038
 20
9.794179
 11
-4.8000154
 21
8.8399906
  0
LINE
  8
0
  6
CONTINUOUS
 62
     7
 10
-15.000007
 20
5.2000203
 11
-14.499995
 21
4.7000089
  0
LINE
  8
0
  6
CONTINUOUS
 62
     7
 10
9.4999771
 20
10.988743
 11
6.6999645
 21
8.1887302
  0
LINE
  8
0
  6
CONTINUOUS
 62
     7
 10
100.72498
 20
86.9319
 11
101.72498
 21
86.9319
  0
LINE
  8
0
  6
CONTINUOUS
 62
     7
 10
100.72498
 20
92.9319
 11
101.72498
 21
92.9319
  0
LINE
  8
0
  6
CONTINUOUS
 62
     7
 10
112.12498
 20
94.92189
 11
150.92499
 21
94.92189
  0
LINE
  8
0
  6
CONTINUOUS
 62
     7
 10
112.12498
 20
106.9319
 11
150.92499
 21
106.9319
  0
LINE
  8
0
  6
CONTINUOUS
 62
     7
 10
112.12498
 20
84.92189
 11
150.92499
 21
84.92189
  0
LINE
  8
0
  6
CONTINUOUS
 62
     7
 10
16.5
 20
27.639938
 11
16.5
 21
5.6199799
  0
LINE
  8
0
  6
CONTINUOUS
 62
     7
 10
112.12498
 20
73.4319
 11
150.92499
 21
73.4319
  0
LINE
  8
0
  6
DASHED
 62
     7
 10
120.52498
 20
78.4319
 11
120.82498
 21
78.951523
  0
LINE
  8
0
  6
CONTINUOUS
 62
     7
 10
159.82498
 20
84.581909
 11
211.52498
 21
84.581909
  0
LINE
  8
0
  6
CONTINUOUS
 62
     7
 10
159.82498
 20
95.281906
 11
211.52498
 21
95.281906
  0
LINE
  8
0
  6
CONTINUOUS
 62
     7
 10
51.524994
 20
84.581909
 11
103.22498
 21
84.581909
  0
LINE
  8
0
  6
CONTINUOUS
 62
     7
 10
51.524994
 20
95.281906
 11
103.22498
 21
95.281906
  0
LINE
  8
0
  6
CONTINUOUS
 62
     7
 10
101.72498
 20
86.1819
 11
103.22498
 21
86.1819
  0
LINE
  8
0
  6
CONTINUOUS
 62
     7
 10
101.72498
 20
93.6819
 11
103.22498
 21
93.6819
  0
LINE
  8
0
  6
DASHED
 62
     7
 10
124.22499
 20
73.4319
 11
124.22499
 21
80.9319
  0
LINE
  8
0
  6
DASHED
 62
     7
 10
124.52497
 20
78.431908
 11
124.22497
 21
78.951523
  0
LINE
  8
0
  6
CONTINUOUS
 62
     7
 10
100.72498
 20
92.9319
 11
100.72498
 21
86.9319
  0
LINE
  8
0
  6
CONTINUOUS
 62
     7
 10
101.72498
 20
93.6819
 11
101.72498
 21
86.1819
  0
LINE
  8
0
  6
CONTINUOUS
 62
     7
 10
211.52498
 20
15
 11
211.52498
 21
0
  0
LINE
  8
0
  6
CONTINUOUS
 62
     7
 10
51.524994
 20
82.4319
 11
103.22498
 21
82.4319
  0
LINE
  8
0
  6
CONTINUOUS
 62
     7
 10
51.524994
 20
97.4319
 11
103.22498
 21
97.4319
  0
LINE
  8
0
  6
CONTINUOUS
 62
     7
 10
51.524994
 20
97.4319
 11
51.524994
 21
82.4319
  0
LINE
  8
0
  6
CONTINUOUS
 62
     7
 10
211.52498
 20
97.4319
 11
211.52498
 21
82.4319
  0
LINE
  8
0
  6
CENTER
 62
     7
 10
46.080292
 20
89.9319
 11
217.42342
 21
89.9319
  0
LINE
  8
0
  6
DASHED
 62
     7
 10
124.22499
 20
80.9319
 11
120.825
 21
80.9319
  0
LINE
  8
0
  6
CONTINUOUS
 62
     7
 10
150.92499
 20
106.9319
 11
150.92499
 21
73.4319
  0
LINE
  8
0
  6
CONTINUOUS
 62
     7
 10
112.12498
 20
106.9319
 11
112.12498
 21
73.4319
  0
LINE
  8
0
  6
CENTER
 62
     7
 10
191.52499
 20
17.822556
 11
191.52499
 21
-2.3465576
  0
LINE
  8
0
  6
CENTER
 62
     7
 10
122.52498
 20
70.628525
 11
122.52498
 21
84.253571
  0
LINE
  8
0
  6
DASHED
 62
     7
 10
120.52498
 20
73.4319
 11
120.52498
 21
78.4319
  0
LINE
  8
0
  6
DASHED
 62
     7
 10
124.52498
 20
78.4319
 11
120.52498
 21
78.4319
  0
LINE
  8
0
  6
DASHED
 62
     7
 10
120.825
 20
73.4319
 11
120.825
 21
80.9319
  0
LINE
  8
0
  6
CENTER
 62
     7
 10
191.52498
 20
94.6819
 11
191.52498
 21
85.1819
  0
LINE
  8
0
  6
DASHED
 62
     7
 10
124.52498
 20
73.4319
 11
124.52498
 21
78.4319
  0
LINE
  8
0
  6
CENTER
 62
     7
 10
131.52498
 20
94.6819
 11
131.52498
 21
85.1819
  0
LINE
  8
0
  6
CONTINUOUS
 62
     7
 10
103.22498
 20
105.9319
 11
103.22498
 21
73.9319
  0
LINE
  8
0
  6
CONTINUOUS
 62
     7
 10
159.82498
 20
105.9319
 11
159.82498
 21
73.9319
  0
LINE
  8
0
  6
CONTINUOUS
 62
     7
 10
103.22498
 20
105.9319
 11
112.12498
 21
105.9319
  0
LINE
  8
0
  6
CONTINUOUS
 62
     7
 10
103.22498
 20
73.9319
 11
112.12498
 21
73.9319
  0
LINE
  8
0
  6
CONTINUOUS
 62
     7
 10
150.92499
 20
105.9319
 11
159.82498
 21
105.9319
  0
LINE
  8
0
  6
CONTINUOUS
 62
     7
 10
150.92499
 20
73.9319
 11
159.82498
 21
73.9319
  0
LINE
  8
0
  6
CONTINUOUS
 62
     7
 10
159.82498
 20
97.4319
 11
211.52498
 21
97.4319
  0
LINE
  8
0
  6
CONTINUOUS
 62
     7
 10
159.82498
 20
82.4319
 11
211.52498
 21
82.4319
  0
LINE
  8
0
  6
CENTER
 62
     7
 10
71.524994
 20
94.6819
 11
71.524994
 21
85.1819
  0
CIRCLE
  8
0
  6
CONTINUOUS
 62
     7
 10
0
 20
19.699997
 40
3.75
  0
CIRCLE
  8
0
  6
CONTINUOUS
 62
     7
 10
0
 20
19.699997
 40
3
  0
ARC
  8
0
  6
CONTINUOUS
 62
     7
 10
100.72498
 20
19.699997
 40
3
 50
89.999982
 51
269.99995
  0
ARC
  8
0
  6
CONTINUOUS
 62
     7
 10
15.395782
 20
5.9299774
 40
1
 50
270
 51
315
  0
ARC
  8
0
  6
CONTINUOUS
 62
     7
 10
-15.589996
 20
6.3441925
 40
1
 50
179.99999
 51
225
  0
ARC
  8
0
  6
CONTINUOUS
 62
     7
 10
-15.175781
 20
5.9299774
 40
1
 50
225
 51
270
  0
ARC
  8
0
  6
CONTINUOUS
 62
     7
 10
7.3004761
 20
14.813004
 40
1.5599999
 50
188.06788
 51
261.93212
  0
CIRCLE
  8
0
  6
PHANTOM
 62
     7
 10
-12.5
 20
21.5
 40
0.82499999
  0
ARC
  8
0
  6
CONTINUOUS
 62
     7
 10
-7.3005066
 20
14.813004
 40
1.5599999
 50
278.06788
 51
351.93212
  0
ARC
  8
0
  6
CONTINUOUS
 62
     7
 10
7.3004761
 20
9.5879974
 40
1.5599999
 50
97.595029
 51
172.40497
  0
ARC
  8
0
  6
CONTINUOUS
 62
     7
 10
-7.3005066
 20
9.5879974
 40
1.5599999
 50
7.5950286
 51
82.404969
  0
CIRCLE
  8
0
  6
CONTINUOUS
 62
     7
 10
122.52498
 20
23.699997
 40
1.7
  0
CIRCLE
  8
0
  6
CONTINUOUS
 62
     7
 10
122.52498
 20
23.699997
 40
2
  0
ARC
  8
0
  6
CONTINUOUS
 62
     7
 10
100.72498
 20
89.9319
 40
3
 50
89.999982
 51
269.99995
  0
CIRCLE
  8
0
  6
CONTINUOUS
 62
     7
 10
71.524994
 20
89.9319
 40
2.25
  0
CIRCLE
  8
0
  6
CONTINUOUS
 62
     7
 10
71.524994
 20
89.9319
 40
3.75
  0
TEXT
  8
0
  6
CONTINUOUS
 62
     7
 10
-1.2855
 20
-11.8
 40
3.5999999
 41
0.84554262
  1
ＨＳＲ１５ＹＲＭ
  0
ENDSEC
  0
EOF
