  0
SECTION
  2
HEADER
  0
ENDSEC
  0
SECTION
  2
TABLES
  0
TABLE
  2
LTYPE
 70
    22
  0
LTYPE
  2
CONTINUOUS
 70
    64
  3
Solid line
 72
    65
 73
     0
 40
0.000000
  0
LTYPE
  2
DASHED
 70
    64
  3
__ __ __ __ __ __ __ __ __ __ __ __ __ __ __
 72
    65
 73
     2
 40
3.500000
 49
2.000000
 49
-1.500000
  0
LTYPE
  2
CENTER
 70
    64
  3
____ _ ____ _ ____ _ ____ _ ____ _ ____ _ ____
 72
    65
 73
     4
 40
17.500000
 49
13.000000
 49
-1.500000
 49
1.500000
 49
-1.500000
  0
LTYPE
  2
PHANTOM
 70
    64
  3
_____ _ _ _____ _ _ _____ _ _ _____ _ _ ____  
 72
    65
 73
     6
 40
15.500000
 49
8.000000
 49
-1.500000
 49
1.500000
 49
-1.500000
 49
1.500000
 49
-1.500000
  0
LTYPE
  2
DOT
 70
    64
  3
. . . . . . . . . . . . . . . . . . . . . . . .
 72
    65
 73
     2
 40
0.25
 49
0.0
 49
-0.25
  0
ENDTAB
  0
TABLE
  2
LAYER
 70
     1
  0
LAYER
  2
0
 70
     0
 62
     7
  6
CONTINUOUS
  0
ENDTAB
  0
TABLE
  2
STYLE
 70
     1
  0
STYLE
  2
STANDARD
 70
     0
 40
0.000000
 41
1.000000
 50
0.000000
 71
     0
 42
0.200000
  3
txt
  0
ENDTAB
  0
TABLE
  2
VIEW
 70
     0
  0
ENDTAB
  0
ENDSEC
  0
SECTION
  2
BLOCKS
  0
ENDSEC
  0
SECTION
  2
ENTITIES
  0
LINE
  8
0
  6
CONTINUOUS
 62
     7
 10
70
 20
18
 11
105.000244140625
 21
18
  0
LINE
  8
0
  6
CONTINUOUS
 62
     7
 10
70
 20
4
 11
230
 21
4
  0
LINE
  8
0
  6
CONTINUOUS
 62
     7
 10
70
 20
0
 11
230
 21
0
  0
LINE
  8
0
  6
CONTINUOUS
 62
     7
 10
195
 20
18
 11
230
 21
18
  0
LINE
  8
0
  6
CONTINUOUS
 62
     7
 10
116.60009765625
 20
30
 11
116.60009765625
 21
5.5
  0
LINE
  8
0
  6
CONTINUOUS
 62
     7
 10
183.400146484375
 20
30
 11
183.400146484375
 21
5.5
  0
LINE
  8
0
  6
CONTINUOUS
 62
     7
 10
126.6983795166016
 20
4.705992221832275
 11
126.7153396606445
 21
5.499914169311523
  0
LINE
  8
0
  6
CONTINUOUS
 62
     7
 10
123.2850875854492
 20
5.499939441680908
 11
123.3020477294922
 21
4.70601749420166
  0
LINE
  8
0
  6
CONTINUOUS
 62
     7
 10
108.000244140625
 20
29.199951171875
 11
108.000244140625
 21
5.499755859375
  0
LINE
  8
0
  6
CONTINUOUS
 62
     7
 10
107.000244140625
 20
29.619873046875
 11
107.000244140625
 21
5.499755859375
  0
LINE
  8
0
  6
CONTINUOUS
 62
     7
 10
105.000244140625
 20
18.39990234375
 11
105.000244140625
 21
5.499755859375
  0
LINE
  8
0
  6
CONTINUOUS
 62
     7
 10
105.0002288818359
 20
18.39971923828125
 11
107.0002212524414
 21
20.39971160888672
  0
LINE
  8
0
  6
CONTINUOUS
 62
     7
 10
105.000244140625
 20
5.499755859375
 11
195
 21
5.499755859375
  0
LINE
  8
0
  6
CENTER
 62
     7
 10
93.80029296875
 20
24.99949645996094
 11
109.72900390625
 21
24.99949645996094
  0
LINE
  8
0
  6
CONTINUOUS
 62
     7
 10
105.00048828125
 20
20.87962341308594
 11
105.00048828125
 21
29.11961364746094
  0
LINE
  8
0
  6
CONTINUOUS
 62
     7
 10
102.00048828125
 20
28.99949645996094
 11
105.00048828125
 21
28.99949645996094
  0
LINE
  8
0
  6
CONTINUOUS
 62
     7
 10
107.000244140625
 20
29.61961364746094
 11
105.500244140625
 21
29.61961364746094
  0
LINE
  8
0
  6
CONTINUOUS
 62
     7
 10
107.000244140625
 20
27.30955505371094
 11
105.00048828125
 21
27.30955505371094
  0
LINE
  8
0
  6
CONTINUOUS
 62
     7
 10
107.000244140625
 20
20.37962341308594
 11
105.500244140625
 21
20.37962341308594
  0
LINE
  8
0
  6
CONTINUOUS
 62
     7
 10
107.000244140625
 20
22.68968200683594
 11
105.00048828125
 21
22.68968200683594
  0
LINE
  8
0
  6
CONTINUOUS
 62
     7
 10
105.5002899169922
 20
20.37971878051758
 11
105.0003433227539
 21
20.87966537475586
  0
LINE
  8
0
  6
CONTINUOUS
 62
     7
 10
105.0003051757813
 20
29.11964416503906
 11
105.5002975463867
 21
29.6196346282959
  0
LINE
  8
0
  6
CONTINUOUS
 62
     7
 10
103.100341796875
 20
21.49949645996094
 11
97.900390625
 21
21.49949645996094
  0
LINE
  8
0
  6
CONTINUOUS
 62
     7
 10
103.100341796875
 20
21.45970153808594
 11
103.100341796875
 21
21.49949645996094
  0
LINE
  8
0
  6
CONTINUOUS
 62
     7
 10
104.6004104614258
 20
24.99973297119141
 11
103.1004180908203
 21
21.499755859375
  0
LINE
  8
0
  6
CONTINUOUS
 62
     7
 10
103.7005615234375
 20
24.99955368041992
 11
102.1005477905273
 21
21.49954414367676
  0
LINE
  8
0
  6
CONTINUOUS
 62
     7
 10
97.90034484863281
 20
21.49953079223633
 11
97.50032806396484
 21
22.07956123352051
  0
LINE
  8
0
  6
CONTINUOUS
 62
     7
 10
97.90004730224609
 20
28.49969291687012
 11
97.50003814697266
 21
27.91966247558594
  0
LINE
  8
0
  6
CONTINUOUS
 62
     7
 10
103.100341796875
 20
28.49949645996094
 11
97.900390625
 21
28.49949645996094
  0
LINE
  8
0
  6
CONTINUOUS
 62
     7
 10
103.700325012207
 20
24.9996509552002
 11
102.1003112792969
 21
28.49965858459473
  0
LINE
  8
0
  6
CONTINUOUS
 62
     7
 10
104.6001434326172
 20
24.99977874755859
 11
103.1001586914063
 21
28.49974632263184
  0
LINE
  8
0
  6
CONTINUOUS
 62
     7
 10
102.00048828125
 20
20.99949645996094
 11
105.00048828125
 21
20.99949645996094
  0
LINE
  8
0
  6
CONTINUOUS
 62
     7
 10
103.100341796875
 20
21.45970153808594
 11
103.100341796875
 21
21.49949645996094
  0
LINE
  8
0
  6
CONTINUOUS
 62
     7
 10
106.6186828613281
 20
22.81822395324707
 11
107.0002822875977
 21
22.78483772277832
  0
LINE
  8
0
  6
CONTINUOUS
 62
     7
 10
106.6184997558594
 20
27.18110466003418
 11
107.0003433227539
 21
27.21451187133789
  0
LINE
  8
0
  6
CONTINUOUS
 62
     7
 10
192
 20
5.499755859375
 11
192
 21
29.199951171875
  0
LINE
  8
0
  6
CONTINUOUS
 62
     7
 10
193
 20
5.499755859375
 11
193
 21
29.199951171875
  0
LINE
  8
0
  6
CONTINUOUS
 62
     7
 10
195
 20
5.499755859375
 11
195
 21
18.39990234375
  0
LINE
  8
0
  6
CONTINUOUS
 62
     7
 10
193.0001525878906
 20
20.39963531494141
 11
195.0001068115234
 21
18.39967727661133
  0
LINE
  8
0
  6
CONTINUOUS
 62
     7
 10
183.400146484375
 20
29.199951171875
 11
193
 21
29.199951171875
  0
LINE
  8
0
  6
CENTER
 62
     7
 10
190.271240234375
 20
24.99951171875
 11
195.24560546875
 21
24.99951171875
  0
LINE
  8
0
  6
CONTINUOUS
 62
     7
 10
107.000244140625
 20
29.199951171875
 11
116.60009765625
 21
29.199951171875
  0
LINE
  8
0
  6
CENTER
 62
     7
 10
125.0002746582031
 20
6.772369384765625
 11
125.0002746582031
 21
2.7462158203125
  0
LINE
  8
0
  6
CENTER
 62
     7
 10
175.0000457763672
 20
6.772293090820313
 11
175.0000457763672
 21
2.746139526367188
  0
LINE
  8
0
  6
CENTER
 62
     7
 10
210
 20
20
 11
210
 21
-2.228851318359375
  0
LINE
  8
0
  6
CONTINUOUS
 62
     7
 10
70
 20
18
 11
70
 21
0
  0
LINE
  8
0
  6
CONTINUOUS
 62
     7
 10
230
 20
18
 11
230
 21
0
  0
LINE
  8
0
  6
DASHED
 62
     7
 10
94.75
 20
18
 11
94.75
 21
9.5
  0
LINE
  8
0
  6
DASHED
 62
     7
 10
85.25
 20
9.5
 11
94.75
 21
9.5
  0
LINE
  8
0
  6
DASHED
 62
     7
 10
93
 20
9.5
 11
93
 21
0
  0
LINE
  8
0
  6
DASHED
 62
     7
 10
87
 20
9.5
 11
87
 21
0
  0
LINE
  8
0
  6
DASHED
 62
     7
 10
85.25
 20
18
 11
85.25
 21
9.5
  0
LINE
  8
0
  6
CENTER
 62
     7
 10
90
 20
20
 11
90
 21
-2.228851318359375
  0
LINE
  8
0
  6
CENTER
 62
     7
 10
150
 20
20
 11
150
 21
-2.228851318359375
  0
LINE
  8
0
  6
CONTINUOUS
 62
     7
 10
70
 20
15.159912109375
 11
105.000244140625
 21
15.159912109375
  0
LINE
  8
0
  6
CONTINUOUS
 62
     7
 10
70
 20
13.829833984375
 11
105.000244140625
 21
13.829833984375
  0
LINE
  8
0
  6
CONTINUOUS
 62
     7
 10
195
 20
15.159912109375
 11
230
 21
15.159912109375
  0
LINE
  8
0
  6
CONTINUOUS
 62
     7
 10
195
 20
13.829833984375
 11
230
 21
13.829833984375
  0
LINE
  8
0
  6
CENTER
 62
     7
 10
67
 20
88
 11
233
 21
88
  0
LINE
  8
0
  6
CONTINUOUS
 62
     7
 10
116.60009765625
 20
110
 11
116.60009765625
 21
66
  0
LINE
  8
0
  6
CONTINUOUS
 62
     7
 10
183.400146484375
 20
110
 11
183.400146484375
 21
66
  0
LINE
  8
0
  6
CONTINUOUS
 62
     7
 10
70
 20
98
 11
70
 21
78
  0
LINE
  8
0
  6
CONTINUOUS
 62
     7
 10
108.000244140625
 20
109
 11
108.000244140625
 21
67
  0
LINE
  8
0
  6
CONTINUOUS
 62
     7
 10
107.000244140625
 20
109
 11
107.000244140625
 21
67
  0
LINE
  8
0
  6
CONTINUOUS
 62
     7
 10
105.000244140625
 20
98.39990234375
 11
105.000244140625
 21
77.60009765625
  0
LINE
  8
0
  6
CONTINUOUS
 62
     7
 10
107.000244140625
 20
109
 11
116.60009765625
 21
109
  0
LINE
  8
0
  6
CONTINUOUS
 62
     7
 10
105.000244140625
 20
98.39990234375
 11
107.0002365112305
 21
100.3998947143555
  0
LINE
  8
0
  6
CONTINUOUS
 62
     7
 10
70
 20
98
 11
105.000244140625
 21
98
  0
LINE
  8
0
  6
CONTINUOUS
 62
     7
 10
70
 20
95.159912109375
 11
105.000244140625
 21
95.159912109375
  0
LINE
  8
0
  6
CONTINUOUS
 62
     7
 10
105.0002288818359
 20
77.60010528564453
 11
107.0002365112305
 21
75.60009765625
  0
LINE
  8
0
  6
CONTINUOUS
 62
     7
 10
107.000244140625
 20
67
 11
116.60009765625
 21
67
  0
LINE
  8
0
  6
CONTINUOUS
 62
     7
 10
70
 20
80.840087890625
 11
95.65086364746094
 21
80.840087890625
  0
LINE
  8
0
  6
CONTINUOUS
 62
     7
 10
70
 20
78
 11
96.63809204101563
 21
78
  0
LINE
  8
0
  6
CONTINUOUS
 62
     7
 10
230
 20
98
 11
230
 21
78
  0
LINE
  8
0
  6
CONTINUOUS
 62
     7
 10
230.000244140625
 20
78
 11
195
 21
78
  0
LINE
  8
0
  6
CONTINUOUS
 62
     7
 10
192
 20
109
 11
192
 21
67
  0
LINE
  8
0
  6
CONTINUOUS
 62
     7
 10
193
 20
109
 11
193
 21
67
  0
LINE
  8
0
  6
CONTINUOUS
 62
     7
 10
195
 20
98.39990234375
 11
195
 21
77.60009765625
  0
LINE
  8
0
  6
CONTINUOUS
 62
     7
 10
193
 20
109
 11
183.400146484375
 21
109
  0
LINE
  8
0
  6
CONTINUOUS
 62
     7
 10
195
 20
98.39990234375
 11
193
 21
100.39990234375
  0
LINE
  8
0
  6
CONTINUOUS
 62
     7
 10
230.000244140625
 20
98
 11
195
 21
98
  0
LINE
  8
0
  6
CONTINUOUS
 62
     7
 10
230.000244140625
 20
95.159912109375
 11
195
 21
95.159912109375
  0
LINE
  8
0
  6
CONTINUOUS
 62
     7
 10
195
 20
77.60009002685547
 11
193
 21
75.60009002685547
  0
LINE
  8
0
  6
CONTINUOUS
 62
     7
 10
193
 20
67
 11
183.400146484375
 21
67
  0
LINE
  8
0
  6
CONTINUOUS
 62
     7
 10
230.000244140625
 20
80.840087890625
 11
195
 21
80.840087890625
  0
LINE
  8
0
  6
CENTER
 62
     7
 10
210
 20
94
 11
210
 21
82
  0
LINE
  8
0
  6
CENTER
 62
     7
 10
90
 20
94
 11
90
 21
82
  0
LINE
  8
0
  6
CENTER
 62
     7
 10
150
 20
94
 11
150
 21
82
  0
LINE
  8
0
  6
CENTER
 62
     7
 10
190.271240234375
 20
99
 11
195.24560546875
 21
99
  0
LINE
  8
0
  6
CENTER
 62
     7
 10
190.271240234375
 20
77
 11
195.24560546875
 21
77
  0
LINE
  8
0
  6
CENTER
 62
     7
 10
109.728759765625
 20
99
 11
104.75439453125
 21
99
  0
LINE
  8
0
  6
CENTER
 62
     7
 10
109.728759765625
 20
77
 11
104.75439453125
 21
77
  0
LINE
  8
0
  6
CONTINUOUS
 62
     7
 10
105.0002593994141
 20
83.99998474121094
 11
105.0002593994141
 21
91.99998474121094
  0
LINE
  8
0
  6
CONTINUOUS
 62
     7
 10
101.7003479003906
 20
92
 11
105.0002593994141
 21
92
  0
LINE
  8
0
  6
CONTINUOUS
 62
     7
 10
103.3203735351563
 20
84
 11
105.0002593994141
 21
84
  0
LINE
  8
0
  6
CONTINUOUS
 62
     7
 10
97.70034790039063
 20
88
 11
97.70034790039063
 21
86.327880859375
  0
LINE
  8
0
  6
CONTINUOUS
 62
     7
 10
105.000244140625
 20
92
 11
107.000244140625
 21
92
  0
LINE
  8
0
  6
CONTINUOUS
 62
     7
 10
105.000244140625
 20
84
 11
107.000244140625
 21
84
  0
LINE
  8
0
  6
CONTINUOUS
 62
     7
 10
95.4830322265625
 20
78.47844696044922
 11
99.91765594482422
 21
76.64157104492188
  0
LINE
  8
0
  6
CONTINUOUS
 62
     7
 10
95.68479156494141
 20
81.31734466552734
 11
101.7823867797852
 21
78.79164123535156
  0
LINE
  8
0
  6
CONTINUOUS
 62
     7
 10
95.48302459716797
 20
78.47843933105469
 11
95.68478393554688
 21
81.31732940673828
  0
LINE
  8
0
  6
CONTINUOUS
 62
     7
 10
99.91765594482422
 20
76.64156341552734
 11
101.7824020385742
 21
78.79164123535156
  0
LINE
  8
0
  6
CONTINUOUS
 62
     7
 10
96.42350769042969
 20
85.03818511962891
 11
96.83817291259766
 21
86.03926086425781
  0
LINE
  8
0
  6
CONTINUOUS
 62
     7
 10
103.8911056518555
 20
81.94500732421875
 11
104.3057556152344
 21
82.94606781005859
  0
LINE
  8
0
  6
CONTINUOUS
 62
     7
 10
97.61760711669922
 20
86.36208343505859
 11
96.83816528320313
 21
86.03923034667969
  0
LINE
  8
0
  6
CONTINUOUS
 62
     7
 10
98.060791015625
 20
83.71059417724609
 11
98.93337249755859
 21
85.81716156005859
  0
LINE
  8
0
  6
CONTINUOUS
 62
     7
 10
101.794563293457
 20
82.16400146484375
 11
102.6671371459961
 21
84.27056884765625
  0
LINE
  8
0
  6
CONTINUOUS
 62
     7
 10
97.61762237548828
 20
86.36216735839844
 11
103.9829254150391
 21
83.72557067871094
  0
LINE
  8
0
  6
CONTINUOUS
 62
     7
 10
104.3057556152344
 20
82.94605255126953
 11
103.9828948974609
 21
83.72550201416016
  0
LINE
  8
0
  6
CONTINUOUS
 62
     7
 10
96.65328979492188
 20
84.29360198974609
 11
103.2020874023438
 21
81.58100128173828
  0
LINE
  8
0
  6
CONTINUOUS
 62
     7
 10
102.2333068847656
 20
80.840087890625
 11
105.000244140625
 21
80.840087890625
  0
LINE
  8
0
  6
CONTINUOUS
 62
     7
 10
101.0958251953125
 20
78
 11
105.000244140625
 21
78
  0
LINE
  8
0
  6
CONTINUOUS
 62
     7
 10
116.60009765625
 20
29.99977111816406
 11
183.400146484375
 21
29.99977111816406
  0
LINE
  8
0
  6
CONTINUOUS
 62
     7
 10
116.60009765625
 20
21.49977111816406
 11
183.400146484375
 21
21.49977111816406
  0
LINE
  8
0
  6
CENTER
 62
     7
 10
125.000244140625
 20
21.07791137695313
 11
125.000244140625
 21
31.5
  0
LINE
  8
0
  6
CENTER
 62
     7
 10
175
 20
21.07791137695313
 11
175
 21
31.5
  0
LINE
  8
0
  6
CONTINUOUS
 62
     7
 10
9
 20
0
 11
3
 21
0
  0
LINE
  8
0
  6
CONTINUOUS
 62
     7
 10
6.550048828125
 20
10.3798828125
 11
6.550048828125
 21
7.449951171875
  0
LINE
  8
0
  6
CONTINUOUS
 62
     7
 10
-6.5498046875
 20
10.3798828125
 11
-6.5498046875
 21
7.449951171875
  0
LINE
  8
0
  6
CONTINUOUS
 62
     7
 10
6.550413131713867
 20
7.449664115905762
 11
10.00032043457031
 21
3.999756813049316
  0
LINE
  8
0
  6
CONTINUOUS
 62
     7
 10
-9.999625205993652
 20
3.999702215194702
 11
-6.549631118774414
 21
7.449696063995361
  0
LINE
  8
0
  6
CONTINUOUS
 62
     7
 10
-9.999544143676758
 20
0.999715268611908
 11
-8.999477386474609
 21
-0.0003501136379782111
  0
LINE
  8
0
  6
CONTINUOUS
 62
     7
 10
10.00046539306641
 20
0.9996093511581421
 11
9.00046443939209
 21
-0.0003912493993993849
  0
LINE
  8
0
  6
CONTINUOUS
 62
     7
 10
-10
 20
3.999755859375
 11
-10
 21
1
  0
LINE
  8
0
  6
CONTINUOUS
 62
     7
 10
10
 20
3.999755859375
 11
10
 21
1
  0
LINE
  8
0
  6
CONTINUOUS
 62
     7
 10
-2.5
 20
0.5
 11
2.5
 21
0.5
  0
LINE
  8
0
  6
CONTINUOUS
 62
     7
 10
-2.999552726745606
 20
-0.0003884253674186766
 11
-2.499552249908447
 21
0.4996121227741242
  0
LINE
  8
0
  6
CONTINUOUS
 62
     7
 10
2.500323057174683
 20
0.4997206926345825
 11
3.000442266464233
 21
-0.0003985406074207276
  0
LINE
  8
0
  6
CONTINUOUS
 62
     7
 10
-2.999755859375
 20
0
 11
-8.999828338623047
 21
0
  0
LINE
  8
0
  6
CONTINUOUS
 62
     7
 10
-16
 20
5.699951171875
 11
-16
 21
5.5
  0
LINE
  8
0
  6
CONTINUOUS
 62
     7
 10
16
 20
5.5
 11
16
 21
5.699951171875
  0
LINE
  8
0
  6
CONTINUOUS
 62
     7
 10
21.00040435791016
 20
7.699630260467529
 11
19.00039672851563
 21
5.699632167816162
  0
LINE
  8
0
  6
CONTINUOUS
 62
     7
 10
8.300048828125
 20
5.699951171875
 11
19
 21
5.699951171875
  0
LINE
  8
0
  6
CONTINUOUS
 62
     7
 10
8.800048828125
 20
9.431396484375
 11
8.800048828125
 21
8.568359375
  0
LINE
  8
0
  6
CONTINUOUS
 62
     7
 10
8.800291061401367
 20
8.568145751953125
 11
11.66876888275147
 21
5.699667930603027
  0
LINE
  8
0
  6
CONTINUOUS
 62
     7
 10
-11.70142555236816
 20
4.706090450286865
 11
-11.66697692871094
 21
5.699703693389893
  0
LINE
  8
0
  6
CONTINUOUS
 62
     7
 10
-15.13190460205078
 20
5.699771404266357
 11
-15.09745502471924
 21
4.706158638000488
  0
LINE
  8
0
  6
CONTINUOUS
 62
     7
 10
-18.99958801269531
 20
5.699751377105713
 11
-20.99954986572266
 21
7.699706554412842
  0
LINE
  8
0
  6
CONTINUOUS
 62
     7
 10
-18.999755859375
 20
5.699951171875
 11
-8.2998046875
 21
5.699951171875
  0
LINE
  8
0
  6
CONTINUOUS
 62
     7
 10
-8.7998046875
 20
8.568359375
 11
-8.7998046875
 21
9.431396484375
  0
LINE
  8
0
  6
CONTINUOUS
 62
     7
 10
-11.66805267333984
 20
5.699742794036865
 11
-8.799681663513184
 21
8.568113327026367
  0
LINE
  8
0
  6
CENTER
 62
     7
 10
-13.39999389648438
 20
7.199951171875
 11
-13.39999389648438
 21
3.10009765625
  0
LINE
  8
0
  6
CENTER
 62
     7
 10
13.39999389648438
 20
7.199951171875
 11
13.39999389648438
 21
3.10009765625
  0
LINE
  8
0
  6
DASHED
 62
     7
 10
-4.75
 20
9.5
 11
4.75
 21
9.5
  0
LINE
  8
0
  6
DASHED
 62
     7
 10
3
 20
9.5
 11
3
 21
0
  0
LINE
  8
0
  6
DASHED
 62
     7
 10
-3
 20
9.5
 11
-3
 21
0
  0
LINE
  8
0
  6
CENTER
 62
     7
 10
0
 20
32
 11
0
 21
-2
  0
LINE
  8
0
  6
CONTINUOUS
 62
     7
 10
10
 20
15.159912109375
 11
10
 21
13.829833984375
  0
LINE
  8
0
  6
CONTINUOUS
 62
     7
 10
7.160425662994385
 20
17.99961090087891
 11
7.768268585205078
 21
17.39176750183106
  0
LINE
  8
0
  6
CONTINUOUS
 62
     7
 10
-10
 20
15.159912109375
 11
-10
 21
13.829833984375
  0
LINE
  8
0
  6
CONTINUOUS
 62
     7
 10
6.550435066223145
 20
10.37962150573731
 11
7.766476154327393
 21
11.5956621170044
  0
LINE
  8
0
  6
CONTINUOUS
 62
     7
 10
-7.159912109375
 20
18
 11
7.16015625
 21
18
  0
LINE
  8
0
  6
CONTINUOUS
 62
     7
 10
-9.99955940246582
 20
13.82960319519043
 11
-9.484075546264648
 21
13.31411933898926
  0
LINE
  8
0
  6
CONTINUOUS
 62
     7
 10
-9.999494552612305
 20
15.15954971313477
 11
-9.472066879272461
 21
15.68697738647461
  0
LINE
  8
0
  6
CONTINUOUS
 62
     7
 10
-7.76570463180542
 20
11.59574890136719
 11
-6.549674034118652
 21
10.37971782684326
  0
LINE
  8
0
  6
CONTINUOUS
 62
     7
 10
0.725341796875
 20
29.199951171875
 11
19.00010681152344
 21
29.199951171875
  0
LINE
  8
0
  6
CONTINUOUS
 62
     7
 10
-7.767429351806641
 20
17.39161491394043
 11
-7.15949010848999
 21
17.99955368041992
  0
LINE
  8
0
  6
CONTINUOUS
 62
     7
 10
9.472851753234863
 20
15.68718528747559
 11
10.00041961669922
 21
15.15961742401123
  0
LINE
  8
0
  6
CONTINUOUS
 62
     7
 10
9.484860420227051
 20
13.31404685974121
 11
10.00039768218994
 21
13.8295841217041
  0
LINE
  8
0
  6
CENTER
 62
     7
 10
-5
 20
25
 11
13.99684429168701
 21
25
  0
LINE
  8
0
  6
CONTINUOUS
 62
     7
 10
-0.0003245892003178597
 20
29.61893463134766
 11
1.937872529029846
 21
28.49991607666016
  0
LINE
  8
0
  6
DASHED
 62
     7
 10
-4.75
 20
18
 11
-4.75
 21
9.5
  0
LINE
  8
0
  6
DASHED
 62
     7
 10
4.75
 20
18
 11
4.75
 21
9.5
  0
LINE
  8
0
  6
CENTER
 62
     7
 10
11
 20
27.999755859375
 11
11
 21
21.999755859375
  0
LINE
  8
0
  6
CENTER
 62
     7
 10
-14
 20
24.999755859375
 11
-8
 21
24.999755859375
  0
LINE
  8
0
  6
CONTINUOUS
 62
     7
 10
-8.1533203125
 20
20.39990234375
 11
8.153564453125
 21
20.39990234375
  0
LINE
  8
0
  6
CONTINUOUS
 62
     7
 10
8.153823852539063
 20
20.39958381652832
 11
12.40043544769287
 21
16.1529712677002
  0
LINE
  8
0
  6
CONTINUOUS
 62
     7
 10
-19.00010681152344
 20
29.199951171875
 11
-0.72509765625
 21
29.199951171875
  0
LINE
  8
0
  6
CONTINUOUS
 62
     7
 10
-4
 20
27.309814453125
 11
-4
 21
22.6904296875
  0
LINE
  8
0
  6
CONTINUOUS
 62
     7
 10
-3.999319076538086
 20
27.3100757598877
 11
0.0001284245372517034
 21
29.61915588378906
  0
LINE
  8
0
  6
CONTINUOUS
 62
     7
 10
21
 20
27.199951171875
 11
21
 21
7.699951171875
  0
LINE
  8
0
  6
CONTINUOUS
 62
     7
 10
19.00031280517578
 20
29.19973373413086
 11
21.00027275085449
 21
27.19977569580078
  0
LINE
  8
0
  6
CONTINUOUS
 62
     7
 10
-3.999916553497315
 20
22.69046020507813
 11
0.0005882532568648458
 21
20.38076972961426
  0
LINE
  8
0
  6
CONTINUOUS
 62
     7
 10
12.400146484375
 20
16.1533203125
 11
12.400146484375
 21
13.031494140625
  0
LINE
  8
0
  6
CONTINUOUS
 62
     7
 10
8.800345420837402
 20
9.431324005126953
 11
12.40031623840332
 21
13.03129482269287
  0
LINE
  8
0
  6
CONTINUOUS
 62
     7
 10
-21
 20
7.699951171875
 11
-21
 21
27.20005798339844
  0
LINE
  8
0
  6
CONTINUOUS
 62
     7
 10
-12.39990234375
 20
13.031494140625
 11
-12.39990234375
 21
16.1533203125
  0
LINE
  8
0
  6
CONTINUOUS
 62
     7
 10
-12.39959621429443
 20
13.03125953674316
 11
-8.799693107604981
 21
9.431356430053711
  0
LINE
  8
0
  6
CONTINUOUS
 62
     7
 10
-19.00031280517578
 20
29.19973373413086
 11
-21.00027275085449
 21
27.19977569580078
  0
LINE
  8
0
  6
CENTER
 62
     7
 10
-11
 20
21.999755859375
 11
-11
 21
27.999755859375
  0
LINE
  8
0
  6
CONTINUOUS
 62
     7
 10
-12.39963912963867
 20
16.153076171875
 11
-8.153006553649902
 21
20.39970970153809
  0
LINE
  8
0
  6
CONTINUOUS
 62
     7
 10
0.0008005396812222898
 20
20.38085174560547
 11
1.94818902015686
 21
21.50005531311035
  0
LINE
  8
0
  6
CONTINUOUS
 62
     7
 10
7.766775608062744
 20
21.75388908386231
 11
10.52087783813477
 21
22.49958419799805
  0
LINE
  8
0
  6
CONTINUOUS
 62
     7
 10
5.950326919555664
 20
21.96972274780273
 11
5.860320568084717
 21
21.49974822998047
  0
LINE
  8
0
  6
CONTINUOUS
 62
     7
 10
3.440544128417969
 20
24.99983978271484
 11
4.09054708480835
 21
21.4998722076416
  0
LINE
  8
0
  6
CONTINUOUS
 62
     7
 10
1.130316376686096
 20
24.99949836730957
 11
1.780349254608154
 21
21.49928855895996
  0
LINE
  8
0
  6
CONTINUOUS
 62
     7
 10
1.780029296875
 20
21.499755859375
 11
5.860107421875
 21
21.499755859375
  0
LINE
  8
0
  6
CONTINUOUS
 62
     7
 10
7.7501540184021
 20
28.24981689453125
 11
10.52028369903565
 21
27.49978446960449
  0
LINE
  8
0
  6
CONTINUOUS
 62
     7
 10
5.950588703155518
 20
28.01962089538574
 11
5.860594749450684
 21
28.49953842163086
  0
LINE
  8
0
  6
CONTINUOUS
 62
     7
 10
3.440577507019043
 20
24.99968338012695
 11
4.090580463409424
 21
28.4996509552002
  0
LINE
  8
0
  6
CONTINUOUS
 62
     7
 10
1.130185842514038
 20
24.99978256225586
 11
1.780174136161804
 21
28.49975204467773
  0
LINE
  8
0
  6
CONTINUOUS
 62
     7
 10
1.780029296875
 20
28.499755859375
 11
5.860107421875
 21
28.499755859375
  0
LINE
  8
0
  6
CONTINUOUS
 62
     7
 10
-22
 20
28.999755859375
 11
-22
 21
22
  0
LINE
  8
0
  6
CONTINUOUS
 62
     7
 10
-21.699951171875
 20
21.7001953125
 11
-21.699951171875
 21
6.502659797668457
  0
LINE
  8
0
  6
CONTINUOUS
 62
     7
 10
-21.69784736633301
 20
21.7007942199707
 11
-21.99788475036621
 21
22.00083160400391
  0
LINE
  8
0
  6
CONTINUOUS
 62
     7
 10
-20.99739265441895
 20
29.9993782043457
 11
-21.9974536895752
 21
28.99930953979492
  0
LINE
  8
0
  6
CONTINUOUS
 62
     7
 10
-21
 20
30
 11
-7.499755859375
 21
30
  0
LINE
  8
0
  6
DASHED
 62
     7
 10
-18.14990234375
 20
30
 11
-18.14990234375
 21
23
  0
LINE
  8
0
  6
DASHED
 62
     7
 10
-18.5
 20
30
 11
-18.5
 21
24
  0
LINE
  8
0
  6
DASHED
 62
     7
 10
-18.5
 20
24
 11
-13.5
 21
24
  0
LINE
  8
0
  6
DASHED
 62
     7
 10
-18.14859962463379
 20
23
 11
-13.84767627716065
 21
23
  0
LINE
  8
0
  6
DASHED
 62
     7
 10
-18.14990234375
 20
23.00075149536133
 11
-15.9986629486084
 21
21.75873184204102
  0
LINE
  8
0
  6
DASHED
 62
     7
 10
-13.849853515625
 20
22.99874305725098
 11
-15.99795532226563
 21
21.75853538513184
  0
LINE
  8
0
  6
CENTER
 62
     7
 10
-16
 20
31.5
 11
-16
 21
21.078125
  0
LINE
  8
0
  6
DASHED
 62
     7
 10
-13.5
 20
30
 11
-13.5
 21
24
  0
LINE
  8
0
  6
DASHED
 62
     7
 10
-13.849853515625
 20
30
 11
-13.849853515625
 21
22.99874305725098
  0
LINE
  8
0
  6
DASHED
 62
     7
 10
-13.4991569519043
 20
23.99959945678711
 11
-13.84912109375
 21
23.39341735839844
  0
LINE
  8
0
  6
DASHED
 62
     7
 10
-18.49797058105469
 20
23.99998474121094
 11
-18.14799499511719
 21
23.3938102722168
  0
LINE
  8
0
  6
CONTINUOUS
 62
     7
 10
-21.69782447814941
 20
6.500533580780029
 11
-20.6977596282959
 21
5.500468254089356
  0
LINE
  8
0
  6
CONTINUOUS
 62
     7
 10
-20.699951171875
 20
5.5
 11
-16
 21
5.5
  0
LINE
  8
0
  6
CONTINUOUS
 62
     7
 10
16
 20
5.5
 11
20.7001953125
 21
5.5
  0
LINE
  8
0
  6
CONTINUOUS
 62
     7
 10
21.70187187194824
 20
6.500650882720947
 11
20.70180702209473
 21
5.500585556030273
  0
LINE
  8
0
  6
CONTINUOUS
 62
     7
 10
21.7001953125
 20
21.7001953125
 11
21.7001953125
 21
6.5
  0
LINE
  8
0
  6
CONTINUOUS
 62
     7
 10
22
 20
28.999755859375
 11
22
 21
22
  0
LINE
  8
0
  6
CONTINUOUS
 62
     7
 10
21.70185279846191
 20
21.70075798034668
 11
22.00189018249512
 21
22.00079536437988
  0
LINE
  8
0
  6
CONTINUOUS
 62
     7
 10
21.00126647949219
 20
29.99956130981445
 11
22.00132942199707
 21
28.99949073791504
  0
LINE
  8
0
  6
CONTINUOUS
 62
     7
 10
7.5
 20
30
 11
21
 21
30
  0
LINE
  8
0
  6
CONTINUOUS
 62
     7
 10
-7
 20
29.5
 11
-0.20654296875
 21
29.5
  0
LINE
  8
0
  6
CONTINUOUS
 62
     7
 10
-6.998115062713623
 20
29.50063133239746
 11
-7.498061180114746
 21
30.00057792663574
  0
LINE
  8
0
  6
CONTINUOUS
 62
     7
 10
0.205810546875
 20
29.5
 11
7
 21
29.5
  0
LINE
  8
0
  6
CONTINUOUS
 62
     7
 10
7.002082824707031
 20
29.50054740905762
 11
7.502029418945313
 21
30.00049591064453
  0
LINE
  8
0
  6
CENTER
 62
     7
 10
16
 20
31.5
 11
16
 21
21.078125
  0
LINE
  8
0
  6
CONTINUOUS
 62
     7
 10
116.60009765625
 20
95
 11
183.400146484375
 21
95
  0
LINE
  8
0
  6
CONTINUOUS
 62
     7
 10
116.60009765625
 20
110
 11
183.400146484375
 21
110
  0
LINE
  8
0
  6
CONTINUOUS
 62
     7
 10
116.60009765625
 20
81
 11
183.400146484375
 21
81
  0
LINE
  8
0
  6
CONTINUOUS
 62
     7
 10
116.60009765625
 20
66
 11
183.400146484375
 21
66
  0
LINE
  8
0
  6
CENTER
 62
     7
 10
128.500244140625
 20
72
 11
121.500244140625
 21
72
  0
LINE
  8
0
  6
CENTER
 62
     7
 10
125.000244140625
 20
75.5
 11
125.000244140625
 21
68.5
  0
LINE
  8
0
  6
CENTER
 62
     7
 10
128.500244140625
 20
104
 11
121.500244140625
 21
104
  0
LINE
  8
0
  6
CENTER
 62
     7
 10
125.000244140625
 20
100.5
 11
125.000244140625
 21
107.5
  0
LINE
  8
0
  6
CENTER
 62
     7
 10
171.499755859375
 20
104
 11
178.499755859375
 21
104
  0
LINE
  8
0
  6
CENTER
 62
     7
 10
174.999755859375
 20
100.5
 11
174.999755859375
 21
107.5
  0
LINE
  8
0
  6
CENTER
 62
     7
 10
174.999755859375
 20
75.5
 11
174.999755859375
 21
68.5
  0
LINE
  8
0
  6
CENTER
 62
     7
 10
171.499755859375
 20
72
 11
178.499755859375
 21
72
  0
LINE
  8
0
  6
CONTINUOUS
 62
     7
 10
70
 20
11.5956621170044
 11
105.000244140625
 21
11.5956621170044
  0
LINE
  8
0
  6
CONTINUOUS
 62
     7
 10
195
 20
11.5956621170044
 11
230
 21
11.5956621170044
  0
LINE
  8
0
  6
CENTER
 62
     7
 10
96.89221954345703
 20
75.60862731933594
 11
102.0249633789063
 21
88
  0
ARC
  8
0
  6
CONTINUOUS
 62
     7
 10
125
 20
8.499771118164063
 40
4.499999999999997
 50
253.6123724312345
 51
286.3877181824575
  0
ARC
  8
0
  6
CONTINUOUS
 62
     7
 10
123.89990234375
 20
4.758316040039063
 40
0.5999999642372131
 50
185.0000076521949
 51
253.6124270727472
  0
ARC
  8
0
  6
CONTINUOUS
 62
     7
 10
126.100341796875
 20
4.758316040039063
 40
0.5999999642372117
 50
286.3876635409438
 51
355.0000009992271
  0
ARC
  8
0
  6
CONTINUOUS
 62
     7
 10
102.00048828125
 20
25
 40
3.999999999999998
 50
89.99998201391055
 51
118.4958044387706
  0
ARC
  8
0
  6
CONTINUOUS
 62
     7
 10
102.00048828125
 20
25
 40
3.982465744018556
 50
241.5040862782025
 51
269.9999087030625
  0
ARC
  8
0
  6
CONTINUOUS
 62
     7
 10
111.700439453125
 20
24.999755859375
 40
6.000000000000003
 50
164.5573980880427
 51
195.4430217412202
  0
ARC
  8
0
  6
CONTINUOUS
 62
     7
 10
106.688232421875
 20
26.384521484375
 40
0.7999999523162835
 50
94.99902478819979
 51
164.5576166540961
  0
ARC
  8
0
  6
CONTINUOUS
 62
     7
 10
106.688232421875
 20
23.615234375
 40
0.799999952316291
 50
195.4435308176843
 51
265.0003741551529
  0
CIRCLE
  8
0
  6
CONTINUOUS
 62
     7
 10
210
 20
88
 40
4.75
  0
CIRCLE
  8
0
  6
CONTINUOUS
 62
     7
 10
210
 20
88
 40
3
  0
CIRCLE
  8
0
  6
CONTINUOUS
 62
     7
 10
90
 20
88
 40
4.75
  0
CIRCLE
  8
0
  6
CONTINUOUS
 62
     7
 10
90
 20
88
 40
3
  0
ARC
  8
0
  6
CONTINUOUS
 62
     7
 10
98.73359680175781
 20
80.05447387695313
 40
3.299999237060547
 50
131.5803705110074
 51
157.4999548639652
  0
ARC
  8
0
  6
CONTINUOUS
 62
     7
 10
98.73359680175781
 20
80.05447387695313
 40
3.29999923706055
 50
337.5000181569006
 51
3.419602296415172
  0
ARC
  8
0
  6
CONTINUOUS
 62
     7
 10
90.81724548339844
 20
82.90057373046875
 40
5.999999999999996
 50
2.433650829345525
 51
20.87173987704918
  0
ARC
  8
0
  6
CONTINUOUS
 62
     7
 10
106.3437805175781
 20
76.46926879882813
 40
6.000000000000004
 50
114.1278165022774
 51
132.5663219780771
  0
ARC
  8
0
  6
CONTINUOUS
 62
     7
 10
96.01254272460938
 20
83.12136840820313
 40
0.7999999523162822
 50
311.5798327472963
 51
2.433049772698627
  0
ARC
  8
0
  6
CONTINUOUS
 62
     7
 10
102.8262786865234
 20
80.29902648925781
 40
0.7999999523162843
 50
132.566977676238
 51
183.4201402735703
  0
ARC
  8
0
  6
CONTINUOUS
 62
     7
 10
101.7003479003906
 20
88
 40
3.999999999999998
 50
89.99998201391055
 51
180.0000186693347
  0
ARC
  8
0
  6
CONTINUOUS
 62
     7
 10
-13.39999389648438
 20
8.5
 40
4.5
 50
253.6123724312344
 51
286.3877181824576
  0
ARC
  8
0
  6
CONTINUOUS
 62
     7
 10
-14.50009155273438
 20
4.758544921875
 40
0.5999999642372131
 50
185.0000076521949
 51
253.6124270727479
  0
ARC
  8
0
  6
CONTINUOUS
 62
     7
 10
-12.29965209960938
 20
4.758544921875
 40
0.5999999642372133
 50
286.3876635409443
 51
355.0000009992271
  0
ARC
  8
0
  6
CONTINUOUS
 62
     7
 10
-9.80126953125
 20
17.720947265625
 40
2.059999465942382
 50
279.1880430991038
 51
350.8119987926476
  0
ARC
  8
0
  6
CONTINUOUS
 62
     7
 10
9.801513671875
 20
11.27880859375
 40
2.059999465942382
 50
98.85327321608121
 51
171.1466728256508
  0
ARC
  8
0
  6
CONTINUOUS
 62
     7
 10
-9.80126953125
 20
11.27880859375
 40
2.059999465942383
 50
8.853274126697615
 51
81.14669081174013
  0
ARC
  8
0
  6
CONTINUOUS
 62
     7
 10
9.801513671875
 20
17.720947265625
 40
2.059999465942383
 50
189.1880064436799
 51
260.8120475145882
  0
ARC
  8
0
  6
CONTINUOUS
 62
     7
 10
0
 20
24.999755859375
 40
3.998106002807619
 50
61.09402038976974
 51
298.9059076658729
  0
ARC
  8
0
  6
CONTINUOUS
 62
     7
 10
7.610107421875
 20
27.289794921875
 40
0.9701611399650563
 50
81.7028867762326
 51
144.668542923126
  0
ARC
  8
0
  6
CONTINUOUS
 62
     7
 10
0
 20
24.999755859375
 40
4
 50
240.0000239814524
 51
241.0449882829511
  0
ARC
  8
0
  6
CONTINUOUS
 62
     7
 10
6.6201171875
 20
20.919921875
 40
1.246148109436035
 50
80.76452806729958
 51
142.1250351177266
  0
ARC
  8
0
  6
CONTINUOUS
 62
     7
 10
7.610107421875
 20
22.7099609375
 40
0.9683421850204466
 50
215.3314570768741
 51
278.2972225067941
  0
ARC
  8
0
  6
CONTINUOUS
 62
     7
 10
-9.80126953125
 20
11.27880859375
 40
2.059999465942383
 50
359.9999826971572
 51
0.3487052762346356
  0
ARC
  8
0
  6
CONTINUOUS
 62
     7
 10
11
 20
24.999755859375
 40
2.250000000000002
 50
268.3411016404767
 51
91.65939013314355
  0
CIRCLE
  8
0
  6
CONTINUOUS
 62
     7
 10
-11
 20
24.999755859375
 40
2.25
  0
ARC
  8
0
  6
CONTINUOUS
 62
     7
 10
6.6201171875
 20
29.079833984375
 40
1.254199028015136
 50
217.8749648822735
 51
279.2353626496737
  0
CIRCLE
  8
0
  6
CONTINUOUS
 62
     7
 10
125.000244140625
 20
72
 40
2.14990234375
  0
CIRCLE
  8
0
  6
CONTINUOUS
 62
     7
 10
125.000244140625
 20
72
 40
2.5
  0
POLYLINE
  8
0
  6
CONTINUOUS
 62
     7
 66
     1
 10
0
 20
0
  0
VERTEX
  8
0
  6
CONTINUOUS
 62
     7
 10
97.70082318917856
 20
27.49999962888407
 42
0.1103650095806045
  0
VERTEX
  8
0
  6
CONTINUOUS
 62
     7
 10
96.78866311443672
 20
27.2949693869273
 42
0.1024789600563182
  0
VERTEX
  8
0
  6
CONTINUOUS
 62
     7
 10
96.04128535679575
 20
26.73101197285829
 42
0.09326814393432609
  0
VERTEX
  8
0
  6
CONTINUOUS
 62
     7
 10
95.56353922122661
 20
25.92419799661215
 42
0.08779770752214908
  0
VERTEX
  8
0
  6
CONTINUOUS
 62
     7
 10
95.40043454538728
 20
25.00030061731621
 42
0.08778026578667134
  0
VERTEX
  8
0
  6
CONTINUOUS
 62
     7
 10
95.56289354333651
 20
24.07663281041236
 42
0.09328141683410512
  0
VERTEX
  8
0
  6
CONTINUOUS
 62
     7
 10
96.04000330362628
 20
23.26971530956053
 42
0.1026565764389801
  0
VERTEX
  8
0
  6
CONTINUOUS
 62
     7
 10
96.78813092604393
 20
22.70488182024227
 42
0.1104388347670451
  0
VERTEX
  8
0
  6
CONTINUOUS
 62
     7
 10
97.70069681834684
 20
22.50000049213408
 42
0.1103618586211025
  0
VERTEX
  8
0
  6
CONTINUOUS
 62
     7
 10
98.61279696710726
 20
22.70530361751431
 42
0.102472335814293
  0
VERTEX
  8
0
  6
CONTINUOUS
 62
     7
 10
99.36001865869021
 20
23.26946955154244
 42
0.0932628368823028
  0
VERTEX
  8
0
  6
CONTINUOUS
 62
     7
 10
99.83756066309307
 20
24.07640563226617
 42
0.08779207073290053
  0
VERTEX
  8
0
  6
CONTINUOUS
 62
     7
 10
100.0004444722046
 20
25.00030216722754
 42
0.08778216447498746
  0
VERTEX
  8
0
  6
CONTINUOUS
 62
     7
 10
99.83777811043716
 20
25.92393407248891
 42
0.09328653280464978
  0
VERTEX
  8
0
  6
CONTINUOUS
 62
     7
 10
99.36047582593014
 20
26.73073784103322
 42
0.1026628815581605
  0
VERTEX
  8
0
  6
CONTINUOUS
 62
     7
 10
98.61220057439796
 20
27.29537507118396
 42
0.1104319467562736
  0
VERTEX
  8
0
  6
CONTINUOUS
 62
     7
 10
97.69966059687825
 20
27.49999926616537
 42
0
  0
SEQEND
  8
0
  0
POLYLINE
  8
0
  6
CONTINUOUS
 62
     7
 66
     1
 10
0
 20
0
  0
VERTEX
  8
0
  6
CONTINUOUS
 62
     7
 10
96.57646869652648
 20
22.81888789175594
 42
0.07630190708959818
  0
VERTEX
  8
0
  6
CONTINUOUS
 62
     7
 10
97.27268982813007
 20
22.20305345788776
 42
0.08143622803171807
  0
VERTEX
  8
0
  6
CONTINUOUS
 62
     7
 10
98.12520789918933
 20
21.83341826083161
 42
0.0841527351762983
  0
VERTEX
  8
0
  6
CONTINUOUS
 62
     7
 10
99.05019596185713
 20
21.76127539946253
 42
0.08297894318149196
  0
VERTEX
  8
0
  6
CONTINUOUS
 62
     7
 10
99.94675608811855
 20
21.99657229390004
 42
0.07874694083723188
  0
VERTEX
  8
0
  6
CONTINUOUS
 62
     7
 10
100.7233921574108
 20
22.50536250390945
 42
0.07339791825887229
  0
VERTEX
  8
0
  6
CONTINUOUS
 62
     7
 10
101.3127066749818
 20
23.22353124511751
 42
0.06904850005308948
  0
VERTEX
  8
0
  6
CONTINUOUS
 62
     7
 10
101.6774956542267
 20
24.07877888602607
 42
0.06663764420400768
  0
VERTEX
  8
0
  6
CONTINUOUS
 62
     7
 10
101.800537109375
 20
25
 42
0.06668426207809972
  0
VERTEX
  8
0
  6
CONTINUOUS
 62
     7
 10
101.6773259006385
 20
25.92184306039911
 42
0.06900222368845461
  0
VERTEX
  8
0
  6
CONTINUOUS
 62
     7
 10
101.3127029384574
 20
26.77647495616916
 42
0.07342842442303788
  0
VERTEX
  8
0
  6
CONTINUOUS
 62
     7
 10
100.7231082643494
 20
27.49489427725981
 42
0.0788388903389267
  0
VERTEX
  8
0
  6
CONTINUOUS
 62
     7
 10
99.94546976888989
 20
28.00400346082576
 42
0.08315207019103334
  0
VERTEX
  8
0
  6
CONTINUOUS
 62
     7
 10
99.04695283435665
 20
28.23901608215666
 42
0.0841126907460906
  0
VERTEX
  8
0
  6
CONTINUOUS
 62
     7
 10
98.12244360344445
 20
28.1658883635805
 42
0.08133241929130289
  0
VERTEX
  8
0
  6
CONTINUOUS
 62
     7
 10
97.27118381205737
 20
27.79598040646748
 42
0.07622880143537372
  0
VERTEX
  8
0
  6
CONTINUOUS
 62
     7
 10
96.57582984924649
 20
27.18034734075437
 42
0
  0
SEQEND
  8
0
  0
POLYLINE
  8
0
  6
CONTINUOUS
 62
     7
 66
     1
 10
0
 20
0
  0
VERTEX
  8
0
  6
CONTINUOUS
 62
     7
 10
7.75
 20
28.24975395202637
 42
0.188653879077587
  0
VERTEX
  8
0
  6
CONTINUOUS
 62
     7
 10
7.335175390286182
 20
28.06557224224116
 42
0.07588972356922946
  0
VERTEX
  8
0
  6
CONTINUOUS
 62
     7
 10
7.053714365917503
 20
27.69885682043819
 42
0.03946222109016827
  0
VERTEX
  8
0
  6
CONTINUOUS
 62
     7
 10
6.858295407475517
 20
27.27733332403972
 42
0.02589539331202534
  0
VERTEX
  8
0
  6
CONTINUOUS
 62
     7
 10
6.71812965265258
 20
26.83407637756526
 42
0.01963290689452269
  0
VERTEX
  8
0
  6
CONTINUOUS
 62
     7
 10
6.618197587512095
 20
26.37927827364985
 42
0.01635593363660339
  0
VERTEX
  8
0
  6
CONTINUOUS
 62
     7
 10
6.550968866635267
 20
25.91833995778438
 42
0.01463209101589745
  0
VERTEX
  8
0
  6
CONTINUOUS
 62
     7
 10
6.512274108170516
 20
25.45406629269596
 42
0.0138837505171675
  0
VERTEX
  8
0
  6
CONTINUOUS
 62
     7
 10
6.500008646533127
 20
24.98835371640857
 42
0.01386094835505463
  0
VERTEX
  8
0
  6
CONTINUOUS
 62
     7
 10
6.513465480102913
 20
24.52401973007272
 42
0.01467184224713936
  0
VERTEX
  8
0
  6
CONTINUOUS
 62
     7
 10
6.553361348981017
 20
24.06031860204681
 42
0.0165063076357382
  0
VERTEX
  8
0
  6
CONTINUOUS
 62
     7
 10
6.622158521134042
 20
23.59847568111078
 42
0.01985511850623389
  0
VERTEX
  8
0
  6
CONTINUOUS
 62
     7
 10
6.723849102198176
 20
23.14387276684302
 42
0.026391242657857
  0
VERTEX
  8
0
  6
CONTINUOUS
 62
     7
 10
6.866594799244363
 20
22.70041906273344
 42
0.04065092082719515
  0
VERTEX
  8
0
  6
CONTINUOUS
 62
     7
 10
7.066024058445705
 20
22.27946130475417
 42
0.07989316283475619
  0
VERTEX
  8
0
  6
CONTINUOUS
 62
     7
 10
7.355351921681699
 20
21.91598595491222
 42
0.1977479474316519
  0
VERTEX
  8
0
  6
CONTINUOUS
 62
     7
 10
7.777835862301849
 20
21.75056369601612
 42
0
  0
SEQEND
  8
0
  0
POLYLINE
  8
0
  6
CONTINUOUS
 62
     7
 66
     1
 10
0
 20
0
 70
     1
  0
VERTEX
  8
0
  6
CONTINUOUS
 62
     7
 10
10.52001953125
 20
27.499755859375
 42
0.2551593881785776
  0
VERTEX
  8
0
  6
CONTINUOUS
 62
     7
 10
9.990209813806334
 20
27.07486778808099
 42
0.06319140867237323
  0
VERTEX
  8
0
  6
CONTINUOUS
 62
     7
 10
9.736114987413737
 20
26.41198115231343
 42
0.03518639123877099
  0
VERTEX
  8
0
  6
CONTINUOUS
 62
     7
 10
9.609385579031445
 20
25.71193144229168
 42
0.02798531179730644
  0
VERTEX
  8
0
  6
CONTINUOUS
 62
     7
 10
9.570023536682131
 20
24.999755859375
 42
0.02789941699417897
  0
VERTEX
  8
0
  6
CONTINUOUS
 62
     7
 10
9.609156900927276
 20
24.28960838509159
 42
0.0351601721127326
  0
VERTEX
  8
0
  6
CONTINUOUS
 62
     7
 10
9.735650462153698
 20
23.5893179122792
 42
0.06315573297802309
  0
VERTEX
  8
0
  6
CONTINUOUS
 62
     7
 10
9.989682114029796
 20
22.92557764860351
 42
0.2552846668092579
  0
VERTEX
  8
0
  6
CONTINUOUS
 62
     7
 10
10.52001953125
 20
22.499755859375
 42
0.25515938817852
  0
VERTEX
  8
0
  6
CONTINUOUS
 62
     7
 10
11.04982924869367
 20
22.92464393066901
 42
0.06319140867236821
  0
VERTEX
  8
0
  6
CONTINUOUS
 62
     7
 10
11.30392407508626
 20
23.58753056643658
 42
0.03518639123876276
  0
VERTEX
  8
0
  6
CONTINUOUS
 62
     7
 10
11.43065348346856
 20
24.28758027645832
 42
0.02798531179730977
  0
VERTEX
  8
0
  6
CONTINUOUS
 62
     7
 10
11.47001552581787
 20
24.999755859375
 42
0.02789941699418513
  0
VERTEX
  8
0
  6
CONTINUOUS
 62
     7
 10
11.43088216157272
 20
25.70990333365841
 42
0.03516017211274189
  0
VERTEX
  8
0
  6
CONTINUOUS
 62
     7
 10
11.3043886003463
 20
26.4101938064708
 42
0.06315573297804027
  0
VERTEX
  8
0
  6
CONTINUOUS
 62
     7
 10
11.0503569484702
 20
27.0739340701465
 42
0.255284666809156
  0
SEQEND
  8
0
  0
TEXT
  8
0
  6
CONTINUOUS
 62
     7
 10
-1.284999847412109
 20
-11.79999971389771
 40
3.59999942779541
 41
1.007083337638114
  1
HSR20LR
  0
ENDSEC
  0
EOF
