  0
SECTION
  2
HEADER
  0
ENDSEC
  0
SECTION
  2
TABLES
  0
TABLE
  2
LTYPE
 70
    22
  0
LTYPE
  2
CONTINUOUS
 70
    64
  3
Solid line
 72
    65
 73
     0
 40
0.000000
  0
LTYPE
  2
DASHED
 70
    64
  3
__ __ __ __ __ __ __ __ __ __ __ __ __ __ __
 72
    65
 73
     2
 40
3.500000
 49
2.000000
 49
-1.500000
  0
LTYPE
  2
CENTER
 70
    64
  3
____ _ ____ _ ____ _ ____ _ ____ _ ____ _ ____
 72
    65
 73
     4
 40
17.500000
 49
13.000000
 49
-1.500000
 49
1.500000
 49
-1.500000
  0
LTYPE
  2
PHANTOM
 70
    64
  3
_____ _ _ _____ _ _ _____ _ _ _____ _ _ ____  
 72
    65
 73
     6
 40
15.500000
 49
8.000000
 49
-1.500000
 49
1.500000
 49
-1.500000
 49
1.500000
 49
-1.500000
  0
LTYPE
  2
DOT
 70
    64
  3
. . . . . . . . . . . . . . . . . . . . . . . .
 72
    65
 73
     2
 40
0.25
 49
0.0
 49
-0.25
  0
ENDTAB
  0
TABLE
  2
LAYER
 70
     1
  0
LAYER
  2
0
 70
     0
 62
     7
  6
CONTINUOUS
  0
ENDTAB
  0
TABLE
  2
STYLE
 70
     1
  0
STYLE
  2
STANDARD
 70
     0
 40
0.000000
 41
1.000000
 50
0.000000
 71
     0
 42
0.200000
  3
txt
  0
ENDTAB
  0
TABLE
  2
VIEW
 70
     0
  0
ENDTAB
  0
ENDSEC
  0
SECTION
  2
BLOCKS
  0
ENDSEC
  0
SECTION
  2
ENTITIES
  0
LINE
  8
0
  6
CONTINUOUS
 62
     7
 10
70
 20
18
 11
113.000244140625
 21
18
  0
LINE
  8
0
  6
CONTINUOUS
 62
     7
 10
70
 20
4
 11
230
 21
4
  0
LINE
  8
0
  6
CONTINUOUS
 62
     7
 10
70
 20
0
 11
230
 21
0
  0
LINE
  8
0
  6
CONTINUOUS
 62
     7
 10
187
 20
18
 11
230
 21
18
  0
LINE
  8
0
  6
CENTER
 62
     7
 10
210
 20
20
 11
210
 21
-2.228851318359375
  0
LINE
  8
0
  6
CONTINUOUS
 62
     7
 10
70
 20
18
 11
70
 21
0
  0
LINE
  8
0
  6
CONTINUOUS
 62
     7
 10
230
 20
18
 11
230
 21
0
  0
LINE
  8
0
  6
DASHED
 62
     7
 10
94.75
 20
18
 11
94.75
 21
9.5
  0
LINE
  8
0
  6
DASHED
 62
     7
 10
85.25
 20
9.5
 11
94.75
 21
9.5
  0
LINE
  8
0
  6
DASHED
 62
     7
 10
93
 20
9.5
 11
93
 21
0
  0
LINE
  8
0
  6
DASHED
 62
     7
 10
87
 20
9.5
 11
87
 21
0
  0
LINE
  8
0
  6
DASHED
 62
     7
 10
85.25
 20
18
 11
85.25
 21
9.5
  0
LINE
  8
0
  6
CENTER
 62
     7
 10
90
 20
20
 11
90
 21
-2.228851318359375
  0
LINE
  8
0
  6
CONTINUOUS
 62
     7
 10
70
 20
15.159912109375
 11
113.000244140625
 21
15.159912109375
  0
LINE
  8
0
  6
CONTINUOUS
 62
     7
 10
70
 20
13.829833984375
 11
113.000244140625
 21
13.829833984375
  0
LINE
  8
0
  6
CONTINUOUS
 62
     7
 10
187
 20
15.159912109375
 11
230
 21
15.159912109375
  0
LINE
  8
0
  6
CONTINUOUS
 62
     7
 10
187
 20
13.829833984375
 11
230
 21
13.829833984375
  0
LINE
  8
0
  6
CENTER
 62
     7
 10
67
 20
88
 11
233
 21
88
  0
LINE
  8
0
  6
CONTINUOUS
 62
     7
 10
124.60009765625
 20
109.5
 11
124.60009765625
 21
66
  0
LINE
  8
0
  6
CONTINUOUS
 62
     7
 10
175.400146484375
 20
109.5
 11
175.400146484375
 21
66
  0
LINE
  8
0
  6
CONTINUOUS
 62
     7
 10
70
 20
98
 11
70
 21
78
  0
LINE
  8
0
  6
CONTINUOUS
 62
     7
 10
116.000244140625
 20
109
 11
116.000244140625
 21
67
  0
LINE
  8
0
  6
CONTINUOUS
 62
     7
 10
115.000244140625
 20
109
 11
115.000244140625
 21
67
  0
LINE
  8
0
  6
CONTINUOUS
 62
     7
 10
113.000244140625
 20
98.39990234375
 11
113.000244140625
 21
77.60009765625
  0
LINE
  8
0
  6
CONTINUOUS
 62
     7
 10
115.000244140625
 20
109
 11
124.60009765625
 21
109
  0
LINE
  8
0
  6
CONTINUOUS
 62
     7
 10
113.0002517700195
 20
98.39990234375
 11
115.0002365112305
 21
100.3998947143555
  0
LINE
  8
0
  6
CONTINUOUS
 62
     7
 10
70
 20
98
 11
104.6380920410156
 21
98
  0
LINE
  8
0
  6
CONTINUOUS
 62
     7
 10
70
 20
95.159912109375
 11
103.6508712768555
 21
95.159912109375
  0
LINE
  8
0
  6
CONTINUOUS
 62
     7
 10
113.000244140625
 20
77.60010528564453
 11
115.000244140625
 21
75.60009765625
  0
LINE
  8
0
  6
CONTINUOUS
 62
     7
 10
115.000244140625
 20
67
 11
124.60009765625
 21
67
  0
LINE
  8
0
  6
CONTINUOUS
 62
     7
 10
70
 20
80.840087890625
 11
113.000244140625
 21
80.840087890625
  0
LINE
  8
0
  6
CONTINUOUS
 62
     7
 10
70
 20
78
 11
113.000244140625
 21
78
  0
LINE
  8
0
  6
CONTINUOUS
 62
     7
 10
230
 20
98
 11
230
 21
78
  0
LINE
  8
0
  6
CONTINUOUS
 62
     7
 10
230.000244140625
 20
78
 11
187
 21
78
  0
LINE
  8
0
  6
CONTINUOUS
 62
     7
 10
184
 20
109
 11
184
 21
67
  0
LINE
  8
0
  6
CONTINUOUS
 62
     7
 10
185
 20
109
 11
185
 21
67
  0
LINE
  8
0
  6
CONTINUOUS
 62
     7
 10
187
 20
98.39990234375
 11
187
 21
77.60009765625
  0
LINE
  8
0
  6
CONTINUOUS
 62
     7
 10
185
 20
109
 11
175.400146484375
 21
109
  0
LINE
  8
0
  6
CONTINUOUS
 62
     7
 10
187
 20
98.39989471435547
 11
185
 21
100.3998947143555
  0
LINE
  8
0
  6
CONTINUOUS
 62
     7
 10
230.000244140625
 20
98
 11
187
 21
98
  0
LINE
  8
0
  6
CONTINUOUS
 62
     7
 10
230.000244140625
 20
95.159912109375
 11
187
 21
95.159912109375
  0
LINE
  8
0
  6
CONTINUOUS
 62
     7
 10
186.9999847412109
 20
77.60009002685547
 11
184.9999847412109
 21
75.60009002685547
  0
LINE
  8
0
  6
CONTINUOUS
 62
     7
 10
185
 20
67
 11
175.400146484375
 21
67
  0
LINE
  8
0
  6
CONTINUOUS
 62
     7
 10
230.000244140625
 20
80.840087890625
 11
187
 21
80.840087890625
  0
LINE
  8
0
  6
CENTER
 62
     7
 10
210
 20
94
 11
210
 21
82
  0
LINE
  8
0
  6
CENTER
 62
     7
 10
90
 20
94
 11
90
 21
82
  0
LINE
  8
0
  6
CENTER
 62
     7
 10
150
 20
94
 11
150
 21
82
  0
LINE
  8
0
  6
CENTER
 62
     7
 10
182.271240234375
 20
99
 11
187.24560546875
 21
99
  0
LINE
  8
0
  6
CENTER
 62
     7
 10
182.271240234375
 20
77
 11
187.24560546875
 21
77
  0
LINE
  8
0
  6
CENTER
 62
     7
 10
117.728759765625
 20
99
 11
112.75439453125
 21
99
  0
LINE
  8
0
  6
CENTER
 62
     7
 10
117.728759765625
 20
77
 11
112.75439453125
 21
77
  0
LINE
  8
0
  6
CONTINUOUS
 62
     7
 10
113.0002593994141
 20
83.99998474121094
 11
113.0002593994141
 21
91.99998474121094
  0
LINE
  8
0
  6
CONTINUOUS
 62
     7
 10
109.7003479003906
 20
84
 11
113.0002593994141
 21
84
  0
LINE
  8
0
  6
CONTINUOUS
 62
     7
 10
111.3203735351563
 20
92
 11
113.0002593994141
 21
92
  0
LINE
  8
0
  6
CONTINUOUS
 62
     7
 10
105.7003479003906
 20
88
 11
105.7003479003906
 21
89.672119140625
  0
LINE
  8
0
  6
CONTINUOUS
 62
     7
 10
113.000244140625
 20
92
 11
115.000244140625
 21
92
  0
LINE
  8
0
  6
CONTINUOUS
 62
     7
 10
113.000244140625
 20
84
 11
115.000244140625
 21
84
  0
LINE
  8
0
  6
CONTINUOUS
 62
     7
 10
103.4830322265625
 20
97.52156066894531
 11
107.9176559448242
 21
99.35843658447266
  0
LINE
  8
0
  6
CONTINUOUS
 62
     7
 10
103.6847915649414
 20
94.68266296386719
 11
109.7823867797852
 21
97.20836639404297
  0
LINE
  8
0
  6
CONTINUOUS
 62
     7
 10
103.483024597168
 20
97.52156829833984
 11
103.6847839355469
 21
94.68267059326172
  0
LINE
  8
0
  6
CONTINUOUS
 62
     7
 10
107.9176559448242
 20
99.35843658447266
 11
109.7824020385742
 21
97.20835876464844
  0
LINE
  8
0
  6
CONTINUOUS
 62
     7
 10
104.4235000610352
 20
90.96180725097656
 11
104.8381729125977
 21
89.96073913574219
  0
LINE
  8
0
  6
CONTINUOUS
 62
     7
 10
111.8910980224609
 20
94.05498504638672
 11
112.3057556152344
 21
93.05391693115234
  0
LINE
  8
0
  6
CONTINUOUS
 62
     7
 10
105.6176071166992
 20
89.63791656494141
 11
104.8381729125977
 21
89.96076965332031
  0
LINE
  8
0
  6
CONTINUOUS
 62
     7
 10
106.060791015625
 20
92.28939819335938
 11
106.9333724975586
 21
90.18283081054688
  0
LINE
  8
0
  6
CONTINUOUS
 62
     7
 10
109.7945709228516
 20
93.83599853515625
 11
110.6671371459961
 21
91.72943115234375
  0
LINE
  8
0
  6
CONTINUOUS
 62
     7
 10
105.6176223754883
 20
89.63784027099609
 11
111.9829254150391
 21
92.27443695068359
  0
LINE
  8
0
  6
CONTINUOUS
 62
     7
 10
112.3057479858398
 20
93.05393981933594
 11
111.9828796386719
 21
92.27449035644531
  0
LINE
  8
0
  6
CONTINUOUS
 62
     7
 10
104.6532897949219
 20
91.70640563964844
 11
111.2020874023438
 21
94.41900634765625
  0
LINE
  8
0
  6
CONTINUOUS
 62
     7
 10
124.60009765625
 20
95
 11
175.400146484375
 21
95
  0
LINE
  8
0
  6
CONTINUOUS
 62
     7
 10
124.60009765625
 20
81
 11
175.400146484375
 21
81
  0
LINE
  8
0
  6
CONTINUOUS
 62
     7
 10
124.60009765625
 20
66
 11
175.400146484375
 21
66
  0
LINE
  8
0
  6
CONTINUOUS
 62
     7
 10
70
 20
11.5956621170044
 11
113.000244140625
 21
11.5956621170044
  0
LINE
  8
0
  6
CONTINUOUS
 62
     7
 10
187
 20
11.5956621170044
 11
230
 21
11.5956621170044
  0
LINE
  8
0
  6
CONTINUOUS
 62
     7
 10
-9
 20
0
 11
-3
 21
0
  0
LINE
  8
0
  6
CONTINUOUS
 62
     7
 10
-7.159912109375
 20
18
 11
7.16015625
 21
18
  0
LINE
  8
0
  6
CONTINUOUS
 62
     7
 10
10
 20
15.159912109375
 11
10
 21
13.829833984375
  0
LINE
  8
0
  6
CONTINUOUS
 62
     7
 10
-10
 20
15.159912109375
 11
-10
 21
13.829833984375
  0
LINE
  8
0
  6
CONTINUOUS
 62
     7
 10
6.550048828125
 20
10.3798828125
 11
6.550048828125
 21
7.449951171875
  0
LINE
  8
0
  6
CONTINUOUS
 62
     7
 10
-6.5498046875
 20
10.3798828125
 11
-6.5498046875
 21
7.449951171875
  0
LINE
  8
0
  6
CONTINUOUS
 62
     7
 10
7.162012100219727
 20
18.00058174133301
 11
7.77002763748169
 21
17.3925666809082
  0
LINE
  8
0
  6
CONTINUOUS
 62
     7
 10
6.552098274230957
 20
7.450474262237549
 11
10.0020055770874
 21
4.000566482543945
  0
LINE
  8
0
  6
CONTINUOUS
 62
     7
 10
-9.997940063476563
 20
13.83065223693848
 11
-9.482457160949707
 21
13.31516838073731
  0
LINE
  8
0
  6
CONTINUOUS
 62
     7
 10
6.55190372467041
 20
10.38056087493897
 11
7.767934322357178
 21
11.59659099578857
  0
LINE
  8
0
  6
CONTINUOUS
 62
     7
 10
-9.997919082641602
 20
4.000534534454346
 11
-6.54783821105957
 21
7.450614929199219
  0
LINE
  8
0
  6
CONTINUOUS
 62
     7
 10
-9.997929573059082
 20
15.16058826446533
 11
-9.470534324645996
 21
15.68798351287842
  0
LINE
  8
0
  6
CONTINUOUS
 62
     7
 10
-9.997966766357422
 20
1.000672459602356
 11
-8.99790096282959
 21
0.0006071263342164457
  0
LINE
  8
0
  6
CONTINUOUS
 62
     7
 10
10.00220584869385
 20
1.000563621520996
 11
9.002139091491699
 21
0.0004982168902643025
  0
LINE
  8
0
  6
CONTINUOUS
 62
     7
 10
-10
 20
3.999755859375
 11
-10
 21
1
  0
LINE
  8
0
  6
CONTINUOUS
 62
     7
 10
10
 20
3.999755859375
 11
10
 21
1
  0
LINE
  8
0
  6
CONTINUOUS
 62
     7
 10
-7.763890266418457
 20
11.59660243988037
 11
-6.547860145568848
 21
10.38057231903076
  0
LINE
  8
0
  6
CONTINUOUS
 62
     7
 10
-7.765951156616211
 20
17.3925666809082
 11
-7.157935619354248
 21
18.00058174133301
  0
LINE
  8
0
  6
CONTINUOUS
 62
     7
 10
9.474610328674316
 20
15.68798351287842
 11
10.0020055770874
 21
15.16058826446533
  0
LINE
  8
0
  6
CONTINUOUS
 62
     7
 10
9.48631763458252
 20
13.31497383117676
 11
10.00197315216065
 21
13.8306303024292
  0
LINE
  8
0
  6
CONTINUOUS
 62
     7
 10
-2.5
 20
0.5
 11
2.5
 21
0.5
  0
LINE
  8
0
  6
CONTINUOUS
 62
     7
 10
7.2998046875
 20
0
 11
8.999755859375
 21
0
  0
LINE
  8
0
  6
CONTINUOUS
 62
     7
 10
-2.99795413017273
 20
0.0005946077289991081
 11
-2.498007535934448
 21
0.5005412101745606
  0
LINE
  8
0
  6
CONTINUOUS
 62
     7
 10
2.502127408981323
 20
0.5006059408187866
 11
3.002074003219605
 21
0.000659345299936831
  0
LINE
  8
0
  6
CONTINUOUS
 62
     7
 10
2.999755859375
 20
0
 11
6.099853515625
 21
0
  0
LINE
  8
0
  6
CONTINUOUS
 62
     7
 10
0.725341796875
 20
29.199951171875
 11
19.00260353088379
 21
29.199951171875
  0
LINE
  8
0
  6
CONTINUOUS
 62
     7
 10
-20.699951171875
 20
5.5
 11
-16
 21
5.5
  0
LINE
  8
0
  6
CENTER
 62
     7
 10
5
 20
25
 11
-12.235107421875
 21
25
  0
LINE
  8
0
  6
CONTINUOUS
 62
     7
 10
-1.780029296875
 20
28.499755859375
 11
-5.860107421875
 21
28.499755859375
  0
LINE
  8
0
  6
CONTINUOUS
 62
     7
 10
-1.131924748420715
 20
24.99956130981445
 11
-1.78191864490509
 21
28.49953079223633
  0
LINE
  8
0
  6
CONTINUOUS
 62
     7
 10
-3.441110134124756
 20
24.99961662292481
 11
-4.091104030609131
 21
28.49958610534668
  0
LINE
  8
0
  6
CONTINUOUS
 62
     7
 10
-5.951730728149414
 20
28.01996040344238
 11
-5.861734390258789
 21
28.4998722076416
  0
LINE
  8
0
  6
CONTINUOUS
 62
     7
 10
-7.751571178436279
 20
28.24936103820801
 11
-10.52146625518799
 21
27.49939155578613
  0
LINE
  8
0
  6
CONTINUOUS
 62
     7
 10
-0.001222298946231604
 20
29.61813735961914
 11
-1.939632534980774
 21
28.49900054931641
  0
LINE
  8
0
  6
CONTINUOUS
 62
     7
 10
16
 20
5.5
 11
20.7001953125
 21
5.5
  0
LINE
  8
0
  6
CONTINUOUS
 62
     7
 10
-1.780029296875
 20
21.499755859375
 11
-5.860107421875
 21
21.499755859375
  0
LINE
  8
0
  6
CONTINUOUS
 62
     7
 10
-1.130690932273865
 20
24.99974632263184
 11
-1.780685186386108
 21
21.49977493286133
  0
LINE
  8
0
  6
CONTINUOUS
 62
     7
 10
-3.442066431045532
 20
25.00002098083496
 11
-4.092060565948486
 21
21.50006484985352
  0
LINE
  8
0
  6
CONTINUOUS
 62
     7
 10
-5.951010227203369
 20
21.96963119506836
 11
-5.861014366149902
 21
21.49965476989746
  0
LINE
  8
0
  6
CONTINUOUS
 62
     7
 10
-7.767284870147705
 20
21.75419616699219
 11
-10.52109146118164
 21
22.49982261657715
  0
LINE
  8
0
  6
CONTINUOUS
 62
     7
 10
-0.001728236326016486
 20
20.37986946105957
 11
-1.948905110359192
 21
21.49895095825195
  0
LINE
  8
0
  6
CONTINUOUS
 62
     7
 10
-16
 20
5.699951171875
 11
-16
 21
5.5
  0
LINE
  8
0
  6
CONTINUOUS
 62
     7
 10
16
 20
5.5
 11
16
 21
5.699951171875
  0
LINE
  8
0
  6
CONTINUOUS
 62
     7
 10
21
 20
27.20255470275879
 11
21
 21
7.698710441589356
  0
LINE
  8
0
  6
CONTINUOUS
 62
     7
 10
19.00260353088379
 20
29.199951171875
 11
21
 21
27.20255470275879
  0
LINE
  8
0
  6
CONTINUOUS
 62
     7
 10
21
 20
7.698709964752197
 11
19.0012321472168
 21
5.699951171875
  0
LINE
  8
0
  6
CONTINUOUS
 62
     7
 10
8.300048828125
 20
5.699951171875
 11
19.00123405456543
 21
5.699951171875
  0
LINE
  8
0
  6
CONTINUOUS
 62
     7
 10
-7.32470703125
 20
18.39990234375
 11
7.324951171875
 21
18.39990234375
  0
LINE
  8
0
  6
CONTINUOUS
 62
     7
 10
7.326823234558106
 20
18.40060615539551
 11
10.40194416046143
 21
15.32548522949219
  0
LINE
  8
0
  6
CONTINUOUS
 62
     7
 10
6.802060604095459
 20
7.740487575531006
 11
8.841897964477539
 21
5.700650215148926
  0
LINE
  8
0
  6
CONTINUOUS
 62
     7
 10
6.800048828125
 20
10.260009765625
 11
6.800048828125
 21
7.73974609375
  0
LINE
  8
0
  6
CONTINUOUS
 62
     7
 10
6.802103996276856
 20
10.26054763793945
 11
10.40201950073242
 21
13.86046314239502
  0
LINE
  8
0
  6
CONTINUOUS
 62
     7
 10
10.400146484375
 20
15.32470703125
 11
10.400146484375
 21
13.85986328125
  0
LINE
  8
0
  6
CONTINUOUS
 62
     7
 10
-8.1533203125
 20
20.39990234375
 11
8.153564453125
 21
20.39990234375
  0
LINE
  8
0
  6
CONTINUOUS
 62
     7
 10
8.155291557312012
 20
20.40056419372559
 11
12.40190315246582
 21
16.15395355224609
  0
LINE
  8
0
  6
CONTINUOUS
 62
     7
 10
12.400146484375
 20
16.1533203125
 11
12.400146484375
 21
13.031494140625
  0
LINE
  8
0
  6
CONTINUOUS
 62
     7
 10
8.800048828125
 20
9.431396484375
 11
8.800048828125
 21
8.568359375
  0
LINE
  8
0
  6
CONTINUOUS
 62
     7
 10
8.802020072937012
 20
9.432123184204102
 11
12.40193462371826
 21
13.03203868865967
  0
LINE
  8
0
  6
CONTINUOUS
 62
     7
 10
8.802030563354492
 20
8.568966865539551
 11
11.67104530334473
 21
5.699951171875
  0
LINE
  8
0
  6
CONTINUOUS
 62
     7
 10
-11.69979190826416
 20
4.706076622009277
 11
-11.66534233093262
 21
5.699689865112305
  0
LINE
  8
0
  6
CONTINUOUS
 62
     7
 10
-15.13150691986084
 20
5.699972152709961
 11
-15.09703636169434
 21
4.70611572265625
  0
LINE
  8
0
  6
CONTINUOUS
 62
     7
 10
-21
 20
7.70257043838501
 11
-21
 21
27.20255470275879
  0
LINE
  8
0
  6
CONTINUOUS
 62
     7
 10
-18.998046875
 20
5.700625419616699
 11
-21
 21
7.702569961547852
  0
LINE
  8
0
  6
CONTINUOUS
 62
     7
 10
-18.999755859375
 20
5.699951171875
 11
-8.2998046875
 21
5.699951171875
  0
LINE
  8
0
  6
CONTINUOUS
 62
     7
 10
-10.39791011810303
 20
15.32546424865723
 11
-7.322790145874023
 21
18.40058517456055
  0
LINE
  8
0
  6
CONTINUOUS
 62
     7
 10
-8.837800025939941
 20
5.700607776641846
 11
-6.797962665557861
 21
7.740445137023926
  0
LINE
  8
0
  6
CONTINUOUS
 62
     7
 10
-6.7998046875
 20
7.73974609375
 11
-6.7998046875
 21
10.260009765625
  0
LINE
  8
0
  6
CONTINUOUS
 62
     7
 10
-10.39792156219482
 20
13.86052894592285
 11
-6.797995090484619
 21
10.26060295104981
  0
LINE
  8
0
  6
CONTINUOUS
 62
     7
 10
-10.39990234375
 20
13.85986328125
 11
-10.39990234375
 21
15.32470703125
  0
LINE
  8
0
  6
CONTINUOUS
 62
     7
 10
-12.39786911010742
 20
16.15393257141113
 11
-8.15125846862793
 21
20.40054321289063
  0
LINE
  8
0
  6
CONTINUOUS
 62
     7
 10
-12.39990234375
 20
13.031494140625
 11
-12.39990234375
 21
16.1533203125
  0
LINE
  8
0
  6
CONTINUOUS
 62
     7
 10
-8.7998046875
 20
8.568359375
 11
-8.7998046875
 21
9.431396484375
  0
LINE
  8
0
  6
CONTINUOUS
 62
     7
 10
-12.39804172515869
 20
13.0322437286377
 11
-8.797943115234375
 21
9.432145118713379
  0
LINE
  8
0
  6
CONTINUOUS
 62
     7
 10
-11.66622734069824
 20
5.700607776641846
 11
-8.797922134399414
 21
8.568913459777832
  0
LINE
  8
0
  6
CONTINUOUS
 62
     7
 10
3.998275279998779
 20
22.68981170654297
 11
-0.002444816986098886
 21
20.3800048828125
  0
LINE
  8
0
  6
CONTINUOUS
 62
     7
 10
3.99895167350769
 20
27.30936813354492
 11
-0.0007009447435848415
 21
29.61858177185059
  0
LINE
  8
0
  6
CONTINUOUS
 62
     7
 10
4
 20
27.309814453125
 11
4
 21
22.6904296875
  0
LINE
  8
0
  6
CENTER
 62
     7
 10
0
 20
31.5
 11
0
 21
-2.277587890625
  0
LINE
  8
0
  6
DASHED
 62
     7
 10
-3
 20
9.5
 11
-3
 21
1.199951171875
  0
LINE
  8
0
  6
DASHED
 62
     7
 10
3
 20
9.5
 11
3
 21
1.199951171875
  0
LINE
  8
0
  6
DASHED
 62
     7
 10
4.75
 20
18
 11
4.75
 21
9.5
  0
LINE
  8
0
  6
DASHED
 62
     7
 10
-4.75
 20
18
 11
-4.75
 21
9.5
  0
LINE
  8
0
  6
DASHED
 62
     7
 10
-4.75
 20
9.5
 11
4.75
 21
9.5
  0
LINE
  8
0
  6
DASHED
 62
     7
 10
-3
 20
1.199951171875
 11
3
 21
1.199951171875
  0
LINE
  8
0
  6
DASHED
 62
     7
 10
-4.197972774505615
 20
0.0004651326162274927
 11
-2.997824668884277
 21
1.200613141059876
  0
LINE
  8
0
  6
DASHED
 62
     7
 10
3.002020120620728
 20
1.200451374053955
 11
4.201995372772217
 21
0.0004759222210850567
  0
LINE
  8
0
  6
CONTINUOUS
 62
     7
 10
-21.1300048828125
 20
30
 11
-7.499755859375
 21
30
  0
LINE
  8
0
  6
CONTINUOUS
 62
     7
 10
22
 20
28.999755859375
 11
22
 21
22
  0
LINE
  8
0
  6
CONTINUOUS
 62
     7
 10
-7
 20
29.5
 11
-0.20654296875
 21
29.5
  0
LINE
  8
0
  6
CONTINUOUS
 62
     7
 10
21.7001953125
 20
21.7001953125
 11
21.7001953125
 21
6.5
  0
LINE
  8
0
  6
CONTINUOUS
 62
     7
 10
21.00129127502441
 20
29.99960327148438
 11
22.00135231018066
 21
28.99953269958496
  0
LINE
  8
0
  6
CONTINUOUS
 62
     7
 10
-21.49998283386231
 20
6.302780151367188
 11
-20.69775581359863
 21
5.500552177429199
  0
LINE
  8
0
  6
CONTINUOUS
 62
     7
 10
21.70190811157227
 20
6.500623226165772
 11
20.70184135437012
 21
5.500557899475098
  0
LINE
  8
0
  6
CONTINUOUS
 62
     7
 10
7.002110481262207
 20
29.50051307678223
 11
7.502057075500488
 21
30.00045967102051
  0
LINE
  8
0
  6
CONTINUOUS
 62
     7
 10
-6.998087406158447
 20
29.50064849853516
 11
-7.49803352355957
 21
30.00059509277344
  0
LINE
  8
0
  6
CONTINUOUS
 62
     7
 10
7.5
 20
30
 11
21
 21
30
  0
LINE
  8
0
  6
CONTINUOUS
 62
     7
 10
0.205810546875
 20
29.5
 11
7
 21
29.5
  0
LINE
  8
0
  6
CONTINUOUS
 62
     7
 10
21.70190238952637
 20
21.70070266723633
 11
22.00193977355957
 21
22.00074005126953
  0
LINE
  8
0
  6
CONTINUOUS
 62
     7
 10
-19.00260353088379
 20
29.199951171875
 11
-0.726318359375
 21
29.199951171875
  0
LINE
  8
0
  6
CENTER
 62
     7
 10
11
 20
21.999755859375
 11
11
 21
27.999755859375
  0
LINE
  8
0
  6
CENTER
 62
     7
 10
14
 20
24.999755859375
 11
8
 21
24.999755859375
  0
LINE
  8
0
  6
CENTER
 62
     7
 10
-13.39999389648438
 20
7.199951171875
 11
-13.39999389648438
 21
3.10009765625
  0
LINE
  8
0
  6
CENTER
 62
     7
 10
13.39999389648438
 20
7.199951171875
 11
13.39999389648438
 21
3.10009765625
  0
LINE
  8
0
  6
CONTINUOUS
 62
     7
 10
-21.5
 20
29.62998962402344
 11
-21.5
 21
6.302780151367188
  0
LINE
  8
0
  6
CONTINUOUS
 62
     7
 10
-21.5
 20
29.62998008728027
 11
-21.13000679016113
 21
29.99998092651367
  0
LINE
  8
0
  6
DASHED
 62
     7
 10
-20.70001220703125
 20
23.85000610351563
 11
-20.70001220703125
 21
28.1500244140625
  0
LINE
  8
0
  6
DASHED
 62
     7
 10
-21.50001525878906
 20
23.0500373840332
 11
-20.70003128051758
 21
23.85001945495606
  0
LINE
  8
0
  6
DASHED
 62
     7
 10
-21.50002098083496
 20
28.94998168945313
 11
-20.70000457763672
 21
28.14996528625488
  0
LINE
  8
0
  6
DASHED
 62
     7
 10
-13.20002746582031
 20
23.84998893737793
 11
-11.95872497558594
 21
25.99998664855957
  0
LINE
  8
0
  6
DASHED
 62
     7
 10
-15.50002384185791
 20
23.50000190734863
 11
-14.89379501342773
 21
23.85000801086426
  0
LINE
  8
0
  6
DASHED
 62
     7
 10
-13.20003604888916
 20
28.15000915527344
 11
-11.95872974395752
 21
26.00000381469727
  0
LINE
  8
0
  6
DASHED
 62
     7
 10
-15.5000114440918
 20
28.49997711181641
 11
-14.89378261566162
 21
28.14997100830078
  0
LINE
  8
0
  6
DASHED
 62
     7
 10
-21.04998779296875
 20
28.5
 11
-15.5
 21
28.5
  0
LINE
  8
0
  6
DASHED
 62
     7
 10
-20.70001220703125
 20
28.15000915527344
 11
-13.20001220703125
 21
28.15000915527344
  0
LINE
  8
0
  6
DASHED
 62
     7
 10
-20.70001220703125
 20
23.85000610351563
 11
-13.20001220703125
 21
23.85000610351563
  0
LINE
  8
0
  6
DASHED
 62
     7
 10
-13.20001220703125
 20
23.85000610351563
 11
-13.20001220703125
 21
28.15000915527344
  0
LINE
  8
0
  6
DASHED
 62
     7
 10
-21.05001831054688
 20
23.5
 11
-15.5
 21
23.5
  0
LINE
  8
0
  6
DASHED
 62
     7
 10
-15.5
 20
23.5
 11
-15.5
 21
28.5
  0
LINE
  8
0
  6
CENTER
 62
     7
 10
-23
 20
14.5
 11
-11.40237426757813
 21
14.5
  0
LINE
  8
0
  6
CENTER
 62
     7
 10
-23
 20
26
 11
-11.40237426757813
 21
26
  0
LINE
  8
0
  6
CONTINUOUS
 62
     7
 10
-19.00260353088379
 20
29.199951171875
 11
-21
 21
27.20255470275879
  0
LINE
  8
0
  6
CENTER
 62
     7
 10
-11
 20
21.999755859375
 11
-11
 21
27.999755859375
  0
LINE
  8
0
  6
CONTINUOUS
 62
     7
 10
116.000244140625
 20
29.19972229003906
 11
116.000244140625
 21
5.499526977539063
  0
LINE
  8
0
  6
CONTINUOUS
 62
     7
 10
115.000244140625
 20
29.61964416503906
 11
115.000244140625
 21
5.699722290039063
  0
LINE
  8
0
  6
CONTINUOUS
 62
     7
 10
114.6204605102539
 20
22.8177661895752
 11
115.0020599365234
 21
22.78438186645508
  0
LINE
  8
0
  6
CONTINUOUS
 62
     7
 10
116.500244140625
 20
29.19972229003906
 11
124.60009765625
 21
29.19972229003906
  0
LINE
  8
0
  6
CONTINUOUS
 62
     7
 10
115.000244140625
 20
29.19972229003906
 11
116.000244140625
 21
29.19972229003906
  0
LINE
  8
0
  6
CONTINUOUS
 62
     7
 10
124.60009765625
 20
29.99977111816406
 11
175.400146484375
 21
29.99977111816406
  0
LINE
  8
0
  6
CONTINUOUS
 62
     7
 10
116.000244140625
 20
5.499526977539063
 11
124.60009765625
 21
5.499526977539063
  0
LINE
  8
0
  6
CONTINUOUS
 62
     7
 10
113.000244140625
 20
5.699722290039063
 11
116.000244140625
 21
5.699722290039063
  0
LINE
  8
0
  6
CONTINUOUS
 62
     7
 10
116.5019378662109
 20
29.20046997070313
 11
116.0018157958984
 21
28.70035171508789
  0
LINE
  8
0
  6
CONTINUOUS
 62
     7
 10
113.0018920898438
 20
18.40028190612793
 11
115.0018539428711
 21
20.40023994445801
  0
LINE
  8
0
  6
CONTINUOUS
 62
     7
 10
113.000244140625
 20
18.39967346191406
 11
113.000244140625
 21
5.699722290039063
  0
LINE
  8
0
  6
CONTINUOUS
 62
     7
 10
184
 20
5.499526977539063
 11
184
 21
29.19972229003906
  0
LINE
  8
0
  6
CONTINUOUS
 62
     7
 10
187
 20
5.699722290039063
 11
187
 21
18.39967346191406
  0
LINE
  8
0
  6
CONTINUOUS
 62
     7
 10
131.7002563476563
 20
4.705751895904541
 11
131.7172088623047
 21
5.49944543838501
  0
LINE
  8
0
  6
CONTINUOUS
 62
     7
 10
168.2858276367188
 20
5.499672889709473
 11
168.3027801513672
 21
4.705979824066162
  0
LINE
  8
0
  6
CONTINUOUS
 62
     7
 10
128.2859649658203
 20
5.499785900115967
 11
128.3029174804688
 21
4.706092357635498
  0
LINE
  8
0
  6
CONTINUOUS
 62
     7
 10
124.60009765625
 20
21.99977111816406
 11
175.400146484375
 21
21.99977111816406
  0
LINE
  8
0
  6
CENTER
 62
     7
 10
117.728759765625
 20
24.99951171875
 11
101.80029296875
 21
24.99951171875
  0
LINE
  8
0
  6
CENTER
 62
     7
 10
170
 20
7.499526977539063
 11
170
 21
2.899917602539063
  0
LINE
  8
0
  6
CONTINUOUS
 62
     7
 10
113.0002746582031
 20
20.8795166015625
 11
113.0002746582031
 21
29.11949157714844
  0
LINE
  8
0
  6
CENTER
 62
     7
 10
130
 20
7.499526977539063
 11
130
 21
2.899917602539063
  0
LINE
  8
0
  6
CONTINUOUS
 62
     7
 10
185
 20
5.699722290039063
 11
185
 21
29.19972229003906
  0
LINE
  8
0
  6
CONTINUOUS
 62
     7
 10
184
 20
29.19972229003906
 11
185
 21
29.19972229003906
  0
LINE
  8
0
  6
CONTINUOUS
 62
     7
 10
114.6191711425781
 20
27.18112945556641
 11
115.0007705688477
 21
27.21451568603516
  0
LINE
  8
0
  6
CONTINUOUS
 62
     7
 10
184
 20
5.699722290039063
 11
187
 21
5.699722290039063
  0
LINE
  8
0
  6
CONTINUOUS
 62
     7
 10
185.0017700195313
 20
20.40012741088867
 11
187.0017242431641
 21
18.40016746520996
  0
LINE
  8
0
  6
CONTINUOUS
 62
     7
 10
175.400146484375
 20
29.19972229003906
 11
183.5
 21
29.19972229003906
  0
LINE
  8
0
  6
CONTINUOUS
 62
     7
 10
175.400146484375
 20
5.499526977539063
 11
184
 21
5.499526977539063
  0
LINE
  8
0
  6
CONTINUOUS
 62
     7
 10
184.0014801025391
 20
28.7001838684082
 11
183.5013580322266
 21
29.20030212402344
  0
LINE
  8
0
  6
CENTER
 62
     7
 10
182.271728515625
 20
24.99951171875
 11
187.24609375
 21
24.99951171875
  0
LINE
  8
0
  6
CONTINUOUS
 62
     7
 10
171.6998291015625
 20
4.705874919891357
 11
171.7167816162109
 21
5.499567985534668
  0
LINE
  8
0
  6
CONTINUOUS
 62
     7
 10
175.400146484375
 20
29.99977111816406
 11
175.400146484375
 21
5.499771118164063
  0
LINE
  8
0
  6
CONTINUOUS
 62
     7
 10
124.60009765625
 20
29.99977111816406
 11
124.60009765625
 21
5.499771118164063
  0
LINE
  8
0
  6
CONTINUOUS
 62
     7
 10
124.60009765625
 20
5.499771118164063
 11
175.400146484375
 21
5.499771118164063
  0
LINE
  8
0
  6
CENTER
 62
     7
 10
133.6196899414063
 20
25.99977111816406
 11
141.2353515625
 21
25.99977111816406
  0
LINE
  8
0
  6
CENTER
 62
     7
 10
137.5
 20
22.24775695800781
 11
137.5
 21
30.35160827636719
  0
LINE
  8
0
  6
CENTER
 62
     7
 10
158.6196899414063
 20
25.99977111816406
 11
166.2353515625
 21
25.99977111816406
  0
LINE
  8
0
  6
CENTER
 62
     7
 10
162.5
 20
22.24775695800781
 11
162.5
 21
30.35160827636719
  0
LINE
  8
0
  6
CONTINUOUS
 62
     7
 10
106.4002075195313
 20
28.49944305419922
 11
104.7681350708008
 21
24.99944877624512
  0
LINE
  8
0
  6
CONTINUOUS
 62
     7
 10
106.4001541137695
 20
21.49948883056641
 11
104.7680816650391
 21
24.99948310852051
  0
LINE
  8
0
  6
CONTINUOUS
 62
     7
 10
105.9995269775391
 20
22.49969863891602
 11
106.0000152587891
 21
27.49969863891602
  0
LINE
  8
0
  6
CONTINUOUS
 62
     7
 10
113.000244140625
 20
28.99951171875
 11
109.1222534179688
 21
28.99951171875
  0
LINE
  8
0
  6
CONTINUOUS
 62
     7
 10
105.900146484375
 20
21.49951171875
 11
107.1855773925781
 21
21.49951171875
  0
LINE
  8
0
  6
CONTINUOUS
 62
     7
 10
105.900146484375
 20
28.49951171875
 11
107.222412109375
 21
28.49951171875
  0
LINE
  8
0
  6
CONTINUOUS
 62
     7
 10
113.5001602172852
 20
20.37952613830566
 11
113.0001678466797
 21
20.8795166015625
  0
LINE
  8
0
  6
CONTINUOUS
 62
     7
 10
113.000244140625
 20
29.11956405639648
 11
113.5001907348633
 21
29.61951065063477
  0
LINE
  8
0
  6
CONTINUOUS
 62
     7
 10
113.500244140625
 20
27.30950927734375
 11
115.000244140625
 21
27.30950927734375
  0
LINE
  8
0
  6
CONTINUOUS
 62
     7
 10
113.500244140625
 20
29.61952209472656
 11
115.000244140625
 21
29.61952209472656
  0
LINE
  8
0
  6
CONTINUOUS
 62
     7
 10
113.500244140625
 20
22.68951416015625
 11
115.000244140625
 21
22.68951416015625
  0
LINE
  8
0
  6
CONTINUOUS
 62
     7
 10
113.500244140625
 20
20.3795166015625
 11
115.000244140625
 21
20.3795166015625
  0
LINE
  8
0
  6
CONTINUOUS
 62
     7
 10
113.000244140625
 20
20.99951171875
 11
109.1222534179688
 21
20.99951171875
  0
LINE
  8
0
  6
CENTER
 62
     7
 10
158.6196899414063
 20
14.49977111816406
 11
166.2353515625
 21
14.49977111816406
  0
LINE
  8
0
  6
CENTER
 62
     7
 10
133.6196899414063
 20
14.49977111816406
 11
141.2353515625
 21
14.49977111816406
  0
LINE
  8
0
  6
CENTER
 62
     7
 10
137.5
 20
10.74775695800781
 11
137.5
 21
18.85160827636719
  0
LINE
  8
0
  6
CENTER
 62
     7
 10
162.5
 20
10.74775695800781
 11
162.5
 21
18.85160827636719
  0
LINE
  8
0
  6
CONTINUOUS
 62
     7
 10
124.60009765625
 20
109.5
 11
175.400146484375
 21
109.5
  0
LINE
  8
0
  6
DASHED
 62
     7
 10
137.5
 20
99.26818084716797
 11
137.5
 21
110.2095794677734
  0
LINE
  8
0
  6
DASHED
 62
     7
 10
135
 20
103.5
 11
135
 21
109.4000015258789
  0
LINE
  8
0
  6
DASHED
 62
     7
 10
140
 20
103.5
 11
140
 21
109.4000015258789
  0
LINE
  8
0
  6
DASHED
 62
     7
 10
139.6000061035156
 20
101
 11
139.6000061035156
 21
109
  0
LINE
  8
0
  6
DASHED
 62
     7
 10
135.3999938964844
 20
101
 11
135.3999938964844
 21
109
  0
LINE
  8
0
  6
DASHED
 62
     7
 10
135
 20
103.5
 11
140
 21
103.5
  0
LINE
  8
0
  6
DASHED
 62
     7
 10
135.3999938964844
 20
101
 11
139.6000061035156
 21
101
  0
LINE
  8
0
  6
DASHED
 62
     7
 10
139.6000061035156
 20
102.8071823120117
 11
140
 21
103.5000076293945
  0
LINE
  8
0
  6
DASHED
 62
     7
 10
137.5
 20
99.78756713867188
 11
139.5999908447266
 21
101
  0
LINE
  8
0
  6
DASHED
 62
     7
 10
135.4000091552734
 20
100.9999923706055
 11
137.5
 21
99.78755950927734
  0
LINE
  8
0
  6
DASHED
 62
     7
 10
135
 20
103.5000076293945
 11
135.4000091552734
 21
102.8071823120117
  0
LINE
  8
0
  6
DASHED
 62
     7
 10
134.8999938964844
 20
109.5
 11
135.3999938964844
 21
109
  0
LINE
  8
0
  6
DASHED
 62
     7
 10
135.3999938964844
 20
109
 11
139.6000061035156
 21
109
  0
LINE
  8
0
  6
DASHED
 62
     7
 10
140.1000061035156
 20
109.5
 11
139.6000061035156
 21
109
  0
LINE
  8
0
  6
DASHED
 62
     7
 10
165
 20
103.5000076293945
 11
164.6000061035156
 21
102.8071823120117
  0
LINE
  8
0
  6
DASHED
 62
     7
 10
164.5999908447266
 20
101
 11
162.5
 21
99.78756713867188
  0
LINE
  8
0
  6
DASHED
 62
     7
 10
162.5
 20
99.78755950927734
 11
160.3999938964844
 21
100.9999923706055
  0
LINE
  8
0
  6
DASHED
 62
     7
 10
160.4000091552734
 20
102.8071823120117
 11
160
 21
103.5000076293945
  0
LINE
  8
0
  6
DASHED
 62
     7
 10
159.9000091552734
 20
109.5
 11
160.3999938964844
 21
109
  0
LINE
  8
0
  6
DASHED
 62
     7
 10
165.1000061035156
 20
109.5
 11
164.6000061035156
 21
109
  0
LINE
  8
0
  6
DASHED
 62
     7
 10
165
 20
103.5
 11
160
 21
103.5
  0
LINE
  8
0
  6
DASHED
 62
     7
 10
164.6000061035156
 20
101
 11
164.6000061035156
 21
109
  0
LINE
  8
0
  6
DASHED
 62
     7
 10
164.6000061035156
 20
109
 11
160.3999938964844
 21
109
  0
LINE
  8
0
  6
DASHED
 62
     7
 10
164.6000061035156
 20
101
 11
160.3999938964844
 21
101
  0
LINE
  8
0
  6
DASHED
 62
     7
 10
162.5
 20
99.26818084716797
 11
162.5
 21
110.2095794677734
  0
LINE
  8
0
  6
DASHED
 62
     7
 10
160
 20
103.5
 11
160
 21
109.4000015258789
  0
LINE
  8
0
  6
DASHED
 62
     7
 10
165
 20
103.5
 11
165
 21
109.4000015258789
  0
LINE
  8
0
  6
DASHED
 62
     7
 10
160.3999938964844
 20
101
 11
160.3999938964844
 21
109
  0
LINE
  8
0
  6
CONTINUOUS
 62
     7
 10
110.2333145141602
 20
95.159912109375
 11
113.000244140625
 21
95.159912109375
  0
LINE
  8
0
  6
CONTINUOUS
 62
     7
 10
109.0958099365234
 20
98
 11
113.000244140625
 21
98
  0
LINE
  8
0
  6
CENTER
 62
     7
 10
150
 20
6.95172643661499
 11
150
 21
-2.228851318359375
  0
LINE
  8
0
  6
CENTER
 62
     7
 10
104.8549957275391
 20
100.4805145263672
 11
110.0246658325195
 21
88
  0
CIRCLE
  8
0
  6
CONTINUOUS
 62
     7
 10
90
 20
88
 40
4.75
  0
CIRCLE
  8
0
  6
CONTINUOUS
 62
     7
 10
90
 20
88
 40
3
  0
ARC
  8
0
  6
CONTINUOUS
 62
     7
 10
106.7335968017578
 20
95.94552612304688
 40
3.299999237060549
 50
202.5000451360345
 51
228.4196294889927
  0
ARC
  8
0
  6
CONTINUOUS
 62
     7
 10
106.7335968017578
 20
95.94552612304688
 40
3.299999237060554
 50
356.5803977035848
 51
22.49998184309935
  0
ARC
  8
0
  6
CONTINUOUS
 62
     7
 10
98.81724548339844
 20
93.09942626953125
 40
5.999999999999995
 50
339.1282601229509
 51
357.5663491706545
  0
ARC
  8
0
  6
CONTINUOUS
 62
     7
 10
114.3437805175781
 20
99.53073120117188
 40
6.000000000000005
 50
227.4336780219229
 51
245.8721834977226
  0
ARC
  8
0
  6
CONTINUOUS
 62
     7
 10
104.0125427246094
 20
92.87863159179688
 40
0.7999999523162794
 50
357.5669502273014
 51
48.42016725270368
  0
ARC
  8
0
  6
CONTINUOUS
 62
     7
 10
110.8262786865234
 20
95.70097351074219
 40
0.7999999523162849
 50
176.5798560839644
 51
227.4330186812965
  0
ARC
  8
0
  6
CONTINUOUS
 62
     7
 10
109.7003479003906
 20
88
 40
4.000000000000004
 50
179.9999776881997
 51
270.0000280040019
  0
ARC
  8
0
  6
CONTINUOUS
 62
     7
 10
9.801513671875
 20
17.720947265625
 40
2.059999465942383
 50
189.1880064436799
 51
260.8120475145882
  0
ARC
  8
0
  6
CONTINUOUS
 62
     7
 10
9.801513671875
 20
11.27880859375
 40
2.059999465942382
 50
98.85327321608121
 51
171.1466728256508
  0
ARC
  8
0
  6
CONTINUOUS
 62
     7
 10
-9.80126953125
 20
17.720947265625
 40
2.059999465942382
 50
279.1880430991038
 51
350.8119987926476
  0
ARC
  8
0
  6
CONTINUOUS
 62
     7
 10
-9.80126953125
 20
11.27880859375
 40
2.059999465942383
 50
8.853274126697615
 51
81.14669081174013
  0
ARC
  8
0
  6
CONTINUOUS
 62
     7
 10
6.699951171875
 20
-0.800048828125
 40
0.9999999999999999
 50
53.13007445904824
 51
126.8698622480164
  0
ARC
  8
0
  6
CONTINUOUS
 62
     7
 10
-6.6201171875
 20
29.079833984375
 40
1.254199028015137
 50
260.7646186809916
 51
322.1250164483918
  0
ARC
  8
0
  6
CONTINUOUS
 62
     7
 10
-7.610107421875
 20
27.289794921875
 40
0.9701611399650575
 50
35.3314211046954
 51
98.29707725158869
  0
ARC
  8
0
  6
CONTINUOUS
 62
     7
 10
0
 20
24.999755859375
 40
3.998106002807618
 50
241.0940563619484
 51
118.9059436380516
  0
ARC
  8
0
  6
CONTINUOUS
 62
     7
 10
-9.80126953125
 20
11.27880859375
 40
2.059999465942383
 50
359.9999826971572
 51
0.3487052762346356
  0
ARC
  8
0
  6
CONTINUOUS
 62
     7
 10
-7.610107421875
 20
22.7099609375
 40
0.9683421850204482
 50
261.7027588238712
 51
324.6685242537913
  0
ARC
  8
0
  6
CONTINUOUS
 62
     7
 10
-6.6201171875
 20
20.919921875
 40
1.246148109436034
 50
37.87492891009474
 51
99.23543596052173
  0
ARC
  8
0
  6
CONTINUOUS
 62
     7
 10
0
 20
24.999755859375
 40
4.000000000000002
 50
298.9549930477143
 51
299.9999573492129
  0
ARC
  8
0
  6
CONTINUOUS
 62
     7
 10
-13.39999389648438
 20
8.5
 40
4.5
 50
253.6123724312344
 51
286.3877181824576
  0
ARC
  8
0
  6
CONTINUOUS
 62
     7
 10
-14.50009155273438
 20
4.758544921875
 40
0.5999999642372131
 50
185.0000076521949
 51
253.6124270727479
  0
ARC
  8
0
  6
CONTINUOUS
 62
     7
 10
-12.29965209960938
 20
4.758544921875
 40
0.5999999642372133
 50
286.3876635409443
 51
355.0000009992271
  0
ARC
  8
0
  6
CONTINUOUS
 62
     7
 10
0
 20
24.999755859375
 40
4.000000000000002
 50
298.9549930477143
 51
299.9999573492129
  0
CIRCLE
  8
0
  6
CONTINUOUS
 62
     7
 10
11
 20
24.999755859375
 40
2.75
  0
ARC
  8
0
  6
CONTINUOUS
 62
     7
 10
123.6759643554688
 20
18.07997131347656
 40
20.60452079772949
 50
149.6228069772163
 51
160.3772949952382
  0
ARC
  8
0
  6
CONTINUOUS
 62
     7
 10
123.6777038574219
 20
31.91984558105469
 40
20.60644149780273
 50
199.6232924010304
 51
210.3767968718118
  0
ARC
  8
0
  6
CONTINUOUS
 62
     7
 10
86.89080810546875
 20
14.57929992675781
 40
20.60608863830566
 50
19.62311982506829
 51
30.37678822038982
  0
ARC
  8
0
  6
CONTINUOUS
 62
     7
 10
86.8917236328125
 20
35.41929626464844
 40
20.6051139831543
 50
329.6228702701517
 51
340.3770850806068
  0
ARC
  8
0
  6
CONTINUOUS
 62
     7
 10
109.1222534179688
 20
24.99940490722656
 40
3.999999999999999
 50
90.00002299504557
 51
141.3122016253601
  0
ARC
  8
0
  6
CONTINUOUS
 62
     7
 10
109.1222534179688
 20
24.99940490722656
 40
3.999999999999995
 50
218.676624185158
 51
270.0000179860892
  0
ARC
  8
0
  6
CONTINUOUS
 62
     7
 10
114.900390625
 20
28.58940124511719
 40
1.89693927764892
 50
181.8088066681814
 51
222.4364657383315
  0
ARC
  8
0
  6
CONTINUOUS
 62
     7
 10
116.30029296875
 20
25.52940368652344
 40
3.318496704101559
 50
147.5551994324267
 51
173.945684347522
  0
ARC
  8
0
  6
CONTINUOUS
 62
     7
 10
116.30029296875
 20
24.46940612792969
 40
3.317879676818853
 50
186.0541790486946
 51
212.4449371713567
  0
ARC
  8
0
  6
CONTINUOUS
 62
     7
 10
114.900146484375
 20
21.40940856933594
 40
1.900939941406253
 50
137.5637801484787
 51
178.1913299356019
  0
ARC
  8
0
  6
CONTINUOUS
 62
     7
 10
114.688232421875
 20
23.61500549316406
 40
0.799999952316291
 50
195.4435308176843
 51
265.0003741551529
  0
ARC
  8
0
  6
CONTINUOUS
 62
     7
 10
114.688232421875
 20
26.38429260253906
 40
0.7999999523162835
 50
94.99902478819979
 51
164.5576166540961
  0
ARC
  8
0
  6
CONTINUOUS
 62
     7
 10
119.700439453125
 20
24.99952697753906
 40
6.000000000000003
 50
164.5573980880427
 51
195.4430217412202
  0
ARC
  8
0
  6
CONTINUOUS
 62
     7
 10
131.100341796875
 20
4.758316040039063
 40
0.5999999642372117
 50
286.3876635409438
 51
355.0000009992272
  0
ARC
  8
0
  6
CONTINUOUS
 62
     7
 10
128.89990234375
 20
4.758316040039063
 40
0.5999999642371989
 50
185.0000076521949
 51
253.6124270727472
  0
ARC
  8
0
  6
CONTINUOUS
 62
     7
 10
130
 20
8.499771118164063
 40
4.500000000000002
 50
253.6123724312343
 51
286.3877181824577
  0
ARC
  8
0
  6
CONTINUOUS
 62
     7
 10
171.100341796875
 20
4.758316040039063
 40
0.5999999642372117
 50
286.3876635409438
 51
355.0000009992272
  0
ARC
  8
0
  6
CONTINUOUS
 62
     7
 10
168.89990234375
 20
4.758316040039063
 40
0.5999999642371989
 50
185.0000076521949
 51
253.6124270727472
  0
ARC
  8
0
  6
CONTINUOUS
 62
     7
 10
170
 20
8.499771118164063
 40
4.500000000000002
 50
253.6123724312343
 51
286.3877181824577
  0
CIRCLE
  8
0
  6
DASHED
 62
     7
 10
137.5
 20
14.49977111816406
 40
2.5
  0
CIRCLE
  8
0
  6
DASHED
 62
     7
 10
137.5
 20
14.49977111816406
 40
2.150000095367432
  0
POLYLINE
  8
0
  6
CONTINUOUS
 62
     7
 66
     1
 10
0
 20
0
 70
     1
  0
VERTEX
  8
0
  6
CONTINUOUS
 62
     7
 10
-10.52001953125
 20
27.499755859375
 42
0.2551566262753455
  0
VERTEX
  8
0
  6
CONTINUOUS
 62
     7
 10
-11.04983380485096
 20
27.07486984180768
 42
0.06319202127017938
  0
VERTEX
  8
0
  6
CONTINUOUS
 62
     7
 10
-11.30393481016158
 20
26.41198384223226
 42
0.03518723155369126
  0
VERTEX
  8
0
  6
CONTINUOUS
 62
     7
 10
-11.43066833847829
 20
25.711933226455
 42
0.02798634075670235
  0
VERTEX
  8
0
  6
CONTINUOUS
 62
     7
 10
-11.47003173828125
 20
24.999755859375
 42
0.02790042739441539
  0
VERTEX
  8
0
  6
CONTINUOUS
 62
     7
 10
-11.43089705396777
 20
24.28960685033918
 42
0.03516099155844391
  0
VERTEX
  8
0
  6
CONTINUOUS
 62
     7
 10
-11.30439945075523
 20
23.58931546162707
 42
0.06315632573670833
  0
VERTEX
  8
0
  6
CONTINUOUS
 62
     7
 10
-11.05036174980767
 20
22.92557579882347
 42
0.2552820019294748
  0
VERTEX
  8
0
  6
CONTINUOUS
 62
     7
 10
-10.52001953125
 20
22.499755859375
 42
0.2551565157842219
  0
VERTEX
  8
0
  6
CONTINUOUS
 62
     7
 10
-9.990205798133916
 20
22.92464254238715
 42
0.06319180547940582
  0
VERTEX
  8
0
  6
CONTINUOUS
 62
     7
 10
-9.736104934832669
 20
23.58752861407366
 42
0.03518713975325814
  0
VERTEX
  8
0
  6
CONTINUOUS
 62
     7
 10
-9.609371155832877
 20
24.28757919021407
 42
0.0279862793079554
  0
VERTEX
  8
0
  6
CONTINUOUS
 62
     7
 10
-9.57000732421875
 20
24.999755859375
 42
0.02790037349677384
  0
VERTEX
  8
0
  6
CONTINUOUS
 62
     7
 10
-9.60914247414286
 20
25.70990485272378
 42
0.03516092150862156
  0
VERTEX
  8
0
  6
CONTINUOUS
 62
     7
 10
-9.735640368279206
 20
26.41019619239467
 42
0.06315619284228431
  0
VERTEX
  8
0
  6
CONTINUOUS
 62
     7
 10
-9.989678091682343
 20
27.07393585849151
 42
0.2552818958341371
  0
SEQEND
  8
0
  0
POLYLINE
  8
0
  6
CONTINUOUS
 62
     7
 66
     1
 10
0
 20
0
  0
VERTEX
  8
0
  6
CONTINUOUS
 62
     7
 10
-6.784084133817254
 20
22.15131799567569
 42
0.1748976475272184
  0
VERTEX
  8
0
  6
CONTINUOUS
 62
     7
 10
-6.43444308870966
 20
22.33407988155277
 42
0.07058250405959185
  0
VERTEX
  8
0
  6
CONTINUOUS
 62
     7
 10
-6.198416061377462
 20
22.65871512560652
 42
0.03759291811875389
  0
VERTEX
  8
0
  6
CONTINUOUS
 62
     7
 10
-6.033577187612107
 20
23.02653983453115
 42
0.02501724597597105
  0
VERTEX
  8
0
  6
CONTINUOUS
 62
     7
 10
-5.914905209399479
 20
23.41195315835878
 42
0.01911907435885773
  0
VERTEX
  8
0
  6
CONTINUOUS
 62
     7
 10
-5.830154849502369
 20
23.80681817014862
 42
0.01600573374199392
  0
VERTEX
  8
0
  6
CONTINUOUS
 62
     7
 10
-5.773118419147799
 20
24.20674992937977
 42
0.0143611167275389
  0
VERTEX
  8
0
  6
CONTINUOUS
 62
     7
 10
-5.74034274019419
 20
24.6094552113445
 42
0.01364792661668327
  0
VERTEX
  8
0
  6
CONTINUOUS
 62
     7
 10
-5.730084380166739
 20
25.01335067208616
 42
0.01363280387131997
  0
VERTEX
  8
0
  6
CONTINUOUS
 62
     7
 10
-5.741761878166753
 20
25.41605010255137
 42
0.01442076998224232
  0
VERTEX
  8
0
  6
CONTINUOUS
 62
     7
 10
-5.775985589772217
 20
25.81822040873997
 42
0.01619210252242332
  0
VERTEX
  8
0
  6
CONTINUOUS
 62
     7
 10
-5.834823394189185
 20
26.2188422010468
 42
0.01940827381505903
  0
VERTEX
  8
0
  6
CONTINUOUS
 62
     7
 10
-5.92161535317385
 20
26.61340605065395
 42
0.0256330736624749
  0
VERTEX
  8
0
  6
CONTINUOUS
 62
     7
 10
-6.043145274123787
 20
26.99871345962943
 42
0.03903325640738066
  0
VERTEX
  8
0
  6
CONTINUOUS
 62
     7
 10
-6.212301333354604
 20
27.36558256374184
 42
0.07518700551348265
  0
VERTEX
  8
0
  6
CONTINUOUS
 62
     7
 10
-6.456356847178339
 20
27.68639776862734
 42
0.1875584003505872
  0
VERTEX
  8
0
  6
CONTINUOUS
 62
     7
 10
-6.81622934148223
 20
27.8497289734952
 42
0
  0
SEQEND
  8
0
  0
POLYLINE
  8
0
  6
CONTINUOUS
 62
     7
 66
     1
 10
0
 20
0
  0
VERTEX
  8
0
  6
CONTINUOUS
 62
     7
 10
-7.781702066744705
 20
21.75080154185922
 42
0.1986696730362423
  0
VERTEX
  8
0
  6
CONTINUOUS
 62
     7
 10
-7.358990163609923
 20
21.9128484615499
 42
0.08045071062130844
  0
VERTEX
  8
0
  6
CONTINUOUS
 62
     7
 10
-7.0691199987999
 20
22.27420902519524
 42
0.04084381013049557
  0
VERTEX
  8
0
  6
CONTINUOUS
 62
     7
 10
-6.869278522830429
 20
22.69346427408435
 42
0.02648289189434795
  0
VERTEX
  8
0
  6
CONTINUOUS
 62
     7
 10
-6.726072024754936
 20
23.13558849581295
 42
0.01993056175755336
  0
VERTEX
  8
0
  6
CONTINUOUS
 62
     7
 10
-6.623758267418053
 20
23.58980479193844
 42
0.01651573583079665
  0
VERTEX
  8
0
  6
CONTINUOUS
 62
     7
 10
-6.554515150548934
 20
24.05044305439645
 42
0.01471205925181984
  0
VERTEX
  8
0
  6
CONTINUOUS
 62
     7
 10
-6.514009493405505
 20
24.51455815078118
 42
0.01391603957348623
  0
VERTEX
  8
0
  6
CONTINUOUS
 62
     7
 10
-6.500022028545282
 20
24.98048540888991
 42
0.01384014068224344
  0
VERTEX
  8
0
  6
CONTINUOUS
 62
     7
 10
-6.511782234704812
 20
25.44494703912289
 42
0.01459144953179491
  0
VERTEX
  8
0
  6
CONTINUOUS
 62
     7
 10
-6.549882909314284
 20
25.90872088092531
 42
0.01634489410113692
  0
VERTEX
  8
0
  6
CONTINUOUS
 62
     7
 10
-6.616662034114444
 20
26.37073933091914
 42
0.01955982132183529
  0
VERTEX
  8
0
  6
CONTINUOUS
 62
     7
 10
-6.715976799034332
 20
26.82586634756257
 42
0.02580116643862923
  0
VERTEX
  8
0
  6
CONTINUOUS
 62
     7
 10
-6.855645240304095
 20
27.27029739786328
 42
0.03926439457699019
  0
VERTEX
  8
0
  6
CONTINUOUS
 62
     7
 10
-7.050580460816548
 20
27.69337091894306
 42
0.07564124963602276
  0
VERTEX
  8
0
  6
CONTINUOUS
 62
     7
 10
-7.332362567497815
 20
28.06298716486133
 42
0.188315769486664
  0
VERTEX
  8
0
  6
CONTINUOUS
 62
     7
 10
-7.747783850886996
 20
28.24975072453826
 42
0
  0
SEQEND
  8
0
  0
POLYLINE
  8
0
  6
CONTINUOUS
 62
     7
 66
     1
 10
0
 20
0
  0
VERTEX
  8
0
  6
CONTINUOUS
 62
     7
 10
104.5929003306268
 20
27.19061607400179
 42
0.03566879921255046
  0
VERTEX
  8
0
  6
CONTINUOUS
 62
     7
 10
104.3258007441891
 20
27.00396171299401
 42
0.03446531427306228
  0
VERTEX
  8
0
  6
CONTINUOUS
 62
     7
 10
104.0875881529653
 20
26.78197807209717
 42
0.03332021329846707
  0
VERTEX
  8
0
  6
CONTINUOUS
 62
     7
 10
103.881532195696
 20
26.52983267311224
 42
0.03228374124775875
  0
VERTEX
  8
0
  6
CONTINUOUS
 62
     7
 10
103.7101901239645
 20
26.25287215450554
 42
0.03140906007782243
  0
VERTEX
  8
0
  6
CONTINUOUS
 62
     7
 10
103.5753747930095
 20
25.95635444753678
 42
0.03072995852919597
  0
VERTEX
  8
0
  6
CONTINUOUS
 62
     7
 10
103.4783153028558
 20
25.64538562296239
 42
0.03026585676678509
  0
VERTEX
  8
0
  6
CONTINUOUS
 62
     7
 10
103.4197879240625
 20
25.32491873347841
 42
0.03006051896074033
  0
VERTEX
  8
0
  6
CONTINUOUS
 62
     7
 10
103.4002075195313
 20
24.99942016601563
 42
0.02998390724955776
  0
VERTEX
  8
0
  6
CONTINUOUS
 62
     7
 10
103.4196840212108
 20
24.67475382800353
 42
0.03025726298468248
  0
VERTEX
  8
0
  6
CONTINUOUS
 62
     7
 10
103.4780878377585
 20
24.35435528011012
 42
0.0307159020885781
  0
VERTEX
  8
0
  6
CONTINUOUS
 62
     7
 10
103.5749889100449
 20
24.04347794910499
 42
0.03139632614425156
  0
VERTEX
  8
0
  6
CONTINUOUS
 62
     7
 10
103.7096319873494
 20
23.74699750427902
 42
0.03227757766464282
  0
VERTEX
  8
0
  6
CONTINUOUS
 62
     7
 10
103.8808302584582
 20
23.46997722809841
 42
0.03332260340901744
  0
VERTEX
  8
0
  6
CONTINUOUS
 62
     7
 10
104.0868072714719
 20
23.21768146850797
 42
0.03447489819589897
  0
VERTEX
  8
0
  6
CONTINUOUS
 62
     7
 10
104.3250162373242
 20
22.99549812018032
 42
0.03565474463004266
  0
VERTEX
  8
0
  6
CONTINUOUS
 62
     7
 10
104.5919598207939
 20
22.80876825172562
 42
0
  0
SEQEND
  8
0
  0
POLYLINE
  8
0
  6
CONTINUOUS
 62
     7
 66
     1
 10
0
 20
0
  0
VERTEX
  8
0
  6
CONTINUOUS
 62
     7
 10
103.80029296875
 20
24.99940490722656
 42
0.01660460792199085
  0
VERTEX
  8
0
  6
CONTINUOUS
 62
     7
 10
103.8080513611063
 20
24.7658296775735
 42
0.01667132155767052
  0
VERTEX
  8
0
  6
CONTINUOUS
 62
     7
 10
103.8313623121878
 20
24.5328875027479
 42
0.01673525577503866
  0
VERTEX
  8
0
  6
CONTINUOUS
 62
     7
 10
103.8701412782035
 20
24.30218964059521
 42
0.01692883163831185
  0
VERTEX
  8
0
  6
CONTINUOUS
 62
     7
 10
103.9246056287401
 20
24.07354696804729
 42
0.01702257425854783
  0
VERTEX
  8
0
  6
CONTINUOUS
 62
     7
 10
103.9942190722831
 20
23.84988216725359
 42
0.01720850177512696
  0
VERTEX
  8
0
  6
CONTINUOUS
 62
     7
 10
104.0789652215557
 20
23.63150598880365
 42
0.01742869359160371
  0
VERTEX
  8
0
  6
CONTINUOUS
 62
     7
 10
104.1786215593269
 20
23.41951625811906
 42
0.0176807494728979
  0
VERTEX
  8
0
  6
CONTINUOUS
 62
     7
 10
104.2929060326507
 20
23.21503338838483
 42
0.01796153746766089
  0
VERTEX
  8
0
  6
CONTINUOUS
 62
     7
 10
104.4214670836001
 20
23.01919949382298
 42
0.0182670548970291
  0
VERTEX
  8
0
  6
CONTINUOUS
 62
     7
 10
104.5638726633667
 20
22.83317512798745
 42
0.01859229767958325
  0
VERTEX
  8
0
  6
CONTINUOUS
 62
     7
 10
104.7195986135613
 20
22.6581331857451
 42
0.01893115699308095
  0
VERTEX
  8
0
  6
CONTINUOUS
 62
     7
 10
104.8880169666826
 20
22.49524953703527
 42
0.01927636806448451
  0
VERTEX
  8
0
  6
CONTINUOUS
 62
     7
 10
105.0683849105005
 20
22.34569005044948
 42
0.01961953929297156
  0
VERTEX
  8
0
  6
CONTINUOUS
 62
     7
 10
105.2598353510007
 20
22.21059384273094
 42
0.01995129102992446
  0
VERTEX
  8
0
  6
CONTINUOUS
 62
     7
 10
105.4613701708432
 20
22.09105285963997
 42
0.02026152781448357
  0
VERTEX
  8
0
  6
CONTINUOUS
 62
     7
 10
105.6718573641424
 20
21.98808826164164
 42
0
  0
SEQEND
  8
0
  0
POLYLINE
  8
0
  6
CONTINUOUS
 62
     7
 66
     1
 10
0
 20
0
  0
VERTEX
  8
0
  6
CONTINUOUS
 62
     7
 10
105.6716754806027
 20
28.01065097673378
 42
0.02023525059597376
  0
VERTEX
  8
0
  6
CONTINUOUS
 62
     7
 10
105.4614652543258
 20
27.90781891544134
 42
0.01993953382799308
  0
VERTEX
  8
0
  6
CONTINUOUS
 62
     7
 10
105.2600471708136
 20
27.7883647717698
 42
0.01957278447937399
  0
VERTEX
  8
0
  6
CONTINUOUS
 62
     7
 10
105.0690402766042
 20
27.65363373413132
 42
0.01934275717295656
  0
VERTEX
  8
0
  6
CONTINUOUS
 62
     7
 10
104.8880365610963
 20
27.50359036409625
 42
0.01892541245480017
  0
VERTEX
  8
0
  6
CONTINUOUS
 62
     7
 10
104.7196685761547
 20
27.34076224789087
 42
0.01858788447293335
  0
VERTEX
  8
0
  6
CONTINUOUS
 62
     7
 10
104.5639752784645
 20
27.16577153474084
 42
0.01826419811848462
  0
VERTEX
  8
0
  6
CONTINUOUS
 62
     7
 10
104.4215843772928
 20
26.97978782263051
 42
0.01796028345433523
  0
VERTEX
  8
0
  6
CONTINUOUS
 62
     7
 10
104.2930221194686
 20
26.78397938237267
 42
0.01768097022574035
  0
VERTEX
  8
0
  6
CONTINUOUS
 62
     7
 10
104.1787244272348
 20
26.57950454826096
 42
0.01743009093569051
  0
VERTEX
  8
0
  6
CONTINUOUS
 62
     7
 10
104.0790478020877
 20
26.36750621512413
 42
0.01721060923704485
  0
VERTEX
  8
0
  6
CONTINUOUS
 62
     7
 10
103.9942794787999
 20
26.14910899192626
 42
0.01702475496923457
  0
VERTEX
  8
0
  6
CONTINUOUS
 62
     7
 10
103.924646479137
 20
25.92541854303931
 42
0.01687415261143898
  0
VERTEX
  8
0
  6
CONTINUOUS
 62
     7
 10
103.8703233458448
 20
25.69752266796454
 42
0.01675993443933719
  0
VERTEX
  8
0
  6
CONTINUOUS
 62
     7
 10
103.8314384336714
 20
25.46649371078256
 42
0.01668283337016903
  0
VERTEX
  8
0
  6
CONTINUOUS
 62
     7
 10
103.8080786992093
 20
25.23339193839046
 42
0.01663361801059522
  0
VERTEX
  8
0
  6
CONTINUOUS
 62
     7
 10
103.80029296875
 20
24.99940490722656
 42
0
  0
SEQEND
  8
0
  0
TEXT
  8
0
  6
CONTINUOUS
 62
     7
 10
-1.284999847412109
 20
-11.79999971389771
 40
3.59999942779541
 41
1.006159424033143
  1
HSR20YRM
  0
ENDSEC
  0
EOF
