  0
SECTION
  2
HEADER
  0
ENDSEC
  0
SECTION
  2
TABLES
  0
TABLE
  2
LTYPE
 70
    22
  0
LTYPE
  2
CONTINUOUS
 70
    64
  3
Solid line
 72
    65
 73
     0
 40
0.000000
  0
LTYPE
  2
DASHED
 70
    64
  3
__ __ __ __ __ __ __ __ __ __ __ __ __ __ __
 72
    65
 73
     2
 40
3.500000
 49
2.000000
 49
-1.500000
  0
LTYPE
  2
CENTER
 70
    64
  3
____ _ ____ _ ____ _ ____ _ ____ _ ____ _ ____
 72
    65
 73
     4
 40
17.500000
 49
13.000000
 49
-1.500000
 49
1.500000
 49
-1.500000
  0
LTYPE
  2
PHANTOM
 70
    64
  3
_____ _ _ _____ _ _ _____ _ _ _____ _ _ ____  
 72
    65
 73
     6
 40
15.500000
 49
8.000000
 49
-1.500000
 49
1.500000
 49
-1.500000
 49
1.500000
 49
-1.500000
  0
LTYPE
  2
DOT
 70
    64
  3
. . . . . . . . . . . . . . . . . . . . . . . .
 72
    65
 73
     2
 40
0.25
 49
0.0
 49
-0.25
  0
ENDTAB
  0
TABLE
  2
LAYER
 70
     1
  0
LAYER
  2
0
 70
     0
 62
     7
  6
CONTINUOUS
  0
ENDTAB
  0
TABLE
  2
STYLE
 70
     1
  0
STYLE
  2
STANDARD
 70
     0
 40
0.000000
 41
1.000000
 50
0.000000
 71
     0
 42
0.200000
  3
txt
  0
ENDTAB
  0
TABLE
  2
VIEW
 70
     0
  0
ENDTAB
  0
ENDSEC
  0
SECTION
  2
BLOCKS
  0
ENDSEC
  0
SECTION
  2
ENTITIES
  0
LINE
  8
0
  6
CONTINUOUS
 62
     7
 10
65.55928802490234
 20
0
 11
285.5592956542969
 21
0
  0
LINE
  8
0
  6
CONTINUOUS
 62
     7
 10
65.55928802490234
 20
22
 11
124.3092575073242
 21
22
  0
LINE
  8
0
  6
CONTINUOUS
 62
     7
 10
65.55928802490234
 20
6.099853515625
 11
150.8804626464844
 21
6.099853515625
  0
LINE
  8
0
  6
CONTINUOUS
 62
     7
 10
65.55928802490234
 20
9.7998046875
 11
124.3092575073242
 21
9.7998046875
  0
LINE
  8
0
  6
CONTINUOUS
 62
     7
 10
65.55928802490234
 20
13.3798828125
 11
124.3092575073242
 21
13.3798828125
  0
LINE
  8
0
  6
CONTINUOUS
 62
     7
 10
65.55928802490234
 20
19.29783248901367
 11
124.3092575073242
 21
19.29783248901367
  0
LINE
  8
0
  6
CONTINUOUS
 62
     7
 10
65.55928802490234
 20
21.37410926818848
 11
124.3092575073242
 21
21.37410926818848
  0
LINE
  8
0
  6
CONTINUOUS
 62
     7
 10
65.55928802490234
 20
16.70192337036133
 11
124.3092575073242
 21
16.70192337036133
  0
LINE
  8
0
  6
CENTER
 62
     7
 10
85.55928802490234
 20
23
 11
85.55928802490234
 21
-1
  0
LINE
  8
0
  6
CONTINUOUS
 62
     7
 10
65.55928802490234
 20
22
 11
65.55928802490234
 21
0
  0
LINE
  8
0
  6
CENTER
 62
     7
 10
145.5592956542969
 20
8.5
 11
145.5592956542969
 21
-1
  0
LINE
  8
0
  6
DASHED
 62
     7
 10
80.05928802490234
 20
22
 11
80.05928802490234
 21
13
  0
LINE
  8
0
  6
DASHED
 62
     7
 10
91.05928802490234
 20
22
 11
91.05928802490234
 21
13
  0
LINE
  8
0
  6
DASHED
 62
     7
 10
89.05928802490234
 20
13
 11
89.05928802490234
 21
0
  0
LINE
  8
0
  6
DASHED
 62
     7
 10
82.05928802490234
 20
13
 11
82.05928802490234
 21
0
  0
LINE
  8
0
  6
DASHED
 62
     7
 10
80.05928802490234
 20
13
 11
91.05928802490234
 21
13
  0
LINE
  8
0
  6
CONTINUOUS
 62
     7
 10
285.5592956542969
 20
21.37410926818848
 11
226.809326171875
 21
21.37410926818848
  0
LINE
  8
0
  6
CONTINUOUS
 62
     7
 10
285.5592956542969
 20
22
 11
226.809326171875
 21
22
  0
LINE
  8
0
  6
CENTER
 62
     7
 10
265.5592956542969
 20
23
 11
265.5592956542969
 21
-1
  0
LINE
  8
0
  6
CONTINUOUS
 62
     7
 10
285.5592956542969
 20
19.29783248901367
 11
226.809326171875
 21
19.29783248901367
  0
LINE
  8
0
  6
CONTINUOUS
 62
     7
 10
285.5592956542969
 20
13.3798828125
 11
226.809326171875
 21
13.3798828125
  0
LINE
  8
0
  6
CONTINUOUS
 62
     7
 10
285.5592956542969
 20
16.70192337036133
 11
226.809326171875
 21
16.70192337036133
  0
LINE
  8
0
  6
CONTINUOUS
 62
     7
 10
285.5592956542969
 20
22
 11
285.5592956542969
 21
0
  0
LINE
  8
0
  6
CENTER
 62
     7
 10
205.5592956542969
 20
8.5
 11
205.5592956542969
 21
-1
  0
LINE
  8
0
  6
CONTINUOUS
 62
     7
 10
285.5592956542969
 20
9.7998046875
 11
226.809326171875
 21
9.7998046875
  0
LINE
  8
0
  6
CONTINUOUS
 62
     7
 10
127.8092575073242
 20
147
 11
127.8092575073242
 21
101
  0
LINE
  8
0
  6
CONTINUOUS
 62
     7
 10
126.3092575073242
 20
147
 11
126.3092575073242
 21
101
  0
LINE
  8
0
  6
CONTINUOUS
 62
     7
 10
124.3092575073242
 20
136.2001953125
 11
124.3092575073242
 21
111.7998046875
  0
LINE
  8
0
  6
CENTER
 62
     7
 10
64.55928802490234
 20
124
 11
286.5592956542969
 21
124
  0
LINE
  8
0
  6
CONTINUOUS
 62
     7
 10
65.55928802490234
 20
135.5
 11
65.55928802490234
 21
112.5
  0
LINE
  8
0
  6
CONTINUOUS
 62
     7
 10
124.3092575073242
 20
111.7998123168945
 11
126.3092575073242
 21
109.7998123168945
  0
LINE
  8
0
  6
CONTINUOUS
 62
     7
 10
124.3092575073242
 20
136.2001953125
 11
126.3092575073242
 21
138.2001953125
  0
LINE
  8
0
  6
CONTINUOUS
 62
     7
 10
126.3092575073242
 20
101
 11
136.2592620849609
 21
101
  0
LINE
  8
0
  6
CONTINUOUS
 62
     7
 10
126.3092575073242
 20
147
 11
136.2592620849609
 21
147
  0
LINE
  8
0
  6
CONTINUOUS
 62
     7
 10
226.8092651367188
 20
136.2001953125
 11
224.8092651367188
 21
138.2001953125
  0
LINE
  8
0
  6
CONTINUOUS
 62
     7
 10
226.8092651367188
 20
111.7998046875
 11
224.8092651367188
 21
109.7998046875
  0
LINE
  8
0
  6
CONTINUOUS
 62
     7
 10
224.8092651367188
 20
101
 11
214.8592529296875
 21
101
  0
LINE
  8
0
  6
CONTINUOUS
 62
     7
 10
224.8092651367188
 20
147
 11
214.8592529296875
 21
147
  0
LINE
  8
0
  6
CONTINUOUS
 62
     7
 10
226.8092651367188
 20
136.2001953125
 11
226.8092651367188
 21
111.7998046875
  0
LINE
  8
0
  6
CONTINUOUS
 62
     7
 10
224.8092651367188
 20
147
 11
224.8092651367188
 21
101
  0
LINE
  8
0
  6
CONTINUOUS
 62
     7
 10
223.3092651367188
 20
147
 11
223.3092651367188
 21
101
  0
LINE
  8
0
  6
CONTINUOUS
 62
     7
 10
65.55928802490234
 20
112.5
 11
124.3092575073242
 21
112.5
  0
LINE
  8
0
  6
CONTINUOUS
 62
     7
 10
65.55928802490234
 20
115.58984375
 11
114.8710250854492
 21
115.58984375
  0
LINE
  8
0
  6
CONTINUOUS
 62
     7
 10
65.55928802490234
 20
132.409912109375
 11
124.3092575073242
 21
132.409912109375
  0
LINE
  8
0
  6
CONTINUOUS
 62
     7
 10
65.55928802490234
 20
135.5
 11
124.3092575073242
 21
135.5
  0
LINE
  8
0
  6
CENTER
 62
     7
 10
85.55928802490234
 20
130.5
 11
85.55928802490234
 21
117.5
  0
LINE
  8
0
  6
CONTINUOUS
 62
     7
 10
285.5592346191406
 20
135.5
 11
285.5592346191406
 21
112.5
  0
LINE
  8
0
  6
CONTINUOUS
 62
     7
 10
285.5592346191406
 20
135.5
 11
226.8092651367188
 21
135.5
  0
LINE
  8
0
  6
CONTINUOUS
 62
     7
 10
285.5592346191406
 20
132.409912109375
 11
226.8092651367188
 21
132.409912109375
  0
LINE
  8
0
  6
CONTINUOUS
 62
     7
 10
285.5592346191406
 20
115.58984375
 11
226.8092651367188
 21
115.58984375
  0
LINE
  8
0
  6
CONTINUOUS
 62
     7
 10
285.5592346191406
 20
112.5
 11
226.8092651367188
 21
112.5
  0
LINE
  8
0
  6
CENTER
 62
     7
 10
145.5592956542969
 20
130.5
 11
145.5592956542969
 21
117.5
  0
LINE
  8
0
  6
CENTER
 62
     7
 10
205.5592956542969
 20
130.5
 11
205.5592956542969
 21
117.5
  0
LINE
  8
0
  6
CENTER
 62
     7
 10
265.5592956542969
 20
130.5
 11
265.5592956542969
 21
117.5
  0
LINE
  8
0
  6
CONTINUOUS
 62
     7
 10
125.3593063354492
 20
135.5
 11
125.3593063354492
 21
132.500244140625
  0
LINE
  8
0
  6
CONTINUOUS
 62
     7
 10
125.3593063354492
 20
115.5
 11
125.3593063354492
 21
112.500244140625
  0
LINE
  8
0
  6
CENTER
 62
     7
 10
124.8092575073242
 20
114.0001220703125
 11
127.8092575073242
 21
114.0001220703125
  0
LINE
  8
0
  6
CENTER
 62
     7
 10
124.8092575073242
 20
134.0001220703125
 11
127.8092575073242
 21
134.0001220703125
  0
LINE
  8
0
  6
CENTER
 62
     7
 10
226.3092651367188
 20
134.0001220703125
 11
223.3092651367188
 21
134.0001220703125
  0
LINE
  8
0
  6
CENTER
 62
     7
 10
226.3092651367188
 20
114.0001220703125
 11
223.3092651367188
 21
114.0001220703125
  0
LINE
  8
0
  6
CONTINUOUS
 62
     7
 10
225.7592163085938
 20
115.5
 11
225.7592163085938
 21
112.500244140625
  0
LINE
  8
0
  6
CONTINUOUS
 62
     7
 10
225.7592163085938
 20
135.5
 11
225.7592163085938
 21
132.500244140625
  0
LINE
  8
0
  6
CENTER
 62
     7
 10
116.0066757202148
 20
124
 11
127.9454727172852
 21
124
  0
LINE
  8
0
  6
CONTINUOUS
 62
     7
 10
121.0093612670898
 20
128
 11
124.3092727661133
 21
128
  0
LINE
  8
0
  6
CONTINUOUS
 62
     7
 10
122.6293869018555
 20
120
 11
124.3092727661133
 21
120
  0
LINE
  8
0
  6
CONTINUOUS
 62
     7
 10
117.0093612670898
 20
124
 11
117.0093612670898
 21
122.327880859375
  0
LINE
  8
0
  6
CONTINUOUS
 62
     7
 10
124.3092575073242
 20
128
 11
126.3092575073242
 21
128
  0
LINE
  8
0
  6
CONTINUOUS
 62
     7
 10
124.3092575073242
 20
120
 11
126.3092575073242
 21
120
  0
LINE
  8
0
  6
CENTER
 62
     7
 10
116.5611114501953
 20
112.4778823852539
 11
121.4264221191406
 21
124.223762512207
  0
LINE
  8
0
  6
CONTINUOUS
 62
     7
 10
114.7920379638672
 20
114.4784393310547
 11
119.2266616821289
 21
112.6415557861328
  0
LINE
  8
0
  6
CONTINUOUS
 62
     7
 10
114.9938049316406
 20
117.3173370361328
 11
121.0914001464844
 21
114.791633605957
  0
LINE
  8
0
  6
CONTINUOUS
 62
     7
 10
114.7920379638672
 20
114.4784469604492
 11
114.9938049316406
 21
117.3173446655273
  0
LINE
  8
0
  6
CONTINUOUS
 62
     7
 10
119.2266616821289
 20
112.6415557861328
 11
121.0914077758789
 21
114.791633605957
  0
LINE
  8
0
  6
CONTINUOUS
 62
     7
 10
115.7325134277344
 20
121.0381851196289
 11
116.1471862792969
 21
122.0392532348633
  0
LINE
  8
0
  6
CONTINUOUS
 62
     7
 10
123.2001037597656
 20
117.9449996948242
 11
123.6147613525391
 21
118.9460678100586
  0
LINE
  8
0
  6
CONTINUOUS
 62
     7
 10
116.9266052246094
 20
122.3620834350586
 11
116.1471633911133
 21
122.0392303466797
  0
LINE
  8
0
  6
CONTINUOUS
 62
     7
 10
117.3698043823242
 20
119.7105941772461
 11
118.2423858642578
 21
121.8171615600586
  0
LINE
  8
0
  6
CONTINUOUS
 62
     7
 10
121.1035919189453
 20
118.1640090942383
 11
121.9761581420898
 21
120.2705688476563
  0
LINE
  8
0
  6
CONTINUOUS
 62
     7
 10
116.9266357421875
 20
122.3621597290039
 11
123.2919387817383
 21
119.7255630493164
  0
LINE
  8
0
  6
CONTINUOUS
 62
     7
 10
123.6147689819336
 20
118.9460601806641
 11
123.2919082641602
 21
119.7255096435547
  0
LINE
  8
0
  6
CONTINUOUS
 62
     7
 10
116.1240692138672
 20
118.7394866943359
 11
121.2977828979492
 21
116.5964508056641
  0
LINE
  8
0
  6
CONTINUOUS
 62
     7
 10
115.9623031616211
 20
120.2935943603516
 11
122.5110931396484
 21
117.5809936523438
  0
LINE
  8
0
  6
CONTINUOUS
 62
     7
 10
121.3097305297852
 20
115.58984375
 11
124.3092575073242
 21
115.58984375
  0
LINE
  8
0
  6
CENTER
 62
     7
 10
-15.599853515625
 20
8.5
 11
-15.599853515625
 21
4.5
  0
LINE
  8
0
  6
CENTER
 62
     7
 10
15.60009765625
 20
10.59999084472656
 11
15.60009765625
 21
4.183494567871094
  0
LINE
  8
0
  6
CONTINUOUS
 62
     7
 10
10
 20
0
 11
2.25
 21
0
  0
LINE
  8
0
  6
CONTINUOUS
 62
     7
 10
-8.409912109375
 20
22
 11
8.41015625
 21
22
  0
LINE
  8
0
  6
CONTINUOUS
 62
     7
 10
-11.5
 20
18.91015625
 11
-11.5
 21
17.080078125
  0
LINE
  8
0
  6
CONTINUOUS
 62
     7
 10
11.5
 20
18.91015625
 11
11.5
 21
17.080078125
  0
LINE
  8
0
  6
CONTINUOUS
 62
     7
 10
7.800048828125
 20
13.380126953125
 11
7.800048828125
 21
9.800048828125
  0
LINE
  8
0
  6
CONTINUOUS
 62
     7
 10
-7.7998046875
 20
13.380126953125
 11
-7.7998046875
 21
9.800048828125
  0
LINE
  8
0
  6
CONTINUOUS
 62
     7
 10
-11.49977111816406
 20
18.91010475158691
 11
-11.07871818542481
 21
19.33115768432617
  0
LINE
  8
0
  6
CONTINUOUS
 62
     7
 10
-11.49977016448975
 20
6.100008010864258
 11
-7.799716949462891
 21
9.800061225891113
  0
LINE
  8
0
  6
CONTINUOUS
 62
     7
 10
7.800287246704102
 20
13.37998390197754
 11
9.033915519714356
 21
14.61361217498779
  0
LINE
  8
0
  6
CONTINUOUS
 62
     7
 10
8.410212516784668
 20
22.00010299682617
 11
9.035836219787598
 21
21.37447929382324
  0
LINE
  8
0
  6
CONTINUOUS
 62
     7
 10
7.800168514251709
 20
9.800093650817871
 11
11.50020027160645
 21
6.100061893463135
  0
LINE
  8
0
  6
CONTINUOUS
 62
     7
 10
-11.49978160858154
 20
17.07991981506348
 11
-11.09081268310547
 21
16.67094993591309
  0
LINE
  8
0
  6
CONTINUOUS
 62
     7
 10
-11.5
 20
6.10009765625
 11
-11.5
 21
1.5
  0
LINE
  8
0
  6
CONTINUOUS
 62
     7
 10
11.5
 20
6.10009765625
 11
11.5
 21
1.5
  0
LINE
  8
0
  6
CONTINUOUS
 62
     7
 10
-11.49982261657715
 20
1.500062823295593
 11
-9.999809265136719
 21
4.998615258955397E-005
  0
LINE
  8
0
  6
CONTINUOUS
 62
     7
 10
11.50016593933106
 20
1.5000239610672
 11
10.00015354156494
 21
1.121106834034436E-005
  0
LINE
  8
0
  6
CONTINUOUS
 62
     7
 10
-9.033539772033691
 20
14.61367702484131
 11
-7.799900054931641
 21
13.38003730773926
  0
LINE
  8
0
  6
CONTINUOUS
 62
     7
 10
-9.035428047180176
 20
21.37444686889648
 11
-8.409804344177246
 21
22.00007057189941
  0
LINE
  8
0
  6
CONTINUOUS
 62
     7
 10
11.07919788360596
 20
19.33111763000488
 11
11.50017929077148
 21
18.91013526916504
  0
LINE
  8
0
  6
CONTINUOUS
 62
     7
 10
11.09118843078613
 20
16.67088508605957
 11
11.50015735626221
 21
17.07985305786133
  0
LINE
  8
0
  6
CONTINUOUS
 62
     7
 10
-1.75
 20
0.5
 11
1.75
 21
0.5
  0
LINE
  8
0
  6
CONTINUOUS
 62
     7
 10
-2.249841451644898
 20
-2.899703213188332E-005
 11
-1.749722242355347
 21
0.5000902414321899
  0
LINE
  8
0
  6
CONTINUOUS
 62
     7
 10
1.750152111053467
 20
0.5001657605171204
 11
2.250271320343018
 21
4.653012001654133E-005
  0
LINE
  8
0
  6
CONTINUOUS
 62
     7
 10
-2.249755859375
 20
0
 11
-9.999759674072266
 21
0
  0
LINE
  8
0
  6
CENTER
 62
     7
 10
-5
 20
30
 11
13.70941162109375
 21
30
  0
LINE
  8
0
  6
CONTINUOUS
 62
     7
 10
-22.749755859375
 20
7.5
 11
-10.099853515625
 21
7.5
  0
LINE
  8
0
  6
CONTINUOUS
 62
     7
 10
18
 20
7.5
 11
21.50048828125
 21
7.5
  0
LINE
  8
0
  6
CONTINUOUS
 62
     7
 10
1.780029296875
 20
33.5
 11
5.860107421875
 21
33.5
  0
LINE
  8
0
  6
CONTINUOUS
 62
     7
 10
1.780029296875
 20
26.5
 11
5.860107421875
 21
26.5
  0
LINE
  8
0
  6
CONTINUOUS
 62
     7
 10
1.130232334136963
 20
30.00018882751465
 11
1.780265212059021
 21
26.49997901916504
  0
LINE
  8
0
  6
CONTINUOUS
 62
     7
 10
1.130270123481751
 20
30.00000190734863
 11
1.780258417129517
 21
33.49997329711914
  0
LINE
  8
0
  6
CONTINUOUS
 62
     7
 10
3.440334320068359
 20
30.00000953674316
 11
4.09033727645874
 21
26.50004196166992
  0
LINE
  8
0
  6
CONTINUOUS
 62
     7
 10
3.440199613571167
 20
30.00008773803711
 11
4.090202331542969
 21
33.50005722045898
  0
LINE
  8
0
  6
CONTINUOUS
 62
     7
 10
5.950561046600342
 20
26.97007179260254
 11
5.860508441925049
 21
26.49985885620117
  0
LINE
  8
0
  6
CONTINUOUS
 62
     7
 10
5.950516223907471
 20
33.02014541625977
 11
5.860522270202637
 21
33.50006103515625
  0
LINE
  8
0
  6
CONTINUOUS
 62
     7
 10
7.766203880310059
 20
26.75434684753418
 11
10.52004337310791
 21
27.49996948242188
  0
LINE
  8
0
  6
CONTINUOUS
 62
     7
 10
7.750214576721191
 20
33.24991226196289
 11
10.5203447341919
 21
32.4998779296875
  0
LINE
  8
0
  6
CONTINUOUS
 62
     7
 10
0.00069834990426898
 20
25.38089561462402
 11
1.947875142097473
 21
26.49997711181641
  0
LINE
  8
0
  6
CONTINUOUS
 62
     7
 10
-0.0002379439974902198
 20
34.61909866333008
 11
1.938170552253723
 21
33.49995803833008
  0
LINE
  8
0
  6
CONTINUOUS
 62
     7
 10
-17.7998046875
 20
7.400146484375
 11
-11.39990234375
 21
7.400146484375
  0
LINE
  8
0
  6
CONTINUOUS
 62
     7
 10
-17.7998046875
 20
7.5
 11
-17.7998046875
 21
7.400146484375
  0
LINE
  8
0
  6
CONTINUOUS
 62
     7
 10
11.400146484375
 20
7.400146484375
 11
17.800048828125
 21
7.400146484375
  0
LINE
  8
0
  6
CONTINUOUS
 62
     7
 10
17.800048828125
 20
7.400146484375
 11
17.800048828125
 21
7.5
  0
LINE
  8
0
  6
CONTINUOUS
 62
     7
 10
23
 20
33.5
 11
23
 21
9
  0
LINE
  8
0
  6
CONTINUOUS
 62
     7
 10
-21.50005340576172
 20
35
 11
21.5
 21
35
  0
LINE
  8
0
  6
CONTINUOUS
 62
     7
 10
21.50008392333984
 20
34.99996948242188
 11
23.00008964538574
 21
33.49995422363281
  0
LINE
  8
0
  6
CONTINUOUS
 62
     7
 10
23.00027847290039
 20
9.000056266784668
 11
21.5002613067627
 21
7.50004768371582
  0
LINE
  8
0
  6
CONTINUOUS
 62
     7
 10
10.10009765625
 20
7.5
 11
22.75
 21
7.5
  0
LINE
  8
0
  6
CONTINUOUS
 62
     7
 10
-9.527587890625
 20
24.7001953125
 11
9.52783203125
 21
24.7001953125
  0
LINE
  8
0
  6
CONTINUOUS
 62
     7
 10
10.35023498535156
 20
11.04272079467773
 11
13.89284706115723
 21
7.50010871887207
  0
LINE
  8
0
  6
CONTINUOUS
 62
     7
 10
10.35009765625
 20
12.307373046875
 11
10.35009765625
 21
11.042724609375
  0
LINE
  8
0
  6
CONTINUOUS
 62
     7
 10
10.35032081604004
 20
12.30734729766846
 11
14.20039367675781
 21
16.15741920471191
  0
LINE
  8
0
  6
CONTINUOUS
 62
     7
 10
9.527852058410645
 20
24.70010185241699
 11
14.20022106170654
 21
20.02773284912109
  0
LINE
  8
0
  6
CONTINUOUS
 62
     7
 10
-23
 20
9
 11
-23
 21
33.50004196166992
  0
LINE
  8
0
  6
CONTINUOUS
 62
     7
 10
-21.49984169006348
 20
7.500010967254639
 11
-22.99985885620117
 21
9.000019073486328
  0
LINE
  8
0
  6
CONTINUOUS
 62
     7
 10
-13.89245986938477
 20
7.500076293945313
 11
-10.3498477935791
 21
11.04268836975098
  0
LINE
  8
0
  6
CONTINUOUS
 62
     7
 10
-10.349853515625
 20
11.042724609375
 11
-10.349853515625
 21
12.307373046875
  0
LINE
  8
0
  6
CONTINUOUS
 62
     7
 10
-14.19971561431885
 20
16.15724754333496
 11
-10.34990215301514
 21
12.30743408203125
  0
LINE
  8
0
  6
CONTINUOUS
 62
     7
 10
-14.19959735870361
 20
20.02793884277344
 11
-9.527443885803223
 21
24.7000904083252
  0
LINE
  8
0
  6
CONTINUOUS
 62
     7
 10
-3.99807071685791
 20
32.31107330322266
 11
-0.0003287560830358416
 21
34.61917114257813
  0
LINE
  8
0
  6
CONTINUOUS
 62
     7
 10
-3.997915744781494
 20
27.68954467773438
 11
0.0006861041183583438
 21
25.38095092773438
  0
LINE
  8
0
  6
CONTINUOUS
 62
     7
 10
-3.998046875
 20
32.311279296875
 11
-3.998046875
 21
27.689453125
  0
LINE
  8
0
  6
CONTINUOUS
 62
     7
 10
-13.90169048309326
 20
6.206043720245361
 11
-13.84972858428955
 21
7.400064468383789
  0
LINE
  8
0
  6
CONTINUOUS
 62
     7
 10
-17.34962844848633
 20
7.400127410888672
 11
-17.29766654968262
 21
6.206106662750244
  0
LINE
  8
0
  6
DASHED
 62
     7
 10
-5.5
 20
22
 11
-5.5
 21
13
  0
LINE
  8
0
  6
DASHED
 62
     7
 10
5.5
 20
22
 11
5.5
 21
13
  0
LINE
  8
0
  6
DASHED
 62
     7
 10
3.5
 20
13
 11
3.5
 21
0
  0
LINE
  8
0
  6
DASHED
 62
     7
 10
-3.5
 20
13
 11
-3.5
 21
0
  0
LINE
  8
0
  6
DASHED
 62
     7
 10
-5.5
 20
13
 11
5.5
 21
13
  0
LINE
  8
0
  6
CENTER
 62
     7
 10
0
 20
40.611572265625
 11
0
 21
-1.47607421875
  0
LINE
  8
0
  6
CONTINUOUS
 62
     7
 10
-22.499755859375
 20
40
 11
-8.849853515625
 21
40
  0
LINE
  8
0
  6
CONTINUOUS
 62
     7
 10
24
 20
38.5
 11
24
 21
32
  0
LINE
  8
0
  6
CONTINUOUS
 62
     7
 10
-24
 20
38.5
 11
-24
 21
32
  0
LINE
  8
0
  6
CONTINUOUS
 62
     7
 10
23.75
 20
31.75
 11
23.75
 21
8.5
  0
LINE
  8
0
  6
CONTINUOUS
 62
     7
 10
-23.75
 20
31.75
 11
-23.75
 21
8.500228881835938
  0
LINE
  8
0
  6
CONTINUOUS
 62
     7
 10
-8
 20
39.150146484375
 11
8.00008487701416
 21
39.150146484375
  0
LINE
  8
0
  6
CONTINUOUS
 62
     7
 10
-22.74980354309082
 20
7.500030994415283
 11
-23.74986839294434
 21
8.500097274780273
  0
LINE
  8
0
  6
CONTINUOUS
 62
     7
 10
23.75026893615723
 20
8.50002384185791
 11
22.75020217895508
 21
7.499958038330078
  0
LINE
  8
0
  6
CONTINUOUS
 62
     7
 10
-22.49980163574219
 20
40.0000114440918
 11
-23.99980926513672
 21
38.49999618530273
  0
LINE
  8
0
  6
CONTINUOUS
 62
     7
 10
22.50016593933106
 20
40.00004959106445
 11
24.00017356872559
 21
38.50003433227539
  0
LINE
  8
0
  6
CONTINUOUS
 62
     7
 10
8.849944114685059
 20
40
 11
22.5
 21
40
  0
LINE
  8
0
  6
CONTINUOUS
 62
     7
 10
-7.999820232391357
 20
39.14988327026367
 11
-8.849870681762695
 21
39.99992752075195
  0
LINE
  8
0
  6
CENTER
 62
     7
 10
-17.5
 20
41.4072265625
 11
-17.5
 21
27.384765625
  0
LINE
  8
0
  6
DASHED
 62
     7
 10
-20.5
 20
40
 11
-20.5
 21
32
  0
LINE
  8
0
  6
DASHED
 62
     7
 10
-14.5
 20
40
 11
-14.5
 21
32
  0
LINE
  8
0
  6
DASHED
 62
     7
 10
-14.89990234375
 20
40
 11
-14.89990234375
 21
29.650146484375
  0
LINE
  8
0
  6
DASHED
 62
     7
 10
-20.099853515625
 20
40
 11
-20.099853515625
 21
29.650146484375
  0
LINE
  8
0
  6
DASHED
 62
     7
 10
-20.5
 20
32
 11
-14.5
 21
32
  0
LINE
  8
0
  6
DASHED
 62
     7
 10
-20.099853515625
 20
29.650146484375
 11
-14.89990234375
 21
29.650146484375
  0
LINE
  8
0
  6
DASHED
 62
     7
 10
-14.8997220993042
 20
29.65007972717285
 11
-17.49969863891602
 21
28.14897537231445
  0
LINE
  8
0
  6
DASHED
 62
     7
 10
-20.09972763061523
 20
29.64994239807129
 11
-17.49974632263184
 21
28.14884185791016
  0
LINE
  8
0
  6
DASHED
 62
     7
 10
-14.49940586090088
 20
31.99996566772461
 11
-14.89942073822022
 21
31.30709838867188
  0
LINE
  8
0
  6
DASHED
 62
     7
 10
-20.49968910217285
 20
31.99994659423828
 11
-20.09976387023926
 21
31.30725479125977
  0
LINE
  8
0
  6
CENTER
 62
     7
 10
17.5
 20
26.701171875
 11
17.5
 21
41.4072265625
  0
LINE
  8
0
  6
CONTINUOUS
 62
     7
 10
23.75016975402832
 20
31.74994850158691
 11
24.00015068054199
 21
31.99991416931152
  0
LINE
  8
0
  6
CONTINUOUS
 62
     7
 10
-23.99967765808106
 20
31.99994468688965
 11
-23.74969673156738
 21
31.74997901916504
  0
LINE
  8
0
  6
CENTER
 62
     7
 10
-13.75
 20
30
 11
-6.25
 21
30
  0
LINE
  8
0
  6
CENTER
 62
     7
 10
-10
 20
33.75
 11
-10
 21
26.25
  0
LINE
  8
0
  6
CENTER
 62
     7
 10
10
 20
26.25
 11
10
 21
33.75
  0
LINE
  8
0
  6
CONTINUOUS
 62
     7
 10
-14.19970703125
 20
20.02783203125
 11
-14.19970703125
 21
16.157470703125
  0
LINE
  8
0
  6
DASHED
 62
     7
 10
147.9594116210938
 20
29.650146484375
 11
153.1593627929688
 21
29.650146484375
  0
LINE
  8
0
  6
DASHED
 62
     7
 10
150.5592956542969
 20
28.1487922668457
 11
147.9593200683594
 21
29.6498966217041
  0
LINE
  8
0
  6
DASHED
 62
     7
 10
150.5592803955078
 20
28.14884185791016
 11
153.1592559814453
 21
29.64994049072266
  0
LINE
  8
0
  6
DASHED
 62
     7
 10
147.9592437744141
 20
31.30709648132324
 11
147.5592346191406
 21
31.99996376037598
  0
LINE
  8
0
  6
DASHED
 62
     7
 10
153.1594848632813
 20
31.30714797973633
 11
153.5593872070313
 21
31.99979972839356
  0
LINE
  8
0
  6
CONTINUOUS
 62
     7
 10
137.9096527099609
 20
40
 11
213.2095947265625
 21
40
  0
LINE
  8
0
  6
CONTINUOUS
 62
     7
 10
14.2001953125
 20
20.02783203125
 11
14.2001953125
 21
16.157470703125
  0
LINE
  8
0
  6
CENTER
 62
     7
 10
152.559326171875
 20
8.5
 11
152.559326171875
 21
4.5
  0
LINE
  8
0
  6
CENTER
 62
     7
 10
198.5591735839844
 20
8.5
 11
198.5591735839844
 21
4.5
  0
LINE
  8
0
  6
CONTINUOUS
 62
     7
 10
223.3092956542969
 20
7.5
 11
223.3092956542969
 21
35
  0
LINE
  8
0
  6
CONTINUOUS
 62
     7
 10
226.8092956542969
 20
7.5
 11
226.8092956542969
 21
22.7001953125
  0
LINE
  8
0
  6
CONTINUOUS
 62
     7
 10
224.8092956542969
 20
7.5
 11
224.8092956542969
 21
35
  0
LINE
  8
0
  6
CONTINUOUS
 62
     7
 10
223.3092956542969
 20
35
 11
224.8092956542969
 21
35
  0
LINE
  8
0
  6
CONTINUOUS
 62
     7
 10
223.3092956542969
 20
7.5
 11
226.8092956542969
 21
7.5
  0
LINE
  8
0
  6
CONTINUOUS
 62
     7
 10
224.8093414306641
 20
24.69998931884766
 11
226.8092956542969
 21
22.70003128051758
  0
LINE
  8
0
  6
CONTINUOUS
 62
     7
 10
214.8592529296875
 20
35
 11
222.3092956542969
 21
35
  0
LINE
  8
0
  6
CONTINUOUS
 62
     7
 10
214.8592529296875
 20
7.5
 11
223.3092956542969
 21
7.5
  0
LINE
  8
0
  6
CONTINUOUS
 62
     7
 10
223.3094177246094
 20
33.99990081787109
 11
222.3093414306641
 21
34.99995803833008
  0
LINE
  8
0
  6
CENTER
 62
     7
 10
113.1095581054688
 20
29.99998474121094
 11
129.0380249023438
 21
29.99998474121094
  0
LINE
  8
0
  6
CONTINUOUS
 62
     7
 10
124.3095092773438
 20
25.88011169433594
 11
124.3095092773438
 21
34.12010192871094
  0
LINE
  8
0
  6
CONTINUOUS
 62
     7
 10
121.3095092773438
 20
33.99998474121094
 11
124.3095092773438
 21
33.99998474121094
  0
LINE
  8
0
  6
CONTINUOUS
 62
     7
 10
126.3095092773438
 20
34.62010192871094
 11
124.8095092773438
 21
34.62010192871094
  0
LINE
  8
0
  6
CONTINUOUS
 62
     7
 10
126.0402221679688
 20
32.31004333496094
 11
124.8095092773438
 21
32.31004333496094
  0
LINE
  8
0
  6
CONTINUOUS
 62
     7
 10
126.3095092773438
 20
25.38011169433594
 11
124.8095092773438
 21
25.38011169433594
  0
LINE
  8
0
  6
CONTINUOUS
 62
     7
 10
126.0402221679688
 20
27.69017028808594
 11
124.8095092773438
 21
27.69017028808594
  0
LINE
  8
0
  6
CONTINUOUS
 62
     7
 10
124.8091888427734
 20
25.38003730773926
 11
124.3092422485352
 21
25.87998390197754
  0
LINE
  8
0
  6
CONTINUOUS
 62
     7
 10
124.3093795776367
 20
34.11993408203125
 11
124.809326171875
 21
34.61988067626953
  0
LINE
  8
0
  6
CONTINUOUS
 62
     7
 10
122.4093627929688
 20
26.49998474121094
 11
117.2094116210938
 21
26.49998474121094
  0
LINE
  8
0
  6
CONTINUOUS
 62
     7
 10
122.4093627929688
 20
26.46018981933594
 11
122.4093627929688
 21
26.49998474121094
  0
LINE
  8
0
  6
CONTINUOUS
 62
     7
 10
123.9095306396484
 20
30.00004768371582
 11
122.4095458984375
 21
26.50007057189941
  0
LINE
  8
0
  6
CONTINUOUS
 62
     7
 10
123.0093078613281
 20
30.00004005432129
 11
121.409294128418
 21
26.50003051757813
  0
LINE
  8
0
  6
CONTINUOUS
 62
     7
 10
117.2094039916992
 20
26.49996185302734
 11
116.8093872070313
 21
27.07999229431152
  0
LINE
  8
0
  6
CONTINUOUS
 62
     7
 10
117.2093734741211
 20
33.50001525878906
 11
116.8093566894531
 21
32.91997909545898
  0
LINE
  8
0
  6
CONTINUOUS
 62
     7
 10
122.4093627929688
 20
33.49998474121094
 11
117.2094116210938
 21
33.49998474121094
  0
LINE
  8
0
  6
CONTINUOUS
 62
     7
 10
123.0094528198242
 20
29.99990081787109
 11
121.4094467163086
 21
33.49990844726563
  0
LINE
  8
0
  6
CONTINUOUS
 62
     7
 10
123.9091796875
 20
30.00002098083496
 11
122.4091949462891
 21
33.49999618530273
  0
LINE
  8
0
  6
CONTINUOUS
 62
     7
 10
121.3095092773438
 20
25.99998474121094
 11
124.3095092773438
 21
25.99998474121094
  0
LINE
  8
0
  6
CENTER
 62
     7
 10
221.1906433105469
 20
30
 11
227.8994445800781
 21
30
  0
LINE
  8
0
  6
CONTINUOUS
 62
     7
 10
225.7592468261719
 20
28.500244140625
 11
225.7592468261719
 21
31.5
  0
LINE
  8
0
  6
CONTINUOUS
 62
     7
 10
127.8092651367188
 20
35
 11
127.8092651367188
 21
7.5
  0
LINE
  8
0
  6
CONTINUOUS
 62
     7
 10
124.3092651367188
 20
22.7001953125
 11
124.3092651367188
 21
7.5
  0
LINE
  8
0
  6
CONTINUOUS
 62
     7
 10
126.3092651367188
 20
35
 11
126.3092651367188
 21
7.5
  0
LINE
  8
0
  6
CONTINUOUS
 62
     7
 10
126.3092651367188
 20
35
 11
127.8092651367188
 21
35
  0
LINE
  8
0
  6
CONTINUOUS
 62
     7
 10
124.3092651367188
 20
7.5
 11
127.8092651367188
 21
7.5
  0
LINE
  8
0
  6
CONTINUOUS
 62
     7
 10
124.309211730957
 20
22.70006942749023
 11
126.3091735839844
 21
24.70002746582031
  0
LINE
  8
0
  6
CONTINUOUS
 62
     7
 10
128.8092651367188
 20
35
 11
136.2592620849609
 21
35
  0
LINE
  8
0
  6
CONTINUOUS
 62
     7
 10
127.8092651367188
 20
7.5
 11
136.2592620849609
 21
7.5
  0
LINE
  8
0
  6
CONTINUOUS
 62
     7
 10
128.8092193603516
 20
34.99994277954102
 11
127.8091506958008
 21
33.99988555908203
  0
LINE
  8
0
  6
CONTINUOUS
 62
     7
 10
125.3593139648438
 20
31.5
 11
125.3593139648438
 21
28.500244140625
  0
LINE
  8
0
  6
CONTINUOUS
 62
     7
 10
154.2574920654297
 20
6.205997943878174
 11
154.3181915283203
 21
7.500000953674316
  0
LINE
  8
0
  6
CONTINUOUS
 62
     7
 10
150.8007049560547
 20
7.5
 11
150.8613891601563
 21
6.206161022186279
  0
LINE
  8
0
  6
CONTINUOUS
 62
     7
 10
136.2592620849609
 20
38.35009765625
 11
136.2592620849609
 21
7.5
  0
LINE
  8
0
  6
CONTINUOUS
 62
     7
 10
214.8592529296875
 20
7.5
 11
214.8592529296875
 21
38.35009765625
  0
LINE
  8
0
  6
CONTINUOUS
 62
     7
 10
136.2592620849609
 20
7.5
 11
214.8592529296875
 21
7.5
  0
LINE
  8
0
  6
CONTINUOUS
 62
     7
 10
136.2594146728516
 20
38.34983825683594
 11
137.9094390869141
 21
39.9998779296875
  0
LINE
  8
0
  6
CONTINUOUS
 62
     7
 10
213.2094421386719
 20
40.00009918212891
 11
214.8594665527344
 21
38.35006332397461
  0
LINE
  8
0
  6
CENTER
 62
     7
 10
200.5592498779297
 20
26.701171875
 11
200.5592498779297
 21
41
  0
LINE
  8
0
  6
DASHED
 62
     7
 10
153.5592651367188
 20
32
 11
153.5592651367188
 21
40
  0
LINE
  8
0
  6
CENTER
 62
     7
 10
150.5592651367188
 20
26.701171875
 11
150.5592651367188
 21
41
  0
LINE
  8
0
  6
DASHED
 62
     7
 10
147.9594116210938
 20
29.650146484375
 11
147.9594116210938
 21
40
  0
LINE
  8
0
  6
DASHED
 62
     7
 10
147.5592651367188
 20
32
 11
153.5592651367188
 21
32
  0
LINE
  8
0
  6
DASHED
 62
     7
 10
153.1593627929688
 20
29.650146484375
 11
153.1593627929688
 21
40
  0
LINE
  8
0
  6
DASHED
 62
     7
 10
147.5592651367188
 20
32
 11
147.5592651367188
 21
40
  0
LINE
  8
0
  6
CONTINUOUS
 62
     7
 10
-21.50008392333984
 20
34.99996948242188
 11
-23.00008964538574
 21
33.49995422363281
  0
LINE
  8
0
  6
CONTINUOUS
 62
     7
 10
136.2592620849609
 20
100
 11
214.8592529296875
 21
100
  0
LINE
  8
0
  6
CONTINUOUS
 62
     7
 10
136.2592620849609
 20
147.9998016357422
 11
214.8592529296875
 21
147.9998016357422
  0
LINE
  8
0
  6
CONTINUOUS
 62
     7
 10
136.2592620849609
 20
132.849853515625
 11
214.8592529296875
 21
132.849853515625
  0
LINE
  8
0
  6
CONTINUOUS
 62
     7
 10
136.2592620849609
 20
115.189697265625
 11
214.8592529296875
 21
115.189697265625
  0
LINE
  8
0
  6
CONTINUOUS
 62
     7
 10
136.2592620849609
 20
147.9998016357422
 11
136.2592620849609
 21
100
  0
LINE
  8
0
  6
CONTINUOUS
 62
     7
 10
214.8592529296875
 20
147.9998016357422
 11
214.8592529296875
 21
100
  0
LINE
  8
0
  6
CENTER
 62
     7
 10
150.5592651367188
 20
110.5
 11
150.5592651367188
 21
102.5
  0
LINE
  8
0
  6
CENTER
 62
     7
 10
146.5592651367188
 20
106.5
 11
154.5592651367188
 21
106.5
  0
LINE
  8
0
  6
CENTER
 62
     7
 10
150.5592651367188
 20
145.5
 11
150.5592651367188
 21
137.5
  0
LINE
  8
0
  6
CENTER
 62
     7
 10
146.5592651367188
 20
141.5
 11
154.5592651367188
 21
141.5
  0
LINE
  8
0
  6
CENTER
 62
     7
 10
200.5592498779297
 20
145.5
 11
200.5592498779297
 21
137.5
  0
LINE
  8
0
  6
CENTER
 62
     7
 10
196.5592498779297
 20
141.5
 11
204.5592498779297
 21
141.5
  0
LINE
  8
0
  6
CENTER
 62
     7
 10
200.5592498779297
 20
110.5
 11
200.5592498779297
 21
102.5
  0
LINE
  8
0
  6
CENTER
 62
     7
 10
196.5592498779297
 20
106.5
 11
204.5592498779297
 21
106.5
  0
LINE
  8
0
  6
CONTINUOUS
 62
     7
 10
136.2592620849609
 20
32
 11
214.8592529296875
 21
32
  0
LINE
  8
0
  6
CONTINUOUS
 62
     7
 10
8.00008487701416
 20
39.150146484375
 11
8.849943161010742
 21
40
  0
LINE
  8
0
  6
CONTINUOUS
 62
     7
 10
154.2383117675781
 20
6.099853515625
 11
285.5592956542969
 21
6.099853515625
  0
CIRCLE
  8
0
  6
CONTINUOUS
 62
     7
 10
85.55928802490234
 20
124
 40
5.5
  0
CIRCLE
  8
0
  6
CONTINUOUS
 62
     7
 10
85.55928802490234
 20
124
 40
3.5
  0
ARC
  8
0
  6
CONTINUOUS
 62
     7
 10
127.9598922729492
 20
134.0048828125
 40
2.999999999999991
 50
123.3850177712059
 51
150.1029692758683
  0
ARC
  8
0
  6
CONTINUOUS
 62
     7
 10
127.9598922729492
 20
133.995361328125
 40
2.999999999999993
 50
209.8970307241317
 51
236.6149822287941
  0
ARC
  8
0
  6
CONTINUOUS
 62
     7
 10
127.9598922729492
 20
113.995361328125
 40
2.999999999999993
 50
209.8970307241317
 51
236.6149822287943
  0
ARC
  8
0
  6
CONTINUOUS
 62
     7
 10
127.9598922729492
 20
114.0048828125
 40
3.000000000000002
 50
123.3850177712058
 51
150.1029692758683
  0
ARC
  8
0
  6
CONTINUOUS
 62
     7
 10
223.1586303710938
 20
114.0048828125
 40
2.999999999999998
 50
29.89703231799354
 51
56.61498382265611
  0
ARC
  8
0
  6
CONTINUOUS
 62
     7
 10
223.1586303710938
 20
113.995361328125
 40
3
 50
303.3850161773439
 51
330.1029676820065
  0
ARC
  8
0
  6
CONTINUOUS
 62
     7
 10
223.1586303710938
 20
133.995361328125
 40
3
 50
303.3850161773439
 51
330.1029676820065
  0
ARC
  8
0
  6
CONTINUOUS
 62
     7
 10
223.1586303710938
 20
134.0048828125
 40
2.999999999999998
 50
29.89703231799354
 51
56.61498382265611
  0
ARC
  8
0
  6
CONTINUOUS
 62
     7
 10
118.042610168457
 20
116.0544738769531
 40
3.299999237060547
 50
131.5803705110074
 51
157.4999548639652
  0
ARC
  8
0
  6
CONTINUOUS
 62
     7
 10
118.042610168457
 20
116.0544738769531
 40
3.29999923706055
 50
337.5000181569006
 51
3.419602296415172
  0
ARC
  8
0
  6
CONTINUOUS
 62
     7
 10
110.1262588500977
 20
118.9005737304688
 40
5.999999999999996
 50
2.433650829345525
 51
20.87173987704918
  0
ARC
  8
0
  6
CONTINUOUS
 62
     7
 10
125.6527938842773
 20
112.4692687988281
 40
6.000000000000004
 50
114.1278165022774
 51
132.5663219780771
  0
ARC
  8
0
  6
CONTINUOUS
 62
     7
 10
115.3215560913086
 20
119.1213684082031
 40
0.7999999523162822
 50
311.5798327472963
 51
2.433049772698627
  0
ARC
  8
0
  6
CONTINUOUS
 62
     7
 10
122.1352920532227
 20
116.2990264892578
 40
0.7999999523162843
 50
132.566977676238
 51
183.4201402735703
  0
ARC
  8
0
  6
CONTINUOUS
 62
     7
 10
121.0093612670898
 20
124
 40
3.999999999999998
 50
89.99998201391055
 51
180.0000186693347
  0
ARC
  8
0
  6
CONTINUOUS
 62
     7
 10
127.9598922729492
 20
29.995361328125
 40
2.999999999999995
 50
209.8970307241318
 51
236.6149822287941
  0
ARC
  8
0
  6
CONTINUOUS
 62
     7
 10
121.3095092773438
 20
30.000244140625
 40
3.982465744018556
 50
241.5040862782025
 51
269.9999087030625
  0
ARC
  8
0
  6
CONTINUOUS
 62
     7
 10
126.2094116210938
 20
33.590087890625
 40
1.900939941406243
 50
181.8086700643979
 51
222.4362198515213
  0
ARC
  8
0
  6
CONTINUOUS
 62
     7
 10
127.6095581054688
 20
30.5302734375
 40
3.317879676818851
 50
147.5550901494001
 51
173.9458482720621
  0
ARC
  8
0
  6
CONTINUOUS
 62
     7
 10
127.6095581054688
 20
29.47021484375
 40
3.318496704101556
 50
186.054315652478
 51
212.4448005675733
  0
ARC
  8
0
  6
CONTINUOUS
 62
     7
 10
126.2094116210938
 20
26.41015625
 40
1.896939277648931
 50
137.5635615824253
 51
178.1912206525752
  0
ARC
  8
0
  6
CONTINUOUS
 62
     7
 10
223.1586608886719
 20
29.995361328125
 40
2.999999999999996
 50
303.3850230075332
 51
330.1029881725739
  0
ARC
  8
0
  6
CONTINUOUS
 62
     7
 10
121.3095092773438
 20
30.000244140625
 40
3.999999999999998
 50
89.99998201391055
 51
118.4958044387707
  0
ARC
  8
0
  6
CONTINUOUS
 62
     7
 10
0
 20
30
 40
4
 50
240.0000239814524
 51
241.0449882829511
  0
ARC
  8
0
  6
CONTINUOUS
 62
     7
 10
-15.599853515625
 20
10
 40
4.5
 50
253.6123724312344
 51
286.3877181824576
  0
ARC
  8
0
  6
CONTINUOUS
 62
     7
 10
-14.49951171875
 20
6.258544921875
 40
0.5999999642372133
 50
286.3876635409443
 51
355.0000009992271
  0
ARC
  8
0
  6
CONTINUOUS
 62
     7
 10
-16.7001953125
 20
6.258544921875
 40
0.5999999642372131
 50
185.0000076521949
 51
253.6124270727479
  0
ARC
  8
0
  6
CONTINUOUS
 62
     7
 10
11.400146484375
 20
8
 40
0.5999999642372134
 50
236.4425336126296
 51
270.0000179860894
  0
ARC
  8
0
  6
CONTINUOUS
 62
     7
 10
6.6201171875
 20
25.920166015625
 40
1.246148109436035
 50
80.76452806729958
 51
142.1250351177266
  0
ARC
  8
0
  6
CONTINUOUS
 62
     7
 10
6.6201171875
 20
34.080078125
 40
1.254199028015138
 50
217.8749648822736
 51
279.2353626496737
  0
ARC
  8
0
  6
CONTINUOUS
 62
     7
 10
-11.39990234375
 20
8
 40
0.5999999642372134
 50
270.0000179860894
 51
303.5574716236979
  0
ARC
  8
0
  6
CONTINUOUS
 62
     7
 10
0
 20
30
 40
3.998106002807618
 50
63.34552394777273
 51
298.9059076658729
  0
ARC
  8
0
  6
CONTINUOUS
 62
     7
 10
0
 20
30
 40
4
 50
240.0000239814524
 51
241.0449882829511
  0
ARC
  8
0
  6
CONTINUOUS
 62
     7
 10
7.610107421875
 20
32.2900390625
 40
0.9701611399650598
 50
81.70288677623263
 51
144.668542923126
  0
ARC
  8
0
  6
CONTINUOUS
 62
     7
 10
153.6596069335938
 20
6.25830078125
 40
0.5999999642372117
 50
286.3876635409438
 51
355.0000009992272
  0
ARC
  8
0
  6
CONTINUOUS
 62
     7
 10
152.5592651367188
 20
10
 40
4.500000000000002
 50
253.6123724312343
 51
286.3877181824577
  0
ARC
  8
0
  6
CONTINUOUS
 62
     7
 10
-11.482421875
 20
21.778076171875
 40
2.479999542236328
 50
279.3651908854173
 51
350.6348441761449
  0
ARC
  8
0
  6
CONTINUOUS
 62
     7
 10
-11.482421875
 20
14.22216796875
 40
2.479999542236329
 50
9.085538124518461
 51
80.91440973844635
  0
ARC
  8
0
  6
CONTINUOUS
 62
     7
 10
11.482666015625
 20
21.778076171875
 40
2.479999542236329
 50
189.3652088715066
 51
260.6370102567283
  0
ARC
  8
0
  6
CONTINUOUS
 62
     7
 10
223.1586608886719
 20
30.0048828125
 40
2.999999999999993
 50
29.8970118274261
 51
56.61497699246686
  0
ARC
  8
0
  6
CONTINUOUS
 62
     7
 10
7.610107421875
 20
27.710205078125
 40
0.9683421850204466
 50
215.3314570768741
 51
278.2972225067941
  0
ARC
  8
0
  6
CONTINUOUS
 62
     7
 10
11.482666015625
 20
14.22216796875
 40
2.479999542236329
 50
99.08549964786162
 51
170.9144463938704
  0
ARC
  8
0
  6
CONTINUOUS
 62
     7
 10
127.9598922729492
 20
30.0048828125
 40
2.999999999999996
 50
123.3850177712058
 51
150.1029692758682
  0
ARC
  8
0
  6
CONTINUOUS
 62
     7
 10
151.4591674804688
 20
6.25830078125
 40
0.5999999642371989
 50
185.0000076521949
 51
253.6124270727472
  0
ARC
  8
0
  6
CONTINUOUS
 62
     7
 10
10
 20
30
 40
2.84999942779541
 50
258.5842037318701
 51
101.4225718157865
  0
CIRCLE
  8
0
  6
CONTINUOUS
 62
     7
 10
-10
 20
30
 40
2.84999942779541
  0
CIRCLE
  8
0
  6
CONTINUOUS
 62
     7
 10
150.5592651367188
 20
106.5
 40
3
  0
CIRCLE
  8
0
  6
CONTINUOUS
 62
     7
 10
150.5592651367188
 20
106.5
 40
2.599853515625
  0
POLYLINE
  8
0
  6
CONTINUOUS
 62
     7
 66
     1
 10
0
 20
0
  0
VERTEX
  8
0
  6
CONTINUOUS
 62
     7
 10
115.8854914149537
 20
27.81913082238484
 42
0.06283193787264772
  0
VERTEX
  8
0
  6
CONTINUOUS
 62
     7
 10
116.4497902278579
 20
27.29295883654003
 42
0.06649697188524306
  0
VERTEX
  8
0
  6
CONTINUOUS
 62
     7
 10
117.1297904737404
 20
26.92845416754843
 42
0.0691555607156271
  0
VERTEX
  8
0
  6
CONTINUOUS
 62
     7
 10
117.8821449991326
 20
26.75959548783848
 42
0.06975291675769496
  0
VERTEX
  8
0
  6
CONTINUOUS
 62
     7
 10
118.6508997813406
 20
26.80359359994905
 42
0.0681634727310398
  0
VERTEX
  8
0
  6
CONTINUOUS
 62
     7
 10
119.3787431158039
 20
27.05541530045495
 42
0.06499587775576105
  0
VERTEX
  8
0
  6
CONTINUOUS
 62
     7
 10
120.0153086764204
 20
27.49024674188663
 42
0.06129090380109204
  0
VERTEX
  8
0
  6
CONTINUOUS
 62
     7
 10
120.5233660107639
 20
28.07034772744223
 42
0.05807963780425716
  0
VERTEX
  8
0
  6
CONTINUOUS
 62
     7
 10
120.880362914061
 20
28.75434166714662
 42
0.05590544108875245
  0
VERTEX
  8
0
  6
CONTINUOUS
 62
     7
 10
121.0740212606206
 20
29.50148558820083
 42
0.05496308177652932
  0
VERTEX
  8
0
  6
CONTINUOUS
 62
     7
 10
121.0990361083526
 20
30.2722079899725
 42
0.05547408716437895
  0
VERTEX
  8
0
  6
CONTINUOUS
 62
     7
 10
120.9549576074326
 20
31.03009723461144
 42
0.05728054718102577
  0
VERTEX
  8
0
  6
CONTINUOUS
 62
     7
 10
120.6455479734332
 20
31.73653878209151
 42
0.06026828785420799
  0
VERTEX
  8
0
  6
CONTINUOUS
 62
     7
 10
120.1803088531727
 20
32.35184755267258
 42
0.06395226173060808
  0
VERTEX
  8
0
  6
CONTINUOUS
 62
     7
 10
119.5781024641549
 20
32.83422595966261
 42
0.06744462552558282
  0
VERTEX
  8
0
  6
CONTINUOUS
 62
     7
 10
118.8714455074998
 20
33.14368841507064
 42
0.06944120514016174
  0
VERTEX
  8
0
  6
CONTINUOUS
 62
     7
 10
118.1095581054688
 20
33.250244140625
 42
0
  0
SEQEND
  8
0
  0
POLYLINE
  8
0
  6
CONTINUOUS
 62
     7
 66
     1
 10
0
 20
0
  0
VERTEX
  8
0
  6
CONTINUOUS
 62
     7
 10
118.1095581054688
 20
33.250244140625
 42
0.01434925613230404
  0
VERTEX
  8
0
  6
CONTINUOUS
 62
     7
 10
117.9506772916019
 20
33.24568314165205
 42
0.01426059354928284
  0
VERTEX
  8
0
  6
CONTINUOUS
 62
     7
 10
117.7930664864813
 20
33.23210778307333
 42
0.01417570472160332
  0
VERTEX
  8
0
  6
CONTINUOUS
 62
     7
 10
117.6369676880886
 20
33.20966510458743
 42
0.01415089193438819
  0
VERTEX
  8
0
  6
CONTINUOUS
 62
     7
 10
117.4820057807161
 20
33.17834182624097
 42
0.0141015987553925
  0
VERTEX
  8
0
  6
CONTINUOUS
 62
     7
 10
117.328744034902
 20
33.13823423287506
 42
0.01402958965685499
  0
VERTEX
  8
0
  6
CONTINUOUS
 62
     7
 10
117.1777274370186
 20
33.08949014929306
 42
0.01393700395153509
  0
VERTEX
  8
0
  6
CONTINUOUS
 62
     7
 10
117.0294772095352
 20
33.0323047269259
 42
0.01382627869882488
  0
VERTEX
  8
0
  6
CONTINUOUS
 62
     7
 10
116.8844861911813
 20
32.96691545350246
 42
0.01370006397993786
  0
VERTEX
  8
0
  6
CONTINUOUS
 62
     7
 10
116.7432151943409
 20
32.89359660326448
 42
0.01356113628201409
  0
VERTEX
  8
0
  6
CONTINUOUS
 62
     7
 10
116.6060904036321
 20
32.81265336194687
 42
0.01332235787744643
  0
VERTEX
  8
0
  6
CONTINUOUS
 62
     7
 10
116.4743806627337
 20
32.72503506191156
 42
0.01328778346167373
  0
VERTEX
  8
0
  6
CONTINUOUS
 62
     7
 10
116.3463600035914
 20
32.62967200349232
 42
0.01315484944955561
  0
VERTEX
  8
0
  6
CONTINUOUS
 62
     7
 10
116.223307868677
 20
32.52746669379626
 42
0.01293831204926213
  0
VERTEX
  8
0
  6
CONTINUOUS
 62
     7
 10
116.1062636848575
 20
32.41945236894687
 42
0.01278031710618873
  0
VERTEX
  8
0
  6
CONTINUOUS
 62
     7
 10
115.9949273461308
 20
32.3055634137203
 42
0.01262530371819557
  0
VERTEX
  8
0
  6
CONTINUOUS
 62
     7
 10
115.8895179697872
 20
32.18616639816997
 42
0
  0
SEQEND
  8
0
  0
POLYLINE
  8
0
  6
CONTINUOUS
 62
     7
 66
     1
 10
0
 20
0
  0
VERTEX
  8
0
  6
CONTINUOUS
 62
     7
 10
6.820068359375
 20
32.84999084472656
 42
0.1885726779010779
  0
VERTEX
  8
0
  6
CONTINUOUS
 62
     7
 10
6.460337272862854
 20
32.6903032293245
 42
0.07574420959134427
  0
VERTEX
  8
0
  6
CONTINUOUS
 62
     7
 10
6.21610037367873
 20
32.37246863396099
 42
0.03933604236364117
  0
VERTEX
  8
0
  6
CONTINUOUS
 62
     7
 10
6.046235838095941
 20
32.00713646364739
 42
0.0257714888312618
  0
VERTEX
  8
0
  6
CONTINUOUS
 62
     7
 10
5.924078660353725
 20
31.62298674628062
 42
0.01950550062451576
  0
VERTEX
  8
0
  6
CONTINUOUS
 62
     7
 10
5.836585601761552
 20
31.22877556625424
 42
0.01621492887998294
  0
VERTEX
  8
0
  6
CONTINUOUS
 62
     7
 10
5.777223621651758
 20
30.82918493987645
 42
0.01446689375526031
  0
VERTEX
  8
0
  6
CONTINUOUS
 62
     7
 10
5.742354699333071
 20
30.42666044128232
 42
0.01369167337259289
  0
VERTEX
  8
0
  6
CONTINUOUS
 62
     7
 10
5.730105970076803
 20
30.02251636559609
 42
0.01360443429893682
  0
VERTEX
  8
0
  6
CONTINUOUS
 62
     7
 10
5.739822332585088
 20
29.6196712336005
 42
0.0143148783651798
  0
VERTEX
  8
0
  6
CONTINUOUS
 62
     7
 10
5.7719715713962
 20
29.21741989230632
 42
0.01598150507265729
  0
VERTEX
  8
0
  6
CONTINUOUS
 62
     7
 10
5.828481546157015
 20
28.81660183583432
 42
0.01902643065606218
  0
VERTEX
  8
0
  6
CONTINUOUS
 62
     7
 10
5.912541747673066
 20
28.42144823600337
 42
0.0248794808049606
  0
VERTEX
  8
0
  6
CONTINUOUS
 62
     7
 10
6.030555548529692
 20
28.03505169882654
 42
0.03729593317875837
  0
VERTEX
  8
0
  6
CONTINUOUS
 62
     7
 10
6.194628358783495
 20
27.66586740618315
 42
0.06998300092439491
  0
VERTEX
  8
0
  6
CONTINUOUS
 62
     7
 10
6.430211843666779
 20
27.33853552047146
 42
0.1738224015069715
  0
VERTEX
  8
0
  6
CONTINUOUS
 62
     7
 10
6.779978578989481
 20
27.151936980602
 42
0
  0
SEQEND
  8
0
  0
POLYLINE
  8
0
  6
CONTINUOUS
 62
     7
 66
     1
 10
0
 20
0
 70
     1
  0
VERTEX
  8
0
  6
CONTINUOUS
 62
     7
 10
117.0094299316406
 20
32.500244140625
 42
0.1103779272746026
  0
VERTEX
  8
0
  6
CONTINUOUS
 62
     7
 10
116.0972728636942
 20
32.29522769212641
 42
0.1025061450524885
  0
VERTEX
  8
0
  6
CONTINUOUS
 62
     7
 10
115.3499387636721
 20
31.73121986083467
 42
0.09328984808853304
  0
VERTEX
  8
0
  6
CONTINUOUS
 62
     7
 10
114.8723333213219
 20
30.92432791503686
 42
0.08782076648567096
  0
VERTEX
  8
0
  6
CONTINUOUS
 62
     7
 10
114.7094421386719
 20
30.00022888183594
 42
0.08777246315533391
  0
VERTEX
  8
0
  6
CONTINUOUS
 62
     7
 10
114.8721695751871
 20
29.07661093070987
 42
0.09326055755758879
  0
VERTEX
  8
0
  6
CONTINUOUS
 62
     7
 10
115.3494673011076
 20
28.26980529322675
 42
0.1026308571884344
  0
VERTEX
  8
0
  6
CONTINUOUS
 62
     7
 10
116.0976739121956
 20
27.70507395670947
 42
0.1103316736475323
  0
VERTEX
  8
0
  6
CONTINUOUS
 62
     7
 10
117.0094604492187
 20
27.500244140625
 42
0.1103778541385055
  0
VERTEX
  8
0
  6
CONTINUOUS
 62
     7
 10
117.9216173783657
 20
27.70526127662462
 42
0.102505986463948
  0
VERTEX
  8
0
  6
CONTINUOUS
 62
     7
 10
118.6689513602379
 20
28.26926930096672
 42
0.09328979000361701
  0
VERTEX
  8
0
  6
CONTINUOUS
 62
     7
 10
119.1465569911139
 20
29.07616115238762
 42
0.08782083634868826
  0
VERTEX
  8
0
  6
CONTINUOUS
 62
     7
 10
119.3094482421875
 20
30.00025939941406
 42
0.0877724332845901
  0
VERTEX
  8
0
  6
CONTINUOUS
 62
     7
 10
119.146720874507
 20
30.92387737839228
 42
0.09326054483882726
  0
VERTEX
  8
0
  6
CONTINUOUS
 62
     7
 10
118.6694232684627
 20
31.73068309509753
 42
0.1026308827886081
  0
VERTEX
  8
0
  6
CONTINUOUS
 62
     7
 10
117.9212167270475
 20
32.29541455169326
 42
0.1103318955870047
  0
SEQEND
  8
0
  0
POLYLINE
  8
0
  6
CONTINUOUS
 62
     7
 66
     1
 10
0
 20
0
 70
     1
  0
VERTEX
  8
0
  6
CONTINUOUS
 62
     7
 10
117.0094299316406
 20
31.000244140625
 42
0.1102634626286261
  0
VERTEX
  8
0
  6
CONTINUOUS
 62
     7
 10
116.644922431182
 20
30.91840398201788
 42
0.1025185085139831
  0
VERTEX
  8
0
  6
CONTINUOUS
 62
     7
 10
116.3458947247918
 20
30.69292706096891
 42
0.09329981495287038
  0
VERTEX
  8
0
  6
CONTINUOUS
 62
     7
 10
116.1547322916416
 20
30.37024255466426
 42
0.08791204489709364
  0
VERTEX
  8
0
  6
CONTINUOUS
 62
     7
 10
116.0894470214844
 20
30.000244140625
 42
0.08777240854047419
  0
VERTEX
  8
0
  6
CONTINUOUS
 62
     7
 10
116.1545372102596
 20
29.63079698125006
 42
0.09325973389907641
  0
VERTEX
  8
0
  6
CONTINUOUS
 62
     7
 10
116.3454549740333
 20
29.3080740828224
 42
0.1026299942191574
  0
VERTEX
  8
0
  6
CONTINUOUS
 62
     7
 10
116.6447358448568
 20
29.0821793617402
 42
0.1103350912213744
  0
VERTEX
  8
0
  6
CONTINUOUS
 62
     7
 10
117.0094604492188
 20
29.000244140625
 42
0.1102640962624961
  0
VERTEX
  8
0
  6
CONTINUOUS
 62
     7
 10
117.3739681257813
 20
29.08208318443653
 42
0.1025190703815055
  0
VERTEX
  8
0
  6
CONTINUOUS
 62
     7
 10
117.672995916918
 20
29.30755994106308
 42
0.09329987851582162
  0
VERTEX
  8
0
  6
CONTINUOUS
 62
     7
 10
117.8641580885695
 20
29.63024458891
 42
0.08791185664844819
  0
VERTEX
  8
0
  6
CONTINUOUS
 62
     7
 10
117.929443359375
 20
30.000244140625
 42
0.08777286163776039
  0
VERTEX
  8
0
  6
CONTINUOUS
 62
     7
 10
117.8643527915136
 20
30.36969120175326
 42
0.09325969011191966
  0
VERTEX
  8
0
  6
CONTINUOUS
 62
     7
 10
117.673434425011
 20
30.69241373682913
 42
0.1026294581853927
  0
VERTEX
  8
0
  6
CONTINUOUS
 62
     7
 10
117.3741533799784
 20
30.91830826420415
 42
0.1103341478263127
  0
SEQEND
  8
0
  0
POLYLINE
  8
0
  6
CONTINUOUS
 62
     7
 66
     1
 10
0
 20
0
  0
VERTEX
  8
0
  6
CONTINUOUS
 62
     7
 10
7.75
 20
33.25
 42
0.188650886634617
  0
VERTEX
  8
0
  6
CONTINUOUS
 62
     7
 10
7.335176339936563
 20
33.06581481268238
 42
0.07588873282306308
  0
VERTEX
  8
0
  6
CONTINUOUS
 62
     7
 10
7.053715040108791
 20
32.69909922466707
 42
0.03946210653137584
  0
VERTEX
  8
0
  6
CONTINUOUS
 62
     7
 10
6.858295081255292
 20
32.27757594584841
 42
0.02589551358249988
  0
VERTEX
  8
0
  6
CONTINUOUS
 62
     7
 10
6.718128340884406
 20
31.83431908164499
 42
0.01963311821542939
  0
VERTEX
  8
0
  6
CONTINUOUS
 62
     7
 10
6.61819559633743
 20
31.37952091467108
 42
0.01635620026062394
  0
VERTEX
  8
0
  6
CONTINUOUS
 62
     7
 10
6.550966645331165
 20
30.91858243030979
 42
0.01463240806319687
  0
VERTEX
  8
0
  6
CONTINUOUS
 62
     7
 10
6.512272208896336
 20
30.45430853617649
 42
0.01388413282193339
  0
VERTEX
  8
0
  6
CONTINUOUS
 62
     7
 10
6.500007728400826
 20
29.98859572805385
 42
0.01386058786413826
  0
VERTEX
  8
0
  6
CONTINUOUS
 62
     7
 10
6.513465663610211
 20
29.52426158147627
 42
0.0146715336346804
  0
VERTEX
  8
0
  6
CONTINUOUS
 62
     7
 10
6.5533620255207
 20
29.06056029359474
 42
0.01650604187225286
  0
VERTEX
  8
0
  6
CONTINUOUS
 62
     7
 10
6.622159173725639
 20
28.59871714852385
 42
0.01985489857588666
  0
VERTEX
  8
0
  6
CONTINUOUS
 62
     7
 10
6.723849302102207
 20
28.14411392118487
 42
0.02639109691682198
  0
VERTEX
  8
0
  6
CONTINUOUS
 62
     7
 10
6.866594247420096
 20
27.70065975608078
 42
0.0406509732321939
  0
VERTEX
  8
0
  6
CONTINUOUS
 62
     7
 10
7.066022719672096
 20
27.27970139353333
 42
0.07989400783617882
  0
VERTEX
  8
0
  6
CONTINUOUS
 62
     7
 10
7.355350475799208
 20
26.91622574348786
 42
0.1977504214628965
  0
VERTEX
  8
0
  6
CONTINUOUS
 62
     7
 10
7.77783539832434
 20
26.75080620034203
 42
0
  0
SEQEND
  8
0
  0
POLYLINE
  8
0
  6
CONTINUOUS
 62
     7
 66
     1
 10
0
 20
0
 70
     1
  0
VERTEX
  8
0
  6
CONTINUOUS
 62
     7
 10
10.52001953125
 20
32.5
 42
0.2551566096718412
  0
VERTEX
  8
0
  6
CONTINUOUS
 62
     7
 10
9.990205697803047
 20
32.07511353201534
 42
0.06319184911137921
  0
VERTEX
  8
0
  6
CONTINUOUS
 62
     7
 10
9.7361048620572
 20
31.41222750492618
 42
0.03518713495925148
  0
VERTEX
  8
0
  6
CONTINUOUS
 62
     7
 10
9.609371145564648
 20
30.71217696600283
 42
0.02798626466636508
  0
VERTEX
  8
0
  6
CONTINUOUS
 62
     7
 10
9.57000732421875
 20
30
 42
0.0279004320423075
  0
VERTEX
  8
0
  6
CONTINUOUS
 62
     7
 10
9.609142561808071
 20
29.28985106782708
 42
0.0351609506413189
  0
VERTEX
  8
0
  6
CONTINUOUS
 62
     7
 10
9.735640659931498
 20
28.58955981402875
 42
0.0631561577105207
  0
VERTEX
  8
0
  6
CONTINUOUS
 62
     7
 10
9.989678575003612
 20
27.92582027004889
 42
0.2552812342110241
  0
VERTEX
  8
0
  6
CONTINUOUS
 62
     7
 10
10.52001953125
 20
27.5
 42
0.2551561651234953
  0
VERTEX
  8
0
  6
CONTINUOUS
 62
     7
 10
11.04983367982663
 20
27.92488631871121
 42
0.06319200873202314
  0
VERTEX
  8
0
  6
CONTINUOUS
 62
     7
 10
11.30393472262135
 20
28.58777225891121
 42
0.0351872344855247
  0
VERTEX
  8
0
  6
CONTINUOUS
 62
     7
 10
11.43066831000094
 20
29.28782281996706
 42
0.02798636106883378
  0
VERTEX
  8
0
  6
CONTINUOUS
 62
     7
 10
11.47003173828125
 20
30
 42
0.02790043179201551
  0
VERTEX
  8
0
  6
CONTINUOUS
 62
     7
 10
11.43089705544029
 20
30.71014898153906
 42
0.03516100496095687
  0
VERTEX
  8
0
  6
CONTINUOUS
 62
     7
 10
11.30439943116081
 20
31.41044032048136
 42
0.0631563135920043
  0
VERTEX
  8
0
  6
CONTINUOUS
 62
     7
 10
11.05036170622723
 20
32.07417992810442
 42
0.2552818845544976
  0
SEQEND
  8
0
  0
TEXT
  8
0
  6
CONTINUOUS
 62
     7
 10
-1.285500049591065
 20
-21.79999995231628
 40
3.599999904632568
 41
1.007125066575079
  1
HSR25LR
  0
ENDSEC
  0
EOF
