  0
SECTION
  2
HEADER
  0
ENDSEC
  0
SECTION
  2
TABLES
  0
TABLE
  2
LTYPE
 70
    22
  0
LTYPE
  2
CONTINUOUS
 70
    64
  3
Solid line
 72
    65
 73
     0
 40
0.000000
  0
LTYPE
  2
DASHED
 70
    64
  3
__ __ __ __ __ __ __ __ __ __ __ __ __ __ __
 72
    65
 73
     2
 40
3.500000
 49
2.000000
 49
-1.500000
  0
LTYPE
  2
CENTER
 70
    64
  3
____ _ ____ _ ____ _ ____ _ ____ _ ____ _ ____
 72
    65
 73
     4
 40
17.500000
 49
13.000000
 49
-1.500000
 49
1.500000
 49
-1.500000
  0
LTYPE
  2
PHANTOM
 70
    64
  3
_____ _ _ _____ _ _ _____ _ _ _____ _ _ ____  
 72
    65
 73
     6
 40
15.500000
 49
8.000000
 49
-1.500000
 49
1.500000
 49
-1.500000
 49
1.500000
 49
-1.500000
  0
LTYPE
  2
DOT
 70
    64
  3
. . . . . . . . . . . . . . . . . . . . . . . .
 72
    65
 73
     2
 40
0.25
 49
0.0
 49
-0.25
  0
ENDTAB
  0
TABLE
  2
LAYER
 70
     1
  0
LAYER
  2
0
 70
     0
 62
     7
  6
CONTINUOUS
  0
ENDTAB
  0
TABLE
  2
STYLE
 70
     1
  0
STYLE
  2
STANDARD
 70
     0
 40
0.000000
 41
1.000000
 50
0.000000
 71
     0
 42
0.200000
  3
txt
  4
BIGFONT
  0
ENDTAB
  0
TABLE
  2
VIEW
 70
     0
  0
ENDTAB
  0
ENDSEC
  0
SECTION
  2
BLOCKS
  0
ENDSEC
  0
SECTION
  2
ENTITIES
  0
LINE
  8
0
  6
CENTER
 62
     7
 10
-15.599853515625
 20
8.5
 11
-15.599853515625
 21
4.5
  0
LINE
  8
0
  6
CENTER
 62
     7
 10
15.60009765625
 20
8.5
 11
15.60009765625
 21
4.5
  0
LINE
  8
0
  6
CONTINUOUS
 62
     7
 10
10
 20
0
 11
2.25
 21
0
  0
LINE
  8
0
  6
CONTINUOUS
 62
     7
 10
-8.409912109375
 20
22
 11
8.41015625
 21
22
  0
LINE
  8
0
  6
CONTINUOUS
 62
     7
 10
-11.5
 20
18.909912109375
 11
-11.5
 21
17.079833984375
  0
LINE
  8
0
  6
CONTINUOUS
 62
     7
 10
11.5
 20
18.909912109375
 11
11.5
 21
17.079833984375
  0
LINE
  8
0
  6
CONTINUOUS
 62
     7
 10
7.800048828125
 20
13.3798828125
 11
7.800048828125
 21
9.7998046875
  0
LINE
  8
0
  6
CONTINUOUS
 62
     7
 10
-7.7998046875
 20
13.3798828125
 11
-7.7998046875
 21
9.7998046875
  0
LINE
  8
0
  6
CONTINUOUS
 62
     7
 10
-11.49924945831299
 20
18.90958213806152
 11
-11.07819557189941
 21
19.33063507080078
  0
LINE
  8
0
  6
CONTINUOUS
 62
     7
 10
-11.49925994873047
 20
6.099475860595703
 11
-7.799206256866455
 21
9.799529075622559
  0
LINE
  8
0
  6
CONTINUOUS
 62
     7
 10
7.800484657287598
 20
13.37978649139404
 11
9.034123420715332
 21
14.61342525482178
  0
LINE
  8
0
  6
CONTINUOUS
 62
     7
 10
8.410712242126465
 20
21.99955940246582
 11
9.036163330078125
 21
21.37410926818848
  0
LINE
  8
0
  6
CONTINUOUS
 62
     7
 10
7.800473690032959
 20
9.799745559692383
 11
11.5003547668457
 21
6.099864482879639
  0
LINE
  8
0
  6
CONTINUOUS
 62
     7
 10
-11.49942207336426
 20
17.07949447631836
 11
-11.09028053283691
 21
16.67035293579102
  0
LINE
  8
0
  6
CONTINUOUS
 62
     7
 10
-11.5
 20
6.099853515625
 11
-11.5
 21
1.5
  0
LINE
  8
0
  6
CONTINUOUS
 62
     7
 10
11.5
 20
6.099853515625
 11
11.5
 21
1.5
  0
LINE
  8
0
  6
CONTINUOUS
 62
     7
 10
-11.49907398223877
 20
1.499379634857178
 11
-9.999061584472656
 21
-0.0006327928276732564
  0
LINE
  8
0
  6
CONTINUOUS
 62
     7
 10
11.50039577484131
 20
1.499772787094116
 11
10.0003833770752
 21
-0.0002396469644736499
  0
LINE
  8
0
  6
CONTINUOUS
 62
     7
 10
-9.03300666809082
 20
14.61308002471924
 11
-7.799411296844482
 21
13.37948417663574
  0
LINE
  8
0
  6
CONTINUOUS
 62
     7
 10
-9.034906387329102
 20
21.37392616271973
 11
-8.409281730651856
 21
21.99954986572266
  0
LINE
  8
0
  6
CONTINUOUS
 62
     7
 10
11.07962512969971
 20
19.33064651489258
 11
11.50067806243897
 21
18.90959358215332
  0
LINE
  8
0
  6
CONTINUOUS
 62
     7
 10
11.09139728546143
 20
16.67069816589356
 11
11.50036525726318
 21
17.07966804504395
  0
LINE
  8
0
  6
CONTINUOUS
 62
     7
 10
-1.75
 20
0.5
 11
1.75
 21
0.5
  0
LINE
  8
0
  6
CONTINUOUS
 62
     7
 10
-2.249547004699707
 20
-0.0003450984077062458
 11
-1.749427676200867
 21
0.4997741281986237
  0
LINE
  8
0
  6
CONTINUOUS
 62
     7
 10
1.750349521636963
 20
0.4999682903289795
 11
2.250468730926514
 21
-0.0001508857239969075
  0
LINE
  8
0
  6
CONTINUOUS
 62
     7
 10
-2.249755859375
 20
0
 11
-9.99969482421875
 21
0
  0
LINE
  8
0
  6
CONTINUOUS
 62
     7
 10
35
 20
34.499755859375
 11
35
 21
26
  0
LINE
  8
0
  6
CONTINUOUS
 62
     7
 10
-35
 20
34.499755859375
 11
-35
 21
26
  0
LINE
  8
0
  6
CENTER
 62
     7
 10
-5
 20
30
 11
13.644287109375
 21
30
  0
LINE
  8
0
  6
CONTINUOUS
 62
     7
 10
-21.500244140625
 20
7.5
 11
-10.099853515625
 21
7.5
  0
LINE
  8
0
  6
CONTINUOUS
 62
     7
 10
18
 20
7.5
 11
21.50048828125
 21
7.5
  0
LINE
  8
0
  6
CONTINUOUS
 62
     7
 10
-33.5
 20
36
 11
-20.699951171875
 21
36
  0
LINE
  8
0
  6
CONTINUOUS
 62
     7
 10
-20
 20
35.2998046875
 11
-9
 21
35.2998046875
  0
LINE
  8
0
  6
CONTINUOUS
 62
     7
 10
33.50040054321289
 20
35.99965667724609
 11
35.0002326965332
 21
34.49980926513672
  0
LINE
  8
0
  6
CONTINUOUS
 62
     7
 10
-33.4992561340332
 20
35.99942398071289
 11
-34.9992561340332
 21
34.4994010925293
  0
LINE
  8
0
  6
CONTINUOUS
 62
     7
 10
34
 20
24.267822265625
 11
34
 21
21
  0
LINE
  8
0
  6
CONTINUOUS
 62
     7
 10
-34
 20
24.267822265625
 11
-34
 21
21
  0
LINE
  8
0
  6
CONTINUOUS
 62
     7
 10
9
 20
35.2998046875
 11
20
 21
35.2998046875
  0
LINE
  8
0
  6
CONTINUOUS
 62
     7
 10
-8.2998046875
 20
36
 11
8.300048828125
 21
36
  0
LINE
  8
0
  6
CONTINUOUS
 62
     7
 10
20.7001953125
 20
36
 11
33.5
 21
36
  0
LINE
  8
0
  6
CONTINUOUS
 62
     7
 10
20.00069236755371
 20
35.29951095581055
 11
20.70072174072266
 21
35.99953842163086
  0
LINE
  8
0
  6
CONTINUOUS
 62
     7
 10
-8.999364852905273
 20
35.29938888549805
 11
-8.299331665039063
 21
35.99941253662109
  0
LINE
  8
0
  6
CONTINUOUS
 62
     7
 10
9.000609397888184
 20
35.29966735839844
 11
8.300577163696289
 21
35.99969100952148
  0
LINE
  8
0
  6
CONTINUOUS
 62
     7
 10
-19.99916839599609
 20
35.29928207397461
 11
-20.69919776916504
 21
35.99930953979492
  0
LINE
  8
0
  6
CONTINUOUS
 62
     7
 10
24.45524787902832
 20
9.979028701782227
 11
26.5418701171875
 21
21.81292533874512
  0
LINE
  8
0
  6
CONTINUOUS
 62
     7
 10
-24.45414924621582
 20
9.979013442993164
 11
-26.55055046081543
 21
21.86836433410645
  0
LINE
  8
0
  6
CONTINUOUS
 62
     7
 10
28.739013671875
 20
20
 11
33
 21
20
  0
LINE
  8
0
  6
CONTINUOUS
 62
     7
 10
1.780029296875
 20
33.5
 11
5.860107421875
 21
33.5
  0
LINE
  8
0
  6
CONTINUOUS
 62
     7
 10
1.780029296875
 20
26.5
 11
5.860107421875
 21
26.5
  0
LINE
  8
0
  6
CONTINUOUS
 62
     7
 10
1.130476593971252
 20
29.9998722076416
 11
1.780464768409729
 21
26.49990081787109
  0
LINE
  8
0
  6
CONTINUOUS
 62
     7
 10
1.130568623542786
 20
29.99990272521973
 11
1.780557632446289
 21
33.4998779296875
  0
LINE
  8
0
  6
CONTINUOUS
 62
     7
 10
3.440183639526367
 20
29.99989318847656
 11
4.090183734893799
 21
26.49993896484375
  0
LINE
  8
0
  6
CONTINUOUS
 62
     7
 10
3.440591335296631
 20
29.9998779296875
 11
4.090593814849854
 21
33.49984359741211
  0
LINE
  8
0
  6
CONTINUOUS
 62
     7
 10
5.950414657592773
 20
26.96993637084961
 11
5.860408306121826
 21
26.49996185302734
  0
LINE
  8
0
  6
CONTINUOUS
 62
     7
 10
5.950682640075684
 20
33.01995849609375
 11
5.860689163208008
 21
33.49987411499023
  0
LINE
  8
0
  6
CONTINUOUS
 62
     7
 10
7.766578197479248
 20
26.75425720214844
 11
10.52044677734375
 21
27.49988746643066
  0
LINE
  8
0
  6
CONTINUOUS
 62
     7
 10
7.750794410705566
 20
33.24971008300781
 11
10.52045249938965
 21
32.49980163574219
  0
LINE
  8
0
  6
CONTINUOUS
 62
     7
 10
0.0008532368810847402
 20
25.3808765411377
 11
1.9480299949646
 21
26.49995803833008
  0
LINE
  8
0
  6
CONTINUOUS
 62
     7
 10
0.0001089733050321229
 20
34.61901092529297
 11
1.938517451286316
 21
33.49987030029297
  0
LINE
  8
0
  6
CONTINUOUS
 62
     7
 10
-17.7998046875
 20
7.39990234375
 11
-11.39990234375
 21
7.39990234375
  0
LINE
  8
0
  6
CONTINUOUS
 62
     7
 10
-17.7998046875
 20
7.5
 11
-17.7998046875
 21
7.39990234375
  0
LINE
  8
0
  6
CONTINUOUS
 62
     7
 10
11.400146484375
 20
7.39990234375
 11
17.800048828125
 21
7.39990234375
  0
LINE
  8
0
  6
CONTINUOUS
 62
     7
 10
17.800048828125
 20
7.39990234375
 11
17.800048828125
 21
7.5
  0
LINE
  8
0
  6
CONTINUOUS
 62
     7
 10
23
 20
33.499755859375
 11
23
 21
9
  0
LINE
  8
0
  6
CONTINUOUS
 62
     7
 10
-21.50018119812012
 20
35
 11
21.5
 21
35
  0
LINE
  8
0
  6
CONTINUOUS
 62
     7
 10
21.50075340270996
 20
34.99942398071289
 11
23.00058746337891
 21
33.49958038330078
  0
LINE
  8
0
  6
CONTINUOUS
 62
     7
 10
23.00042343139648
 20
8.999764442443848
 11
21.50040817260742
 21
7.499755859375
  0
LINE
  8
0
  6
CONTINUOUS
 62
     7
 10
10.10009765625
 20
7.5
 11
21.5
 21
7.5
  0
LINE
  8
0
  6
CONTINUOUS
 62
     7
 10
-33
 20
20
 11
-28.73876953125
 21
20
  0
LINE
  8
0
  6
CONTINUOUS
 62
     7
 10
-23
 20
9
 11
-23
 21
33.50016784667969
  0
LINE
  8
0
  6
CONTINUOUS
 62
     7
 10
-21.49932289123535
 20
7.499572277069092
 11
-22.99934005737305
 21
8.999580383300781
  0
LINE
  8
0
  6
CENTER
 62
     7
 10
-10
 20
33.75
 11
-10
 21
26.25
  0
LINE
  8
0
  6
CENTER
 62
     7
 10
-28.5
 20
16.161376953125
 11
-28.5
 21
37
  0
LINE
  8
0
  6
CONTINUOUS
 62
     7
 10
-3.997750997543335
 20
32.31089782714844
 11
-0.000206343422178179
 21
34.61888122558594
  0
LINE
  8
0
  6
CONTINUOUS
 62
     7
 10
-3.997475624084473
 20
27.68913269042969
 11
0.001126197748817504
 21
25.38053894042969
  0
LINE
  8
0
  6
CONTINUOUS
 62
     7
 10
-3.998046875
 20
32.31103515625
 11
-3.998046875
 21
27.689453125
  0
LINE
  8
0
  6
CONTINUOUS
 62
     7
 10
-13.90130043029785
 20
6.206419944763184
 11
-13.84936046600342
 21
7.39995288848877
  0
LINE
  8
0
  6
CONTINUOUS
 62
     7
 10
-17.34916305541992
 20
7.399990081787109
 11
-17.29720115661621
 21
6.20621395111084
  0
LINE
  8
0
  6
CENTER
 62
     7
 10
28.5
 20
37
 11
28.5
 21
16.161376953125
  0
LINE
  8
0
  6
CENTER
 62
     7
 10
-13.75
 20
30
 11
-6.25
 21
30
  0
LINE
  8
0
  6
DASHED
 62
     7
 10
-5.5
 20
22
 11
-5.5
 21
13
  0
LINE
  8
0
  6
DASHED
 62
     7
 10
5.5
 20
22
 11
5.5
 21
13
  0
LINE
  8
0
  6
DASHED
 62
     7
 10
3.5
 20
13
 11
3.5
 21
0
  0
LINE
  8
0
  6
DASHED
 62
     7
 10
-3.5
 20
13
 11
-3.5
 21
0
  0
LINE
  8
0
  6
DASHED
 62
     7
 10
-5.5
 20
13
 11
5.5
 21
13
  0
LINE
  8
0
  6
CENTER
 62
     7
 10
0
 20
37
 11
0
 21
-1
  0
LINE
  8
0
  6
CENTER
 62
     7
 10
156.9999694824219
 20
8.5
 11
156.9999694824219
 21
4.5
  0
LINE
  8
0
  6
CONTINUOUS
 62
     7
 10
218.0500183105469
 20
7.5
 11
218.0500183105469
 21
35
  0
LINE
  8
0
  6
CONTINUOUS
 62
     7
 10
219.5500183105469
 20
7.5
 11
219.5500183105469
 21
35
  0
LINE
  8
0
  6
CONTINUOUS
 62
     7
 10
218.0500183105469
 20
35
 11
221.9500122070313
 21
35
  0
LINE
  8
0
  6
CONTINUOUS
 62
     7
 10
218.0500183105469
 20
7.5
 11
221.9500122070313
 21
7.5
  0
LINE
  8
0
  6
CONTINUOUS
 62
     7
 10
209.7499694824219
 20
35
 11
217.0500183105469
 21
35
  0
LINE
  8
0
  6
CONTINUOUS
 62
     7
 10
209.7499694824219
 20
7.5
 11
218.0500183105469
 21
7.5
  0
LINE
  8
0
  6
CONTINUOUS
 62
     7
 10
218.0502624511719
 20
33.99980926513672
 11
217.0502014160156
 21
34.99986267089844
  0
LINE
  8
0
  6
CONTINUOUS
 62
     7
 10
158.6983184814453
 20
6.206201076507568
 11
158.759033203125
 21
7.5
  0
LINE
  8
0
  6
CONTINUOUS
 62
     7
 10
155.2415313720703
 20
7.500000476837158
 11
155.30224609375
 21
6.206148147583008
  0
LINE
  8
0
  6
CONTINUOUS
 62
     7
 10
141.9499664306641
 20
35
 11
141.9499664306641
 21
7.5
  0
LINE
  8
0
  6
CONTINUOUS
 62
     7
 10
142.9499664306641
 20
35
 11
150.2499694824219
 21
35
  0
LINE
  8
0
  6
CONTINUOUS
 62
     7
 10
141.9499664306641
 20
7.5
 11
150.2499694824219
 21
7.5
  0
LINE
  8
0
  6
CONTINUOUS
 62
     7
 10
142.9499359130859
 20
34.99985504150391
 11
141.9498596191406
 21
33.99979782104492
  0
LINE
  8
0
  6
CONTINUOUS
 62
     7
 10
151.7502136230469
 20
36
 11
208.2499694824219
 21
36
  0
LINE
  8
0
  6
CONTINUOUS
 62
     7
 10
150.2499694824219
 20
7.5
 11
209.7499694824219
 21
7.5
  0
LINE
  8
0
  6
CONTINUOUS
 62
     7
 10
209.7499694824219
 20
35
 11
209.7499694824219
 21
7.5
  0
LINE
  8
0
  6
CONTINUOUS
 62
     7
 10
208.2500457763672
 20
35.99998092651367
 11
209.7502288818359
 21
34.49979400634766
  0
LINE
  8
0
  6
CENTER
 62
     7
 10
10
 20
26.25
 11
10
 21
33.75
  0
LINE
  8
0
  6
CONTINUOUS
 62
     7
 10
150.2500915527344
 20
34.49975204467773
 11
151.7502593994141
 21
35.99992370605469
  0
LINE
  8
0
  6
CONTINUOUS
 62
     7
 10
150.2499694824219
 20
7.5
 11
150.2499694824219
 21
35
  0
LINE
  8
0
  6
CENTER
 62
     7
 10
202.9999694824219
 20
8.5
 11
202.9999694824219
 21
4.5
  0
LINE
  8
0
  6
CONTINUOUS
 62
     7
 10
-21.50075340270996
 20
34.99942398071289
 11
-23.00058746337891
 21
33.49958038330078
  0
LINE
  8
0
  6
CONTINUOUS
 62
     7
 10
70
 20
0
 11
290
 21
0
  0
LINE
  8
0
  6
CONTINUOUS
 62
     7
 10
70
 20
22
 11
138.0499725341797
 21
22
  0
LINE
  8
0
  6
CONTINUOUS
 62
     7
 10
70
 20
6.099853515625
 11
155.3211669921875
 21
6.099853515625
  0
LINE
  8
0
  6
CONTINUOUS
 62
     7
 10
70
 20
9.7998046875
 11
138.0499725341797
 21
9.7998046875
  0
LINE
  8
0
  6
CONTINUOUS
 62
     7
 10
70
 20
13.3798828125
 11
138.0499725341797
 21
13.3798828125
  0
LINE
  8
0
  6
CONTINUOUS
 62
     7
 10
70
 20
19.29783248901367
 11
138.0499725341797
 21
19.29783248901367
  0
LINE
  8
0
  6
CONTINUOUS
 62
     7
 10
70
 20
21.37410926818848
 11
138.0499725341797
 21
21.37410926818848
  0
LINE
  8
0
  6
CONTINUOUS
 62
     7
 10
70
 20
16.70192337036133
 11
138.0499725341797
 21
16.70192337036133
  0
LINE
  8
0
  6
CENTER
 62
     7
 10
90
 20
23
 11
90
 21
-1
  0
LINE
  8
0
  6
CONTINUOUS
 62
     7
 10
70
 20
22
 11
70
 21
0
  0
LINE
  8
0
  6
CENTER
 62
     7
 10
150
 20
8.5
 11
150
 21
-1
  0
LINE
  8
0
  6
DASHED
 62
     7
 10
84.5
 20
22
 11
84.5
 21
13
  0
LINE
  8
0
  6
DASHED
 62
     7
 10
95.5
 20
22
 11
95.5
 21
13
  0
LINE
  8
0
  6
DASHED
 62
     7
 10
93.5
 20
13
 11
93.5
 21
0
  0
LINE
  8
0
  6
DASHED
 62
     7
 10
86.5
 20
13
 11
86.5
 21
0
  0
LINE
  8
0
  6
DASHED
 62
     7
 10
84.5
 20
13
 11
95.5
 21
13
  0
LINE
  8
0
  6
CONTINUOUS
 62
     7
 10
290
 20
21.37410926818848
 11
221.9500122070313
 21
21.37410926818848
  0
LINE
  8
0
  6
CONTINUOUS
 62
     7
 10
290
 20
22
 11
221.9500122070313
 21
22
  0
LINE
  8
0
  6
CENTER
 62
     7
 10
270
 20
23
 11
270
 21
-1
  0
LINE
  8
0
  6
CONTINUOUS
 62
     7
 10
290
 20
19.29783248901367
 11
221.9500122070313
 21
19.29783248901367
  0
LINE
  8
0
  6
CONTINUOUS
 62
     7
 10
290
 20
13.3798828125
 11
221.9500122070313
 21
13.3798828125
  0
LINE
  8
0
  6
CONTINUOUS
 62
     7
 10
290
 20
16.70192337036133
 11
221.9500122070313
 21
16.70192337036133
  0
LINE
  8
0
  6
CONTINUOUS
 62
     7
 10
290
 20
22
 11
290
 21
0
  0
LINE
  8
0
  6
CENTER
 62
     7
 10
210
 20
8.5
 11
210
 21
-1
  0
LINE
  8
0
  6
CONTINUOUS
 62
     7
 10
290
 20
9.7998046875
 11
221.9500122070313
 21
9.7998046875
  0
LINE
  8
0
  6
CONTINUOUS
 62
     7
 10
150.2499694824219
 20
96
 11
209.7499694824219
 21
96
  0
LINE
  8
0
  6
CONTINUOUS
 62
     7
 10
150.2499694824219
 20
166
 11
150.2499694824219
 21
96
  0
LINE
  8
0
  6
CONTINUOUS
 62
     7
 10
141.9499664306641
 20
154
 11
141.9499664306641
 21
108
  0
LINE
  8
0
  6
CONTINUOUS
 62
     7
 10
150.2499694824219
 20
122.699951171875
 11
209.7499694824219
 21
122.699951171875
  0
LINE
  8
0
  6
CONTINUOUS
 62
     7
 10
150.2499694824219
 20
139.2998046875
 11
209.7499694824219
 21
139.2998046875
  0
LINE
  8
0
  6
CONTINUOUS
 62
     7
 10
150.2499694824219
 20
166
 11
209.7499694824219
 21
166
  0
LINE
  8
0
  6
CONTINUOUS
 62
     7
 10
209.7499694824219
 20
166
 11
209.7499694824219
 21
96
  0
LINE
  8
0
  6
CENTER
 62
     7
 10
69
 20
131
 11
291
 21
131
  0
LINE
  8
0
  6
CONTINUOUS
 62
     7
 10
70
 20
142.5
 11
70
 21
119.5
  0
LINE
  8
0
  6
CONTINUOUS
 62
     7
 10
150.2499694824219
 20
110.2998046875
 11
209.7499694824219
 21
110.2998046875
  0
LINE
  8
0
  6
CONTINUOUS
 62
     7
 10
150.2499694824219
 20
151.699951171875
 11
209.7499694824219
 21
151.699951171875
  0
LINE
  8
0
  6
CONTINUOUS
 62
     7
 10
138.0499725341797
 20
108
 11
150.2499694824219
 21
108
  0
LINE
  8
0
  6
CONTINUOUS
 62
     7
 10
138.0499725341797
 20
154
 11
150.2499694824219
 21
154
  0
LINE
  8
0
  6
CONTINUOUS
 62
     7
 10
221.9499664306641
 20
108
 11
209.7499694824219
 21
108
  0
LINE
  8
0
  6
CONTINUOUS
 62
     7
 10
221.9499664306641
 20
154
 11
209.7499694824219
 21
154
  0
LINE
  8
0
  6
CONTINUOUS
 62
     7
 10
218.0499725341797
 20
154
 11
218.0499725341797
 21
108
  0
LINE
  8
0
  6
CONTINUOUS
 62
     7
 10
70
 20
119.5
 11
138.0499725341797
 21
119.5
  0
LINE
  8
0
  6
CONTINUOUS
 62
     7
 10
70
 20
122.58984375
 11
128.4117431640625
 21
122.58984375
  0
LINE
  8
0
  6
CONTINUOUS
 62
     7
 10
70
 20
139.409912109375
 11
138.0499725341797
 21
139.409912109375
  0
LINE
  8
0
  6
CONTINUOUS
 62
     7
 10
70
 20
142.5
 11
138.0499725341797
 21
142.5
  0
LINE
  8
0
  6
CENTER
 62
     7
 10
90
 20
137.5
 11
90
 21
124.5
  0
LINE
  8
0
  6
CONTINUOUS
 62
     7
 10
289.9999389648438
 20
142.5
 11
289.9999389648438
 21
119.5
  0
LINE
  8
0
  6
CONTINUOUS
 62
     7
 10
289.9999389648438
 20
142.5
 11
221.9499664306641
 21
142.5
  0
LINE
  8
0
  6
CONTINUOUS
 62
     7
 10
289.9999389648438
 20
139.409912109375
 11
221.9499664306641
 21
139.409912109375
  0
LINE
  8
0
  6
CONTINUOUS
 62
     7
 10
289.9999389648438
 20
122.58984375
 11
221.9499664306641
 21
122.58984375
  0
LINE
  8
0
  6
CONTINUOUS
 62
     7
 10
289.9999389648438
 20
119.5
 11
221.9499664306641
 21
119.5
  0
LINE
  8
0
  6
CENTER
 62
     7
 10
150
 20
137.5
 11
150
 21
124.5
  0
LINE
  8
0
  6
CENTER
 62
     7
 10
210
 20
137.5
 11
210
 21
124.5
  0
LINE
  8
0
  6
CENTER
 62
     7
 10
270
 20
137.5
 11
270
 21
124.5
  0
LINE
  8
0
  6
CENTER
 62
     7
 10
202.4999694824219
 20
37
 11
202.4999694824219
 21
6.901769638061523
  0
LINE
  8
0
  6
CONTINUOUS
 62
     7
 10
163.0002136230469
 20
20
 11
196.9999694824219
 21
20
  0
LINE
  8
0
  6
CENTER
 62
     7
 10
157.4999694824219
 20
37
 11
157.4999694824219
 21
6.901769638061523
  0
LINE
  8
0
  6
DASHED
 62
     7
 10
160.9999694824219
 20
36
 11
160.9999694824219
 21
26
  0
LINE
  8
0
  6
DASHED
 62
     7
 10
153.9999694824219
 20
36
 11
153.9999694824219
 21
26
  0
LINE
  8
0
  6
CONTINUOUS
 62
     7
 10
151.9999694824219
 20
20.000244140625
 11
151.9999694824219
 21
26.006103515625
  0
LINE
  8
0
  6
CONTINUOUS
 62
     7
 10
150.2499694824219
 20
26
 11
163.0002136230469
 21
26
  0
LINE
  8
0
  6
CONTINUOUS
 62
     7
 10
163.0002136230469
 20
26.006103515625
 11
163.0002136230469
 21
20
  0
LINE
  8
0
  6
CONTINUOUS
 62
     7
 10
161.2332000732422
 20
9.979033470153809
 11
163.0001678466797
 21
19.99996566772461
  0
LINE
  8
0
  6
CONTINUOUS
 62
     7
 10
152.0001525878906
 20
20.00011253356934
 11
153.7671203613281
 21
9.979089736938477
  0
LINE
  8
0
  6
CONTINUOUS
 62
     7
 10
208.0002136230469
 20
26.006103515625
 11
208.0002136230469
 21
20.000244140625
  0
LINE
  8
0
  6
CONTINUOUS
 62
     7
 10
196.9999694824219
 20
26
 11
209.7499694824219
 21
26
  0
LINE
  8
0
  6
CONTINUOUS
 62
     7
 10
196.9999694824219
 20
20
 11
196.9999694824219
 21
26.006103515625
  0
LINE
  8
0
  6
CONTINUOUS
 62
     7
 10
197.0001831054688
 20
19.99981117248535
 11
198.7671203613281
 21
9.979043960571289
  0
LINE
  8
0
  6
CONTINUOUS
 62
     7
 10
206.2333221435547
 20
9.979058265686035
 11
208.0003204345703
 21
20.0002326965332
  0
LINE
  8
0
  6
DASHED
 62
     7
 10
-32
 20
25.99999618530273
 11
-32
 21
35.99999618530273
  0
LINE
  8
0
  6
DASHED
 62
     7
 10
-25
 20
25.99999618530273
 11
-25
 21
35.99999618530273
  0
LINE
  8
0
  6
CONTINUOUS
 62
     7
 10
31.475341796875
 20
25.99999618530273
 11
35
 21
25.99999618530273
  0
LINE
  8
0
  6
DASHED
 62
     7
 10
-31.475341796875
 20
25.99999618530273
 11
-23
 21
25.99999618530273
  0
LINE
  8
0
  6
DASHED
 62
     7
 10
-23
 20
7.901779174804688
 11
-23
 21
25.99999618530273
  0
LINE
  8
0
  6
CENTER
 62
     7
 10
157.4999694824219
 20
107
 11
157.4999694824219
 21
98
  0
LINE
  8
0
  6
CENTER
 62
     7
 10
152.9999694824219
 20
102.5
 11
161.9999694824219
 21
102.5
  0
LINE
  8
0
  6
CENTER
 62
     7
 10
157.4999694824219
 20
164
 11
157.4999694824219
 21
155
  0
LINE
  8
0
  6
CENTER
 62
     7
 10
152.9999694824219
 20
159.5
 11
161.9999694824219
 21
159.5
  0
LINE
  8
0
  6
CENTER
 62
     7
 10
202.4999694824219
 20
164
 11
202.4999694824219
 21
155
  0
LINE
  8
0
  6
CENTER
 62
     7
 10
197.9999694824219
 20
159.5
 11
206.9999694824219
 21
159.5
  0
LINE
  8
0
  6
CENTER
 62
     7
 10
202.4999694824219
 20
107
 11
202.4999694824219
 21
98
  0
LINE
  8
0
  6
CENTER
 62
     7
 10
197.9999694824219
 20
102.5
 11
206.9999694824219
 21
102.5
  0
LINE
  8
0
  6
CONTINUOUS
 62
     7
 10
-31.475341796875
 20
25.99999618530273
 11
-35
 21
25.99999618530273
  0
LINE
  8
0
  6
CONTINUOUS
 62
     7
 10
-13.99999237060547
 20
16.04445457458496
 11
-10.29999256134033
 21
12.34445571899414
  0
LINE
  8
0
  6
CONTINUOUS
 62
     7
 10
14
 20
16.04446029663086
 11
10.29999828338623
 21
12.34445858001709
  0
LINE
  8
0
  6
CONTINUOUS
 62
     7
 10
-13.63552856445313
 20
7.499995708465576
 11
-10.29999256134033
 21
10.83553123474121
  0
LINE
  8
0
  6
CONTINUOUS
 62
     7
 10
-10.30000305175781
 20
12.34445953369141
 11
-10.30000305175781
 21
10.83553314208984
  0
LINE
  8
0
  6
CONTINUOUS
 62
     7
 10
-13.99999809265137
 20
19.94553565979004
 11
-9.445534706115723
 21
24.49999809265137
  0
LINE
  8
0
  6
CONTINUOUS
 62
     7
 10
13.63553905487061
 20
7.499998569488525
 11
10.30000019073486
 21
10.83553695678711
  0
LINE
  8
0
  6
CONTINUOUS
 62
     7
 10
10.30000305175781
 20
12.34445953369141
 11
10.30000305175781
 21
10.83553314208984
  0
LINE
  8
0
  6
CONTINUOUS
 62
     7
 10
14
 20
19.94553375244141
 11
14
 21
16.04446411132813
  0
LINE
  8
0
  6
CONTINUOUS
 62
     7
 10
9.445541381835938
 20
24.5
 11
-9.445541381835938
 21
24.5
  0
LINE
  8
0
  6
CONTINUOUS
 62
     7
 10
14.0000057220459
 20
19.94552993774414
 11
9.445534706115723
 21
24.5
  0
LINE
  8
0
  6
CONTINUOUS
 62
     7
 10
-14
 20
19.94553375244141
 11
-14
 21
16.04446411132813
  0
LINE
  8
0
  6
CONTINUOUS
 62
     7
 10
-15
 20
30.69999694824219
 11
-13.17372131347656
 21
30.69999694824219
  0
LINE
  8
0
  6
CONTINUOUS
 62
     7
 10
-15
 20
27.30000305175781
 11
-11.80900573730469
 21
27.30000305175781
  0
LINE
  8
0
  6
CONTINUOUS
 62
     7
 10
11.80900573730469
 20
27.30000305175781
 11
15
 21
27.30000305175781
  0
LINE
  8
0
  6
CONTINUOUS
 62
     7
 10
13.17372131347656
 20
30.69999694824219
 11
15
 21
30.69999694824219
  0
LINE
  8
0
  6
CONTINUOUS
 62
     7
 10
-5
 20
35
 11
-5
 21
30
  0
LINE
  8
0
  6
CONTINUOUS
 62
     7
 10
5
 20
35
 11
5
 21
33.5
  0
LINE
  8
0
  6
CONTINUOUS
 62
     7
 10
221.9500122070313
 20
7.5
 11
221.9500122070313
 21
35
  0
LINE
  8
0
  6
CONTINUOUS
 62
     7
 10
219.5499725341797
 20
154
 11
219.5499725341797
 21
108
  0
LINE
  8
0
  6
CONTINUOUS
 62
     7
 10
221.9499664306641
 20
154
 11
221.9499664306641
 21
108
  0
LINE
  8
0
  6
CONTINUOUS
 62
     7
 10
134.8502349853516
 20
26
 11
137.8502349853516
 21
26
  0
LINE
  8
0
  6
CONTINUOUS
 62
     7
 10
137.4500885009766
 20
30.00020027160645
 11
135.9500885009766
 21
33.50017547607422
  0
LINE
  8
0
  6
CONTINUOUS
 62
     7
 10
136.5500946044922
 20
30.00013160705566
 11
134.9500885009766
 21
33.50014114379883
  0
LINE
  8
0
  6
CONTINUOUS
 62
     7
 10
135.9500885009766
 20
33.5
 11
130.7501373291016
 21
33.5
  0
LINE
  8
0
  6
CONTINUOUS
 62
     7
 10
130.7503967285156
 20
33.49990844726563
 11
130.3503875732422
 21
32.91987609863281
  0
LINE
  8
0
  6
CONTINUOUS
 62
     7
 10
130.7501525878906
 20
26.50011825561523
 11
130.3501434326172
 21
27.08014869689941
  0
LINE
  8
0
  6
CONTINUOUS
 62
     7
 10
136.5503540039063
 20
30.00002670288086
 11
134.9504547119141
 21
26.50024032592773
  0
LINE
  8
0
  6
CONTINUOUS
 62
     7
 10
137.4503479003906
 20
30.0002326965332
 11
135.9503631591797
 21
26.5002555847168
  0
LINE
  8
0
  6
CONTINUOUS
 62
     7
 10
135.9500885009766
 20
26.460205078125
 11
135.9500885009766
 21
26.5
  0
LINE
  8
0
  6
CONTINUOUS
 62
     7
 10
135.9500885009766
 20
26.5
 11
130.7501373291016
 21
26.5
  0
LINE
  8
0
  6
CONTINUOUS
 62
     7
 10
140.4499664306641
 20
35
 11
140.4499664306641
 21
7.5
  0
LINE
  8
0
  6
CONTINUOUS
 62
     7
 10
138.0499725341797
 20
35
 11
141.9499664306641
 21
35
  0
LINE
  8
0
  6
CONTINUOUS
 62
     7
 10
138.0499725341797
 20
7.5
 11
141.9499664306641
 21
7.5
  0
LINE
  8
0
  6
CONTINUOUS
 62
     7
 10
137.8501892089844
 20
34.12005996704102
 11
138.0499572753906
 21
34.31983947753906
  0
LINE
  8
0
  6
CONTINUOUS
 62
     7
 10
138.0499572753906
 20
25.68014907836914
 11
137.8500213623047
 21
25.88009643554688
  0
LINE
  8
0
  6
CONTINUOUS
 62
     7
 10
137.8502349853516
 20
25.880126953125
 11
137.8502349853516
 21
34.1201171875
  0
LINE
  8
0
  6
CONTINUOUS
 62
     7
 10
134.8502349853516
 20
34
 11
137.8502349853516
 21
34
  0
LINE
  8
0
  6
CONTINUOUS
 62
     7
 10
138.0499725341797
 20
35
 11
138.0499725341797
 21
7.5
  0
LINE
  8
0
  6
CENTER
 62
     7
 10
126.6502914428711
 20
30
 11
142.5787506103516
 21
30
  0
LINE
  8
0
  6
CONTINUOUS
 62
     7
 10
138.0499725341797
 20
154
 11
138.0499725341797
 21
108
  0
LINE
  8
0
  6
CONTINUOUS
 62
     7
 10
140.4499664306641
 20
154
 11
140.4499664306641
 21
108
  0
LINE
  8
0
  6
CONTINUOUS
 62
     7
 10
129.5030059814453
 20
127.293586730957
 11
136.0518035888672
 21
124.5809936523438
  0
LINE
  8
0
  6
CONTINUOUS
 62
     7
 10
129.6647796630859
 20
125.7394866943359
 11
134.8384857177734
 21
123.5964508056641
  0
LINE
  8
0
  6
CONTINUOUS
 62
     7
 10
137.1554870605469
 20
125.9460678100586
 11
136.8326263427734
 21
126.7255172729492
  0
LINE
  8
0
  6
CONTINUOUS
 62
     7
 10
130.4673461914063
 20
129.3621520996094
 11
136.8326416015625
 21
126.7255554199219
  0
LINE
  8
0
  6
CONTINUOUS
 62
     7
 10
134.6443023681641
 20
125.1640090942383
 11
135.5168609619141
 21
127.2705688476563
  0
LINE
  8
0
  6
CONTINUOUS
 62
     7
 10
130.9105224609375
 20
126.7105941772461
 11
131.7830963134766
 21
128.8171539306641
  0
LINE
  8
0
  6
CONTINUOUS
 62
     7
 10
130.4673309326172
 20
129.3620910644531
 11
129.6878814697266
 21
129.0392303466797
  0
LINE
  8
0
  6
CONTINUOUS
 62
     7
 10
136.7408142089844
 20
124.9450073242188
 11
137.1554718017578
 21
125.9460678100586
  0
LINE
  8
0
  6
CONTINUOUS
 62
     7
 10
129.2732238769531
 20
128.0381927490234
 11
129.6878967285156
 21
129.0392608642578
  0
LINE
  8
0
  6
CONTINUOUS
 62
     7
 10
132.7673645019531
 20
119.6415481567383
 11
134.6321105957031
 21
121.7916259765625
  0
LINE
  8
0
  6
CONTINUOUS
 62
     7
 10
128.5345153808594
 20
124.3173370361328
 11
134.6321105957031
 21
121.7916259765625
  0
LINE
  8
0
  6
CONTINUOUS
 62
     7
 10
128.3327484130859
 20
121.4784317016602
 11
132.7673797607422
 21
119.6415557861328
  0
LINE
  8
0
  6
CONTINUOUS
 62
     7
 10
137.8499603271484
 20
135
 11
138.0499725341797
 21
135
  0
LINE
  8
0
  6
CONTINUOUS
 62
     7
 10
128.3327484130859
 20
121.4784393310547
 11
128.5345153808594
 21
124.3173370361328
  0
LINE
  8
0
  6
CENTER
 62
     7
 10
130.1018218994141
 20
119.4778747558594
 11
134.9671325683594
 21
131.2237548828125
  0
LINE
  8
0
  6
CONTINUOUS
 62
     7
 10
137.8499603271484
 20
127
 11
138.0499725341797
 21
127
  0
LINE
  8
0
  6
CONTINUOUS
 62
     7
 10
130.5500640869141
 20
131
 11
130.5500640869141
 21
129.327880859375
  0
LINE
  8
0
  6
CONTINUOUS
 62
     7
 10
136.1700897216797
 20
127
 11
137.8499755859375
 21
127
  0
LINE
  8
0
  6
CONTINUOUS
 62
     7
 10
134.5500640869141
 20
135
 11
137.8499755859375
 21
135
  0
LINE
  8
0
  6
CONTINUOUS
 62
     7
 10
134.8504333496094
 20
122.58984375
 11
138.0499725341797
 21
122.58984375
  0
LINE
  8
0
  6
CONTINUOUS
 62
     7
 10
158.6790161132813
 20
6.099853515625
 11
290
 21
6.099853515625
  0
ARC
  8
0
  6
CONTINUOUS
 62
     7
 10
21.50048828125
 20
10.5
 40
3
 50
269.999963344576
 51
350.000046394684
  0
ARC
  8
0
  6
CONTINUOUS
 62
     7
 10
-21.500244140625
 20
10.5
 40
3.000000000000001
 50
189.999979332211
 51
270.000127269116
  0
ARC
  8
0
  6
CONTINUOUS
 62
     7
 10
-28.73876953125
 20
17
 40
2.999999999999999
 50
9.999926284559381
 51
89.99992737239727
  0
ARC
  8
0
  6
CONTINUOUS
 62
     7
 10
6.6201171875
 20
25.919921875
 40
1.246148109436035
 50
80.76452806729958
 51
142.1250351177266
  0
ARC
  8
0
  6
CONTINUOUS
 62
     7
 10
0
 20
30
 40
3.998106002807618
 50
63.34552394777273
 51
298.9059076658729
  0
ARC
  8
0
  6
CONTINUOUS
 62
     7
 10
0
 20
30
 40
4
 50
240.0000239814524
 51
241.0449882829511
  0
ARC
  8
0
  6
CONTINUOUS
 62
     7
 10
7.610107421875
 20
32.289794921875
 40
0.9701611399650598
 50
81.70288677623263
 51
144.668542923126
  0
ARC
  8
0
  6
CONTINUOUS
 62
     7
 10
6.6201171875
 20
34.079833984375
 40
1.254199028015138
 50
217.8749648822736
 51
279.2353626496737
  0
ARC
  8
0
  6
CONTINUOUS
 62
     7
 10
7.610107421875
 20
27.7099609375
 40
0.9683421850204466
 50
215.3314570768741
 51
278.2972225067941
  0
ARC
  8
0
  6
CONTINUOUS
 62
     7
 10
11.400146484375
 20
7.999755859375
 40
0.5999999642372134
 50
236.4425336126296
 51
270.0000179860894
  0
ARC
  8
0
  6
CONTINUOUS
 62
     7
 10
-14.49951171875
 20
6.258544921875
 40
0.5999999642372133
 50
286.3876635409443
 51
355.0000009992271
  0
ARC
  8
0
  6
CONTINUOUS
 62
     7
 10
-16.7001953125
 20
6.258544921875
 40
0.5999999642372131
 50
185.0000076521949
 51
253.6124270727479
  0
ARC
  8
0
  6
CONTINUOUS
 62
     7
 10
-15.599853515625
 20
10
 40
4.5
 50
253.6123724312344
 51
286.3877181824576
  0
ARC
  8
0
  6
CONTINUOUS
 62
     7
 10
-11.39990234375
 20
7.999755859375
 40
0.5999999642372134
 50
270.0000179860894
 51
303.5574716236979
  0
ARC
  8
0
  6
CONTINUOUS
 62
     7
 10
-35
 20
24.267822265625
 40
0.9999999999999978
 50
27.11560170304601
 51
59.99998800927364
  0
ARC
  8
0
  6
CONTINUOUS
 62
     7
 10
34
 20
26
 40
1.000000000000002
 50
300.0000119907264
 51
0
  0
ARC
  8
0
  6
CONTINUOUS
 62
     7
 10
35
 20
24.267822265625
 40
1
 50
119.9999760185477
 51
180.0000186693347
  0
ARC
  8
0
  6
CONTINUOUS
 62
     7
 10
-34
 20
26
 40
0.9999999999999981
 50
179.9999640278213
 51
239.999952037095
  0
ARC
  8
0
  6
CONTINUOUS
 62
     7
 10
28.739013671875
 20
17
 40
3
 50
90.00003665542397
 51
170.000020667789
  0
ARC
  8
0
  6
CONTINUOUS
 62
     7
 10
33
 20
21
 40
0.9999999999999996
 50
270.0000179860895
 51
0
  0
ARC
  8
0
  6
CONTINUOUS
 62
     7
 10
-11.482421875
 20
21.77783203125
 40
2.479999542236328
 50
279.3651908854173
 51
350.6348441761449
  0
ARC
  8
0
  6
CONTINUOUS
 62
     7
 10
11.482666015625
 20
14.221923828125
 40
2.479999542236329
 50
99.08549964786162
 51
170.9144463938704
  0
ARC
  8
0
  6
CONTINUOUS
 62
     7
 10
11.482666015625
 20
21.77783203125
 40
2.479999542236329
 50
189.3652088715066
 51
259.9492580186322
  0
ARC
  8
0
  6
CONTINUOUS
 62
     7
 10
-11.482421875
 20
14.221923828125
 40
2.479999542236329
 50
9.085538124518461
 51
80.91440973844635
  0
ARC
  8
0
  6
CONTINUOUS
 62
     7
 10
-33
 20
21
 40
0.9999999999999981
 50
179.9999640278213
 51
270.0000006832455
  0
ARC
  8
0
  6
CONTINUOUS
 62
     7
 10
155.8998718261719
 20
6.25830078125
 40
0.5999999642371989
 50
185.0000076521949
 51
253.6124270727472
  0
ARC
  8
0
  6
CONTINUOUS
 62
     7
 10
158.1003112792969
 20
6.25830078125
 40
0.5999999642372117
 50
286.3876635409438
 51
354.999994169038
  0
ARC
  8
0
  6
CONTINUOUS
 62
     7
 10
156.9999694824219
 20
10
 40
4.500000000000002
 50
253.6123724312343
 51
286.3877181824577
  0
ARC
  8
0
  6
CONTINUOUS
 62
     7
 10
-35
 20
24.267822265625
 40
1.000000000000003
 50
359.9999813306647
 51
60.00002216021947
  0
CIRCLE
  8
0
  6
CONTINUOUS
 62
     7
 10
90
 20
131
 40
5.5
  0
CIRCLE
  8
0
  6
CONTINUOUS
 62
     7
 10
90
 20
131
 40
3.5
  0
ARC
  8
0
  6
CONTINUOUS
 62
     7
 10
202.5002136230469
 20
12.294677734375
 40
4.392908096313466
 50
211.8110682956229
 51
328.1889335256101
  0
ARC
  8
0
  6
CONTINUOUS
 62
     7
 10
157.4999694824219
 20
12.294677734375
 40
4.392908096313466
 50
211.8110682956229
 51
328.1889710916505
  0
ARC
  8
0
  6
CONTINUOUS
 62
     7
 10
31.475341796875
 20
20.99999618530273
 40
4.999999999999999
 50
90.00009129693736
 51
170.000020667789
  0
CIRCLE
  8
0
  6
CONTINUOUS
 62
     7
 10
157.4999694824219
 20
102.5
 40
3.5
  0
ARC
  8
0
  6
CONTINUOUS
 62
     7
 10
-31.475341796875
 20
20.99999618530273
 40
4.999999999999999
 50
9.999979218525425
 51
89.99990688182977
  0
ARC
  8
0
  6
CONTINUOUS
 62
     7
 10
10
 20
30
 40
3.25
 50
12.43809378993695
 51
113.1949697560046
  0
ARC
  8
0
  6
CONTINUOUS
 62
     7
 10
-10
 20
30
 40
3.250000000000001
 50
236.177836461535
 51
167.561902681283
  0
CIRCLE
  8
0
  6
CONTINUOUS
 62
     7
 10
15
 20
29
 40
1.700000047683716
  0
CIRCLE
  8
0
  6
CONTINUOUS
 62
     7
 10
-15
 20
29
 40
1.700000047683716
  0
ARC
  8
0
  6
CONTINUOUS
 62
     7
 10
0
 20
30
 40
5
 50
179.999991348578
 51
315.5729899200514
  0
ARC
  8
0
  6
CONTINUOUS
 62
     7
 10
10
 20
30
 40
3.25
 50
246.8134860181878
 51
303.8221687747924
  0
ARC
  8
0
  6
CONTINUOUS
 62
     7
 10
139.7501068115234
 20
26.41015625
 40
1.896939277648923
 50
153.6704453812576
 51
178.1912206525752
  0
ARC
  8
0
  6
CONTINUOUS
 62
     7
 10
134.8502044677734
 20
30.000244140625
 40
3.982465744018556
 50
241.5040862782025
 51
269.9999087030627
  0
ARC
  8
0
  6
CONTINUOUS
 62
     7
 10
134.8502044677734
 20
30.000244140625
 40
3.999999999999998
 50
89.99998201391055
 51
118.4958044387709
  0
ARC
  8
0
  6
CONTINUOUS
 62
     7
 10
141.1502532958984
 20
30.5302734375
 40
3.317879676818842
 50
159.1346376984028
 51
173.9458482720621
  0
ARC
  8
0
  6
CONTINUOUS
 62
     7
 10
139.7501068115234
 20
33.590087890625
 40
1.900939941406257
 50
181.8086700643979
 51
206.5721902588179
  0
ARC
  8
0
  6
CONTINUOUS
 62
     7
 10
141.1502532958984
 20
29.47021484375
 40
3.318496704101556
 50
186.054315652478
 51
200.8932977753026
  0
ARC
  8
0
  6
CONTINUOUS
 62
     7
 10
134.5500640869141
 20
131
 40
3.999999999999998
 50
89.99998201391055
 51
180.0000186693345
  0
ARC
  8
0
  6
CONTINUOUS
 62
     7
 10
135.6759948730469
 20
123.2990264892578
 40
0.7999999523162747
 50
132.5669776762372
 51
183.4201402735702
  0
ARC
  8
0
  6
CONTINUOUS
 62
     7
 10
128.8622589111328
 20
126.1213684082031
 40
0.7999999523162822
 50
311.5798327472963
 51
2.433049772698627
  0
ARC
  8
0
  6
CONTINUOUS
 62
     7
 10
139.1934967041016
 20
119.4692687988281
 40
6.000000000000011
 50
114.1278165022775
 51
132.5663219780771
  0
ARC
  8
0
  6
CONTINUOUS
 62
     7
 10
123.6669692993164
 20
125.9005737304688
 40
6.00000000000001
 50
2.43365082934552
 51
20.87173987704925
  0
ARC
  8
0
  6
CONTINUOUS
 62
     7
 10
131.5833129882813
 20
123.0544738769531
 40
3.29999923706055
 50
337.5000181569006
 51
3.419602296415186
  0
ARC
  8
0
  6
CONTINUOUS
 62
     7
 10
131.5833129882813
 20
123.0544738769531
 40
3.299999237060557
 50
131.5803705110075
 51
157.4999548639651
  0
POLYLINE
  8
0
  6
CONTINUOUS
 62
     7
 66
     1
 10
0
 20
0
 70
     1
  0
VERTEX
  8
0
  6
CONTINUOUS
 62
     7
 10
10.52001953125
 20
32.5
 42
0.2551566096718412
  0
VERTEX
  8
0
  6
CONTINUOUS
 62
     7
 10
9.990205697803047
 20
32.07511353201534
 42
0.06319184911137921
  0
VERTEX
  8
0
  6
CONTINUOUS
 62
     7
 10
9.7361048620572
 20
31.41222750492618
 42
0.03518713495925148
  0
VERTEX
  8
0
  6
CONTINUOUS
 62
     7
 10
9.609371145564648
 20
30.71217696600283
 42
0.02798626466636508
  0
VERTEX
  8
0
  6
CONTINUOUS
 62
     7
 10
9.57000732421875
 20
30
 42
0.0279004320423075
  0
VERTEX
  8
0
  6
CONTINUOUS
 62
     7
 10
9.609142561808071
 20
29.28985106782708
 42
0.0351609506413189
  0
VERTEX
  8
0
  6
CONTINUOUS
 62
     7
 10
9.735640659931498
 20
28.58955981402875
 42
0.0631561577105207
  0
VERTEX
  8
0
  6
CONTINUOUS
 62
     7
 10
9.989678575003612
 20
27.92582027004889
 42
0.2552812342110241
  0
VERTEX
  8
0
  6
CONTINUOUS
 62
     7
 10
10.52001953125
 20
27.5
 42
0.2551561651234953
  0
VERTEX
  8
0
  6
CONTINUOUS
 62
     7
 10
11.04983367982663
 20
27.92488631871121
 42
0.06319200873202314
  0
VERTEX
  8
0
  6
CONTINUOUS
 62
     7
 10
11.30393472262135
 20
28.58777225891121
 42
0.0351872344855247
  0
VERTEX
  8
0
  6
CONTINUOUS
 62
     7
 10
11.43066831000094
 20
29.28782281996706
 42
0.02798636106883378
  0
VERTEX
  8
0
  6
CONTINUOUS
 62
     7
 10
11.47003173828125
 20
30
 42
0.02790043179201551
  0
VERTEX
  8
0
  6
CONTINUOUS
 62
     7
 10
11.43089705544029
 20
30.71014898153906
 42
0.03516100496095687
  0
VERTEX
  8
0
  6
CONTINUOUS
 62
     7
 10
11.30439943116081
 20
31.41044032048136
 42
0.0631563135920043
  0
VERTEX
  8
0
  6
CONTINUOUS
 62
     7
 10
11.05036170622723
 20
32.07417992810442
 42
0.2552818845544976
  0
SEQEND
  8
0
  0
POLYLINE
  8
0
  6
CONTINUOUS
 62
     7
 66
     1
 10
0
 20
0
  0
VERTEX
  8
0
  6
CONTINUOUS
 62
     7
 10
6.820068359375
 20
32.84974670410156
 42
0.1885726779018739
  0
VERTEX
  8
0
  6
CONTINUOUS
 62
     7
 10
6.460337272862854
 20
32.69005908869951
 42
0.07574420959183971
  0
VERTEX
  8
0
  6
CONTINUOUS
 62
     7
 10
6.216100373678731
 20
32.37222449333599
 42
0.03933604236370611
  0
VERTEX
  8
0
  6
CONTINUOUS
 62
     7
 10
6.046235838095941
 20
32.00689232302239
 42
0.02577148883122514
  0
VERTEX
  8
0
  6
CONTINUOUS
 62
     7
 10
5.924078660353726
 20
31.62274260565563
 42
0.01950550062451132
  0
VERTEX
  8
0
  6
CONTINUOUS
 62
     7
 10
5.836585601761552
 20
31.22853142562924
 42
0.01621492887998172
  0
VERTEX
  8
0
  6
CONTINUOUS
 62
     7
 10
5.777223621651758
 20
30.82894079925146
 42
0.01446689375528541
  0
VERTEX
  8
0
  6
CONTINUOUS
 62
     7
 10
5.742354699333071
 20
30.42641630065732
 42
0.01369167337260743
  0
VERTEX
  8
0
  6
CONTINUOUS
 62
     7
 10
5.730105970076803
 20
30.02227222497109
 42
0.01360443429897391
  0
VERTEX
  8
0
  6
CONTINUOUS
 62
     7
 10
5.739822332585089
 20
29.6194270929755
 42
0.01431487836517313
  0
VERTEX
  8
0
  6
CONTINUOUS
 62
     7
 10
5.771971571396199
 20
29.21717575168132
 42
0.01598150507263742
  0
VERTEX
  8
0
  6
CONTINUOUS
 62
     7
 10
5.828481546157014
 20
28.81635769520932
 42
0.0190264306560634
  0
VERTEX
  8
0
  6
CONTINUOUS
 62
     7
 10
5.912541747673066
 20
28.42120409537837
 42
0.02487948080488828
  0
VERTEX
  8
0
  6
CONTINUOUS
 62
     7
 10
6.030555548529692
 20
28.03480755820154
 42
0.03729593317869544
  0
VERTEX
  8
0
  6
CONTINUOUS
 62
     7
 10
6.194628358783493
 20
27.66562326555815
 42
0.06998300092441377
  0
VERTEX
  8
0
  6
CONTINUOUS
 62
     7
 10
6.430211843666777
 20
27.33829137984646
 42
0.1738224015071457
  0
VERTEX
  8
0
  6
CONTINUOUS
 62
     7
 10
6.779978578989478
 20
27.151692839977
 42
0
  0
SEQEND
  8
0
  0
POLYLINE
  8
0
  6
CONTINUOUS
 62
     7
 66
     1
 10
0
 20
0
  0
VERTEX
  8
0
  6
CONTINUOUS
 62
     7
 10
131.6502532958984
 20
33.250244140625
 42
0.01434925613371176
  0
VERTEX
  8
0
  6
CONTINUOUS
 62
     7
 10
131.4913724820316
 20
33.24568314165205
 42
0.01426059355668898
  0
VERTEX
  8
0
  6
CONTINUOUS
 62
     7
 10
131.333761676911
 20
33.23210778307333
 42
0.01417570472170975
  0
VERTEX
  8
0
  6
CONTINUOUS
 62
     7
 10
131.1776628785183
 20
33.20966510458743
 42
0.01415089193219917
  0
VERTEX
  8
0
  6
CONTINUOUS
 62
     7
 10
131.0227009711458
 20
33.17834182624097
 42
0.01410159875565512
  0
VERTEX
  8
0
  6
CONTINUOUS
 62
     7
 10
130.8694392253317
 20
33.13823423287506
 42
0.01402958965757023
  0
VERTEX
  8
0
  6
CONTINUOUS
 62
     7
 10
130.7184226274483
 20
33.08949014929306
 42
0.01393700395227864
  0
VERTEX
  8
0
  6
CONTINUOUS
 62
     7
 10
130.5701723999649
 20
33.03230472692589
 42
0.01382627870231248
  0
VERTEX
  8
0
  6
CONTINUOUS
 62
     7
 10
130.4251813816109
 20
32.96691545350245
 42
0.01370006398006357
  0
VERTEX
  8
0
  6
CONTINUOUS
 62
     7
 10
130.2839103847706
 20
32.89359660326448
 42
0.01356113627836656
  0
VERTEX
  8
0
  6
CONTINUOUS
 62
     7
 10
130.1467855940618
 20
32.81265336194688
 42
0.01332235787704102
  0
VERTEX
  8
0
  6
CONTINUOUS
 62
     7
 10
130.0150758531634
 20
32.72503506191156
 42
0.01328778346164486
  0
VERTEX
  8
0
  6
CONTINUOUS
 62
     7
 10
129.8870551940211
 20
32.62967200349232
 42
0.01315484945042862
  0
VERTEX
  8
0
  6
CONTINUOUS
 62
     7
 10
129.7640030591067
 20
32.52746669379627
 42
0.01293831204776141
  0
VERTEX
  8
0
  6
CONTINUOUS
 62
     7
 10
129.6469588752872
 20
32.41945236894687
 42
0.0127803171077061
  0
VERTEX
  8
0
  6
CONTINUOUS
 62
     7
 10
129.5356225365605
 20
32.30556341372031
 42
0.01262530371527799
  0
VERTEX
  8
0
  6
CONTINUOUS
 62
     7
 10
129.4302131602169
 20
32.18616639816997
 42
0
  0
SEQEND
  8
0
  0
POLYLINE
  8
0
  6
CONTINUOUS
 62
     7
 66
     1
 10
0
 20
0
  0
VERTEX
  8
0
  6
CONTINUOUS
 62
     7
 10
129.4261866053834
 20
27.81913082238483
 42
0.06283193787220835
  0
VERTEX
  8
0
  6
CONTINUOUS
 62
     7
 10
129.9904854182876
 20
27.29295883654003
 42
0.06649697188634748
  0
VERTEX
  8
0
  6
CONTINUOUS
 62
     7
 10
130.6704856641701
 20
26.92845416754843
 42
0.06915556071690775
  0
VERTEX
  8
0
  6
CONTINUOUS
 62
     7
 10
131.4228401895623
 20
26.75959548783848
 42
0.06975291675825479
  0
VERTEX
  8
0
  6
CONTINUOUS
 62
     7
 10
132.1915949717703
 20
26.80359359994905
 42
0.06816347272946467
  0
VERTEX
  8
0
  6
CONTINUOUS
 62
     7
 10
132.9194383062336
 20
27.05541530045496
 42
0.06499587775529077
  0
VERTEX
  8
0
  6
CONTINUOUS
 62
     7
 10
133.5560038668502
 20
27.49024674188664
 42
0.06129090380160109
  0
VERTEX
  8
0
  6
CONTINUOUS
 62
     7
 10
134.0640612011936
 20
28.07034772744225
 42
0.05807963780482662
  0
VERTEX
  8
0
  6
CONTINUOUS
 62
     7
 10
134.4210581044907
 20
28.75434166714664
 42
0.05590544108852882
  0
VERTEX
  8
0
  6
CONTINUOUS
 62
     7
 10
134.6147164510503
 20
29.50148558820086
 42
0.05496308177704647
  0
VERTEX
  8
0
  6
CONTINUOUS
 62
     7
 10
134.6397312987823
 20
30.27220798997252
 42
0.05547408716452574
  0
VERTEX
  8
0
  6
CONTINUOUS
 62
     7
 10
134.4956527978623
 20
31.03009723461146
 42
0.05728054718100101
  0
VERTEX
  8
0
  6
CONTINUOUS
 62
     7
 10
134.1862431638628
 20
31.73653878209152
 42
0.06026828785409511
  0
VERTEX
  8
0
  6
CONTINUOUS
 62
     7
 10
133.7210040436023
 20
32.3518475526726
 42
0.06395226173084037
  0
VERTEX
  8
0
  6
CONTINUOUS
 62
     7
 10
133.1187976545845
 20
32.83422595966262
 42
0.0674446255261543
  0
VERTEX
  8
0
  6
CONTINUOUS
 62
     7
 10
132.4121406979295
 20
33.14368841507065
 42
0.06944120514025143
  0
VERTEX
  8
0
  6
CONTINUOUS
 62
     7
 10
131.6502532958984
 20
33.250244140625
 42
0
  0
SEQEND
  8
0
  0
POLYLINE
  8
0
  6
CONTINUOUS
 62
     7
 66
     1
 10
0
 20
0
 70
     1
  0
VERTEX
  8
0
  6
CONTINUOUS
 62
     7
 10
130.5501251220703
 20
32.500244140625
 42
0.1103780684202059
  0
VERTEX
  8
0
  6
CONTINUOUS
 62
     7
 10
129.6379669445924
 20
32.29522717109971
 42
0.1025062601679397
  0
VERTEX
  8
0
  6
CONTINUOUS
 62
     7
 10
128.8906323315649
 20
31.73121802300105
 42
0.09328994491256087
  0
VERTEX
  8
0
  6
CONTINUOUS
 62
     7
 10
128.4130272470801
 20
30.92432445947776
 42
0.08782041319023931
  0
VERTEX
  8
0
  6
CONTINUOUS
 62
     7
 10
128.2501373291016
 20
30.00022888183594
 42
0.08777453680724137
  0
VERTEX
  8
0
  6
CONTINUOUS
 62
     7
 10
128.4128692694337
 20
29.07661077352141
 42
0.09326038602083277
  0
VERTEX
  8
0
  6
CONTINUOUS
 62
     7
 10
128.8901745415167
 20
28.26980823805811
 42
0.1026286646002795
  0
VERTEX
  8
0
  6
CONTINUOUS
 62
     7
 10
129.6383844218345
 20
27.7050787036147
 42
0.1103318302595126
  0
VERTEX
  8
0
  6
CONTINUOUS
 62
     7
 10
130.5501861572266
 20
27.500244140625
 42
0.1103779952859428
  0
VERTEX
  8
0
  6
CONTINUOUS
 62
     7
 10
131.4623441959048
 20
27.70526179765194
 42
0.1025061015811782
  0
VERTEX
  8
0
  6
CONTINUOUS
 62
     7
 10
132.2096786907827
 20
28.2692711388002
 42
0.09328988682785669
  0
VERTEX
  8
0
  6
CONTINUOUS
 62
     7
 10
132.6872839637941
 20
29.07616460794635
 42
0.08782048305262982
  0
VERTEX
  8
0
  6
CONTINUOUS
 62
     7
 10
132.8501739501953
 20
30.00025939941406
 42
0.08777255011311762
  0
VERTEX
  8
0
  6
CONTINUOUS
 62
     7
 10
132.6874461615685
 20
30.92387852921891
 42
0.09326068252990973
  0
VERTEX
  8
0
  6
CONTINUOUS
 62
     7
 10
132.2101473535336
 20
31.73068493447288
 42
0.1026310491621707
  0
VERTEX
  8
0
  6
CONTINUOUS
 62
     7
 10
131.4619391011918
 20
32.29541611643205
 42
0.1103314756774174
  0
SEQEND
  8
0
  0
TEXT
  8
0
  6
CONTINUOUS
 62
     7
 10
-11.28550004959106
 20
-31.79999995231628
 40
3.599999904632568
 41
0.8455426207593617
  1
ＨＳＲ２５Ｍ１Ｂ
  0
ENDSEC
  0
EOF
