  0
SECTION
  2
HEADER
  0
ENDSEC
  0
SECTION
  2
TABLES
  0
TABLE
  2
LTYPE
 70
    22
  0
LTYPE
  2
CONTINUOUS
 70
    64
  3
Solid line
 72
    65
 73
     0
 40
0.000000
  0
LTYPE
  2
DASHED
 70
    64
  3
__ __ __ __ __ __ __ __ __ __ __ __ __ __ __
 72
    65
 73
     2
 40
3.500000
 49
2.000000
 49
-1.500000
  0
LTYPE
  2
CENTER
 70
    64
  3
____ _ ____ _ ____ _ ____ _ ____ _ ____ _ ____
 72
    65
 73
     4
 40
17.500000
 49
13.000000
 49
-1.500000
 49
1.500000
 49
-1.500000
  0
LTYPE
  2
PHANTOM
 70
    64
  3
_____ _ _ _____ _ _ _____ _ _ _____ _ _ ____  
 72
    65
 73
     6
 40
15.500000
 49
8.000000
 49
-1.500000
 49
1.500000
 49
-1.500000
 49
1.500000
 49
-1.500000
  0
LTYPE
  2
DOT
 70
    64
  3
. . . . . . . . . . . . . . . . . . . . . . . .
 72
    65
 73
     2
 40
0.25
 49
0.0
 49
-0.25
  0
ENDTAB
  0
TABLE
  2
LAYER
 70
     1
  0
LAYER
  2
0
 70
     0
 62
     7
  6
CONTINUOUS
  0
ENDTAB
  0
TABLE
  2
STYLE
 70
     1
  0
STYLE
  2
STANDARD
 70
     0
 40
0.000000
 41
1.000000
 50
0.000000
 71
     0
 42
0.200000
  3
txt
  4
BIGFONT
  0
ENDTAB
  0
TABLE
  2
VIEW
 70
     0
  0
ENDTAB
  0
ENDSEC
  0
SECTION
  2
BLOCKS
  0
ENDSEC
  0
SECTION
  2
ENTITIES
  0
LINE
  8
0
  6
CONTINUOUS
 62
     7
 10
65.55928802490234
 20
0
 11
285.5592956542969
 21
0
  0
LINE
  8
0
  6
CONTINUOUS
 62
     7
 10
65.55928802490234
 20
22
 11
133.6092681884766
 21
22
  0
LINE
  8
0
  6
CONTINUOUS
 62
     7
 10
65.55928802490234
 20
6.099853515625
 11
150.8804626464844
 21
6.099853515625
  0
LINE
  8
0
  6
CONTINUOUS
 62
     7
 10
65.55928802490234
 20
9.7998046875
 11
133.6092681884766
 21
9.7998046875
  0
LINE
  8
0
  6
CONTINUOUS
 62
     7
 10
65.55928802490234
 20
13.3798828125
 11
133.6092681884766
 21
13.3798828125
  0
LINE
  8
0
  6
CONTINUOUS
 62
     7
 10
65.55928802490234
 20
19.29783248901367
 11
133.6092681884766
 21
19.29783248901367
  0
LINE
  8
0
  6
CONTINUOUS
 62
     7
 10
65.55928802490234
 20
21.37410926818848
 11
133.6092681884766
 21
21.37410926818848
  0
LINE
  8
0
  6
CONTINUOUS
 62
     7
 10
65.55928802490234
 20
16.70192337036133
 11
133.6092681884766
 21
16.70192337036133
  0
LINE
  8
0
  6
CENTER
 62
     7
 10
85.55928802490234
 20
23
 11
85.55928802490234
 21
-1
  0
LINE
  8
0
  6
CONTINUOUS
 62
     7
 10
65.55928802490234
 20
22
 11
65.55928802490234
 21
0
  0
LINE
  8
0
  6
CENTER
 62
     7
 10
145.5592956542969
 20
8.5
 11
145.5592956542969
 21
-1
  0
LINE
  8
0
  6
DASHED
 62
     7
 10
80.05928802490234
 20
22
 11
80.05928802490234
 21
13
  0
LINE
  8
0
  6
DASHED
 62
     7
 10
91.05928802490234
 20
22
 11
91.05928802490234
 21
13
  0
LINE
  8
0
  6
DASHED
 62
     7
 10
89.05928802490234
 20
13
 11
89.05928802490234
 21
0
  0
LINE
  8
0
  6
DASHED
 62
     7
 10
82.05928802490234
 20
13
 11
82.05928802490234
 21
0
  0
LINE
  8
0
  6
DASHED
 62
     7
 10
80.05928802490234
 20
13
 11
91.05928802490234
 21
13
  0
LINE
  8
0
  6
CONTINUOUS
 62
     7
 10
285.5592956542969
 20
21.37410926818848
 11
217.5092926025391
 21
21.37410926818848
  0
LINE
  8
0
  6
CONTINUOUS
 62
     7
 10
285.5592956542969
 20
22
 11
217.5092926025391
 21
22
  0
LINE
  8
0
  6
CENTER
 62
     7
 10
265.5592956542969
 20
23
 11
265.5592956542969
 21
-1
  0
LINE
  8
0
  6
CONTINUOUS
 62
     7
 10
285.5592956542969
 20
19.29783248901367
 11
217.5092926025391
 21
19.29783248901367
  0
LINE
  8
0
  6
CONTINUOUS
 62
     7
 10
285.5592956542969
 20
13.3798828125
 11
217.5092926025391
 21
13.3798828125
  0
LINE
  8
0
  6
CONTINUOUS
 62
     7
 10
285.5592956542969
 20
16.70192337036133
 11
217.5092926025391
 21
16.70192337036133
  0
LINE
  8
0
  6
CONTINUOUS
 62
     7
 10
285.5592956542969
 20
22
 11
285.5592956542969
 21
0
  0
LINE
  8
0
  6
CENTER
 62
     7
 10
205.5592956542969
 20
8.5
 11
205.5592956542969
 21
-1
  0
LINE
  8
0
  6
CONTINUOUS
 62
     7
 10
285.5592956542969
 20
9.7998046875
 11
217.5092926025391
 21
9.7998046875
  0
LINE
  8
0
  6
CONTINUOUS
 62
     7
 10
137.5092620849609
 20
147
 11
137.5092620849609
 21
101
  0
LINE
  8
0
  6
CENTER
 62
     7
 10
64.55928802490234
 20
124
 11
286.5592956542969
 21
124
  0
LINE
  8
0
  6
CONTINUOUS
 62
     7
 10
65.55928802490234
 20
135.5
 11
65.55928802490234
 21
112.5
  0
LINE
  8
0
  6
CONTINUOUS
 62
     7
 10
133.6092681884766
 20
101
 11
145.8092651367188
 21
101
  0
LINE
  8
0
  6
CONTINUOUS
 62
     7
 10
133.6092681884766
 20
147
 11
145.8092651367188
 21
147
  0
LINE
  8
0
  6
CONTINUOUS
 62
     7
 10
217.5092620849609
 20
101
 11
205.3092651367188
 21
101
  0
LINE
  8
0
  6
CONTINUOUS
 62
     7
 10
217.5092620849609
 20
147
 11
205.3092651367188
 21
147
  0
LINE
  8
0
  6
CONTINUOUS
 62
     7
 10
213.6092681884766
 20
147
 11
213.6092681884766
 21
101
  0
LINE
  8
0
  6
CONTINUOUS
 62
     7
 10
65.55928802490234
 20
112.5
 11
133.6092681884766
 21
112.5
  0
LINE
  8
0
  6
CONTINUOUS
 62
     7
 10
65.55928802490234
 20
115.58984375
 11
123.9710388183594
 21
115.58984375
  0
LINE
  8
0
  6
CONTINUOUS
 62
     7
 10
65.55928802490234
 20
132.409912109375
 11
133.6092681884766
 21
132.409912109375
  0
LINE
  8
0
  6
CONTINUOUS
 62
     7
 10
65.55928802490234
 20
135.5
 11
133.6092681884766
 21
135.5
  0
LINE
  8
0
  6
CENTER
 62
     7
 10
85.55928802490234
 20
130.5
 11
85.55928802490234
 21
117.5
  0
LINE
  8
0
  6
CONTINUOUS
 62
     7
 10
285.5592346191406
 20
135.5
 11
285.5592346191406
 21
112.5
  0
LINE
  8
0
  6
CONTINUOUS
 62
     7
 10
285.5592346191406
 20
135.5
 11
217.5092620849609
 21
135.5
  0
LINE
  8
0
  6
CONTINUOUS
 62
     7
 10
285.5592346191406
 20
132.409912109375
 11
217.5092620849609
 21
132.409912109375
  0
LINE
  8
0
  6
CONTINUOUS
 62
     7
 10
285.5592346191406
 20
115.58984375
 11
217.5092620849609
 21
115.58984375
  0
LINE
  8
0
  6
CONTINUOUS
 62
     7
 10
285.5592346191406
 20
112.5
 11
217.5092620849609
 21
112.5
  0
LINE
  8
0
  6
CENTER
 62
     7
 10
145.5592956542969
 20
130.5
 11
145.5592956542969
 21
117.5
  0
LINE
  8
0
  6
CENTER
 62
     7
 10
205.5592956542969
 20
130.5
 11
205.5592956542969
 21
117.5
  0
LINE
  8
0
  6
CENTER
 62
     7
 10
265.5592956542969
 20
130.5
 11
265.5592956542969
 21
117.5
  0
LINE
  8
0
  6
CENTER
 62
     7
 10
-15.599853515625
 20
8.5
 11
-15.599853515625
 21
4.5
  0
LINE
  8
0
  6
CENTER
 62
     7
 10
15.60009765625
 20
10.59999084472656
 11
15.60009765625
 21
4.183494567871094
  0
LINE
  8
0
  6
CONTINUOUS
 62
     7
 10
10
 20
0
 11
2.25
 21
0
  0
LINE
  8
0
  6
CONTINUOUS
 62
     7
 10
-8.409912109375
 20
22
 11
8.41015625
 21
22
  0
LINE
  8
0
  6
CONTINUOUS
 62
     7
 10
-11.5
 20
18.91015625
 11
-11.5
 21
17.080078125
  0
LINE
  8
0
  6
CONTINUOUS
 62
     7
 10
11.5
 20
18.91015625
 11
11.5
 21
17.080078125
  0
LINE
  8
0
  6
CONTINUOUS
 62
     7
 10
7.800048828125
 20
13.380126953125
 11
7.800048828125
 21
9.800048828125
  0
LINE
  8
0
  6
CONTINUOUS
 62
     7
 10
-7.7998046875
 20
13.380126953125
 11
-7.7998046875
 21
9.800048828125
  0
LINE
  8
0
  6
CONTINUOUS
 62
     7
 10
-11.49977111816406
 20
18.91010475158691
 11
-11.07871818542481
 21
19.33115768432617
  0
LINE
  8
0
  6
CONTINUOUS
 62
     7
 10
-11.49977016448975
 20
6.100008010864258
 11
-7.799716949462891
 21
9.800061225891113
  0
LINE
  8
0
  6
CONTINUOUS
 62
     7
 10
7.800287246704102
 20
13.37998390197754
 11
9.033915519714356
 21
14.61361217498779
  0
LINE
  8
0
  6
CONTINUOUS
 62
     7
 10
8.410212516784668
 20
22.00010299682617
 11
9.035836219787598
 21
21.37447929382324
  0
LINE
  8
0
  6
CONTINUOUS
 62
     7
 10
7.800168514251709
 20
9.800093650817871
 11
11.50020027160645
 21
6.100061893463135
  0
LINE
  8
0
  6
CONTINUOUS
 62
     7
 10
-11.49978160858154
 20
17.07991981506348
 11
-11.09081268310547
 21
16.67094993591309
  0
LINE
  8
0
  6
CONTINUOUS
 62
     7
 10
-11.5
 20
6.10009765625
 11
-11.5
 21
1.5
  0
LINE
  8
0
  6
CONTINUOUS
 62
     7
 10
11.5
 20
6.10009765625
 11
11.5
 21
1.5
  0
LINE
  8
0
  6
CONTINUOUS
 62
     7
 10
-11.49982261657715
 20
1.500062823295593
 11
-9.999809265136719
 21
4.998615258955397E-005
  0
LINE
  8
0
  6
CONTINUOUS
 62
     7
 10
11.50016593933106
 20
1.5000239610672
 11
10.00015354156494
 21
1.121106834034436E-005
  0
LINE
  8
0
  6
CONTINUOUS
 62
     7
 10
-9.033539772033691
 20
14.61367702484131
 11
-7.799900054931641
 21
13.38003730773926
  0
LINE
  8
0
  6
CONTINUOUS
 62
     7
 10
-9.035428047180176
 20
21.37444686889648
 11
-8.409804344177246
 21
22.00007057189941
  0
LINE
  8
0
  6
CONTINUOUS
 62
     7
 10
11.07919788360596
 20
19.33111763000488
 11
11.50017929077148
 21
18.91013526916504
  0
LINE
  8
0
  6
CONTINUOUS
 62
     7
 10
11.09118843078613
 20
16.67088508605957
 11
11.50015735626221
 21
17.07985305786133
  0
LINE
  8
0
  6
CONTINUOUS
 62
     7
 10
-1.75
 20
0.5
 11
1.75
 21
0.5
  0
LINE
  8
0
  6
CONTINUOUS
 62
     7
 10
-2.249841451644898
 20
-2.899703213188332E-005
 11
-1.749722242355347
 21
0.5000902414321899
  0
LINE
  8
0
  6
CONTINUOUS
 62
     7
 10
1.750152111053467
 20
0.5001657605171204
 11
2.250271320343018
 21
4.653012001654133E-005
  0
LINE
  8
0
  6
CONTINUOUS
 62
     7
 10
-2.249755859375
 20
0
 11
-9.999759674072266
 21
0
  0
LINE
  8
0
  6
CENTER
 62
     7
 10
-5
 20
30
 11
13.70941162109375
 21
30
  0
LINE
  8
0
  6
CONTINUOUS
 62
     7
 10
-22.749755859375
 20
7.5
 11
-10.099853515625
 21
7.5
  0
LINE
  8
0
  6
CONTINUOUS
 62
     7
 10
18
 20
7.5
 11
21.50048828125
 21
7.5
  0
LINE
  8
0
  6
CONTINUOUS
 62
     7
 10
1.780029296875
 20
33.5
 11
5.860107421875
 21
33.5
  0
LINE
  8
0
  6
CONTINUOUS
 62
     7
 10
1.780029296875
 20
26.5
 11
5.860107421875
 21
26.5
  0
LINE
  8
0
  6
CONTINUOUS
 62
     7
 10
1.130232334136963
 20
30.00018882751465
 11
1.780265212059021
 21
26.49997901916504
  0
LINE
  8
0
  6
CONTINUOUS
 62
     7
 10
1.130270123481751
 20
30.00000190734863
 11
1.780258417129517
 21
33.49997329711914
  0
LINE
  8
0
  6
CONTINUOUS
 62
     7
 10
3.440334320068359
 20
30.00000953674316
 11
4.09033727645874
 21
26.50004196166992
  0
LINE
  8
0
  6
CONTINUOUS
 62
     7
 10
3.440199613571167
 20
30.00008773803711
 11
4.090202331542969
 21
33.50005722045898
  0
LINE
  8
0
  6
CONTINUOUS
 62
     7
 10
5.950561046600342
 20
26.97007179260254
 11
5.860508441925049
 21
26.49985885620117
  0
LINE
  8
0
  6
CONTINUOUS
 62
     7
 10
5.950516223907471
 20
33.02014541625977
 11
5.860522270202637
 21
33.50006103515625
  0
LINE
  8
0
  6
CONTINUOUS
 62
     7
 10
7.766203880310059
 20
26.75434684753418
 11
10.52004337310791
 21
27.49996948242188
  0
LINE
  8
0
  6
CONTINUOUS
 62
     7
 10
7.750214576721191
 20
33.24991226196289
 11
10.5203447341919
 21
32.4998779296875
  0
LINE
  8
0
  6
CONTINUOUS
 62
     7
 10
0.00069834990426898
 20
25.38089561462402
 11
1.947875142097473
 21
26.49997711181641
  0
LINE
  8
0
  6
CONTINUOUS
 62
     7
 10
-0.0002379439974902198
 20
34.61909866333008
 11
1.938170552253723
 21
33.49995803833008
  0
LINE
  8
0
  6
CONTINUOUS
 62
     7
 10
-17.7998046875
 20
7.400146484375
 11
-11.39990234375
 21
7.400146484375
  0
LINE
  8
0
  6
CONTINUOUS
 62
     7
 10
-17.7998046875
 20
7.5
 11
-17.7998046875
 21
7.400146484375
  0
LINE
  8
0
  6
CONTINUOUS
 62
     7
 10
11.400146484375
 20
7.400146484375
 11
17.800048828125
 21
7.400146484375
  0
LINE
  8
0
  6
CONTINUOUS
 62
     7
 10
17.800048828125
 20
7.400146484375
 11
17.800048828125
 21
7.5
  0
LINE
  8
0
  6
CONTINUOUS
 62
     7
 10
23
 20
33.5
 11
23
 21
9
  0
LINE
  8
0
  6
CONTINUOUS
 62
     7
 10
-21.50005340576172
 20
35
 11
21.5
 21
35
  0
LINE
  8
0
  6
CONTINUOUS
 62
     7
 10
21.50008392333984
 20
34.99996948242188
 11
23.00008964538574
 21
33.49995422363281
  0
LINE
  8
0
  6
CONTINUOUS
 62
     7
 10
23.00027847290039
 20
9.000056266784668
 11
21.5002613067627
 21
7.50004768371582
  0
LINE
  8
0
  6
CONTINUOUS
 62
     7
 10
10.10009765625
 20
7.5
 11
22.75
 21
7.5
  0
LINE
  8
0
  6
CONTINUOUS
 62
     7
 10
-23
 20
9
 11
-23
 21
33.50004196166992
  0
LINE
  8
0
  6
CONTINUOUS
 62
     7
 10
-21.49984169006348
 20
7.500010967254639
 11
-22.99985885620117
 21
9.000019073486328
  0
LINE
  8
0
  6
CONTINUOUS
 62
     7
 10
-3.99807071685791
 20
32.31107330322266
 11
-0.0003287560830358416
 21
34.61917114257813
  0
LINE
  8
0
  6
CONTINUOUS
 62
     7
 10
-3.997915744781494
 20
27.68954467773438
 11
0.0006861041183583438
 21
25.38095092773438
  0
LINE
  8
0
  6
CONTINUOUS
 62
     7
 10
-3.998046875
 20
32.311279296875
 11
-3.998046875
 21
27.689453125
  0
LINE
  8
0
  6
CONTINUOUS
 62
     7
 10
-13.90169048309326
 20
6.206043720245361
 11
-13.84972858428955
 21
7.400064468383789
  0
LINE
  8
0
  6
CONTINUOUS
 62
     7
 10
-17.34962844848633
 20
7.400127410888672
 11
-17.29766654968262
 21
6.206106662750244
  0
LINE
  8
0
  6
DASHED
 62
     7
 10
-5.5
 20
22
 11
-5.5
 21
13
  0
LINE
  8
0
  6
DASHED
 62
     7
 10
5.5
 20
22
 11
5.5
 21
13
  0
LINE
  8
0
  6
DASHED
 62
     7
 10
3.5
 20
13
 11
3.5
 21
0
  0
LINE
  8
0
  6
DASHED
 62
     7
 10
-3.5
 20
13
 11
-3.5
 21
0
  0
LINE
  8
0
  6
DASHED
 62
     7
 10
-5.5
 20
13
 11
5.5
 21
13
  0
LINE
  8
0
  6
CENTER
 62
     7
 10
0
 20
40.611572265625
 11
0
 21
-1.47607421875
  0
LINE
  8
0
  6
CONTINUOUS
 62
     7
 10
-22.499755859375
 20
40
 11
-8.849853515625
 21
40
  0
LINE
  8
0
  6
CONTINUOUS
 62
     7
 10
24
 20
38.5
 11
24
 21
32
  0
LINE
  8
0
  6
CONTINUOUS
 62
     7
 10
-24
 20
38.5
 11
-24
 21
32
  0
LINE
  8
0
  6
CONTINUOUS
 62
     7
 10
23.75
 20
31.75
 11
23.75
 21
8.5
  0
LINE
  8
0
  6
CONTINUOUS
 62
     7
 10
-23.75
 20
31.75
 11
-23.75
 21
8.500228881835938
  0
LINE
  8
0
  6
CONTINUOUS
 62
     7
 10
-8
 20
39.150146484375
 11
8
 21
39.150146484375
  0
LINE
  8
0
  6
CONTINUOUS
 62
     7
 10
-22.74980354309082
 20
7.500030994415283
 11
-23.74986839294434
 21
8.500097274780273
  0
LINE
  8
0
  6
CONTINUOUS
 62
     7
 10
23.75026893615723
 20
8.50002384185791
 11
22.75020217895508
 21
7.499958038330078
  0
LINE
  8
0
  6
CONTINUOUS
 62
     7
 10
-22.49980163574219
 20
40.0000114440918
 11
-23.99980926513672
 21
38.49999618530273
  0
LINE
  8
0
  6
CONTINUOUS
 62
     7
 10
22.50016593933106
 20
40.00004959106445
 11
24.00017356872559
 21
38.50003433227539
  0
LINE
  8
0
  6
CONTINUOUS
 62
     7
 10
8.849944114685059
 20
40
 11
22.5
 21
40
  0
LINE
  8
0
  6
CONTINUOUS
 62
     7
 10
-7.999820232391357
 20
39.14988327026367
 11
-8.849870681762695
 21
39.99992752075195
  0
LINE
  8
0
  6
CENTER
 62
     7
 10
-17.5
 20
41.4072265625
 11
-17.5
 21
27.384765625
  0
LINE
  8
0
  6
DASHED
 62
     7
 10
-20.5
 20
40
 11
-20.5
 21
32
  0
LINE
  8
0
  6
DASHED
 62
     7
 10
-14.5
 20
40
 11
-14.5
 21
32
  0
LINE
  8
0
  6
DASHED
 62
     7
 10
-14.89990234375
 20
40
 11
-14.89990234375
 21
29.650146484375
  0
LINE
  8
0
  6
DASHED
 62
     7
 10
-20.099853515625
 20
40
 11
-20.099853515625
 21
29.650146484375
  0
LINE
  8
0
  6
DASHED
 62
     7
 10
-20.5
 20
32
 11
-14.5
 21
32
  0
LINE
  8
0
  6
DASHED
 62
     7
 10
-20.099853515625
 20
29.650146484375
 11
-14.89990234375
 21
29.650146484375
  0
LINE
  8
0
  6
DASHED
 62
     7
 10
-14.8997220993042
 20
29.65007972717285
 11
-17.49969863891602
 21
28.14897537231445
  0
LINE
  8
0
  6
DASHED
 62
     7
 10
-20.09972763061523
 20
29.64994239807129
 11
-17.49974632263184
 21
28.14884185791016
  0
LINE
  8
0
  6
DASHED
 62
     7
 10
-14.49940586090088
 20
31.99996566772461
 11
-14.89942073822022
 21
31.30709838867188
  0
LINE
  8
0
  6
DASHED
 62
     7
 10
-20.49968910217285
 20
31.99994659423828
 11
-20.09976387023926
 21
31.30725479125977
  0
LINE
  8
0
  6
CENTER
 62
     7
 10
17.5
 20
26.701171875
 11
17.5
 21
41.4072265625
  0
LINE
  8
0
  6
CONTINUOUS
 62
     7
 10
23.75016975402832
 20
31.74994850158691
 11
24.00015068054199
 21
31.99991416931152
  0
LINE
  8
0
  6
CONTINUOUS
 62
     7
 10
-23.99967765808106
 20
31.99994468688965
 11
-23.74969673156738
 21
31.74997901916504
  0
LINE
  8
0
  6
CENTER
 62
     7
 10
-13.75
 20
30
 11
-6.25
 21
30
  0
LINE
  8
0
  6
CENTER
 62
     7
 10
-10
 20
33.75
 11
-10
 21
26.25
  0
LINE
  8
0
  6
CENTER
 62
     7
 10
10
 20
26.25
 11
10
 21
33.75
  0
LINE
  8
0
  6
DASHED
 62
     7
 10
155.4594116210938
 20
29.650146484375
 11
160.6593627929688
 21
29.650146484375
  0
LINE
  8
0
  6
DASHED
 62
     7
 10
158.0592803955078
 20
28.14879417419434
 11
155.4593048095703
 21
29.64989852905273
  0
LINE
  8
0
  6
DASHED
 62
     7
 10
158.0592803955078
 20
28.14883422851563
 11
160.6592559814453
 21
29.64993286132813
  0
LINE
  8
0
  6
DASHED
 62
     7
 10
155.4592437744141
 20
31.30709648132324
 11
155.0592346191406
 21
31.99996376037598
  0
LINE
  8
0
  6
DASHED
 62
     7
 10
160.6594848632813
 20
31.3071460723877
 11
161.0593872070313
 21
31.99979782104492
  0
LINE
  8
0
  6
CONTINUOUS
 62
     7
 10
147.4596557617188
 20
40
 11
203.6595916748047
 21
40
  0
LINE
  8
0
  6
CENTER
 62
     7
 10
152.559326171875
 20
8.5
 11
152.559326171875
 21
4.5
  0
LINE
  8
0
  6
CENTER
 62
     7
 10
198.5591735839844
 20
8.5
 11
198.5591735839844
 21
4.5
  0
LINE
  8
0
  6
CONTINUOUS
 62
     7
 10
213.6092987060547
 20
7.5
 11
213.6092987060547
 21
35
  0
LINE
  8
0
  6
CONTINUOUS
 62
     7
 10
215.1092987060547
 20
7.5
 11
215.1092987060547
 21
35
  0
LINE
  8
0
  6
CONTINUOUS
 62
     7
 10
213.6092987060547
 20
35
 11
217.5092926025391
 21
35
  0
LINE
  8
0
  6
CONTINUOUS
 62
     7
 10
213.6092987060547
 20
7.5
 11
217.5092926025391
 21
7.5
  0
LINE
  8
0
  6
CONTINUOUS
 62
     7
 10
205.3092498779297
 20
35
 11
212.6092987060547
 21
35
  0
LINE
  8
0
  6
CONTINUOUS
 62
     7
 10
205.3092498779297
 20
7.5
 11
213.6092987060547
 21
7.5
  0
LINE
  8
0
  6
CONTINUOUS
 62
     7
 10
213.6094207763672
 20
33.99990081787109
 11
212.6093444824219
 21
34.99995422363281
  0
LINE
  8
0
  6
CONTINUOUS
 62
     7
 10
137.5092620849609
 20
35
 11
137.5092620849609
 21
7.5
  0
LINE
  8
0
  6
CONTINUOUS
 62
     7
 10
138.5092620849609
 20
35
 11
145.8092651367188
 21
35
  0
LINE
  8
0
  6
CONTINUOUS
 62
     7
 10
137.5092620849609
 20
7.5
 11
145.8092651367188
 21
7.5
  0
LINE
  8
0
  6
CONTINUOUS
 62
     7
 10
138.5092315673828
 20
34.99993515014648
 11
137.5091552734375
 21
33.9998779296875
  0
LINE
  8
0
  6
CONTINUOUS
 62
     7
 10
154.2574920654297
 20
6.205997943878174
 11
154.3181915283203
 21
7.500000953674316
  0
LINE
  8
0
  6
CONTINUOUS
 62
     7
 10
150.8007049560547
 20
7.5
 11
150.8613891601563
 21
6.206161022186279
  0
LINE
  8
0
  6
CONTINUOUS
 62
     7
 10
145.8092651367188
 20
38.35009765625
 11
145.8092651367188
 21
7.5
  0
LINE
  8
0
  6
CONTINUOUS
 62
     7
 10
205.3092498779297
 20
7.5
 11
205.3092498779297
 21
38.35009765625
  0
LINE
  8
0
  6
CONTINUOUS
 62
     7
 10
145.8092651367188
 20
7.5
 11
205.3092498779297
 21
7.5
  0
LINE
  8
0
  6
CONTINUOUS
 62
     7
 10
145.8094177246094
 20
38.34983444213867
 11
147.4594421386719
 21
39.99987030029297
  0
LINE
  8
0
  6
CONTINUOUS
 62
     7
 10
203.6594390869141
 20
40.00009918212891
 11
205.3094787597656
 21
38.35006332397461
  0
LINE
  8
0
  6
CENTER
 62
     7
 10
193.0592498779297
 20
26.701171875
 11
193.0592498779297
 21
41
  0
LINE
  8
0
  6
DASHED
 62
     7
 10
161.0592651367188
 20
32
 11
161.0592651367188
 21
40
  0
LINE
  8
0
  6
CENTER
 62
     7
 10
158.0592651367188
 20
26.701171875
 11
158.0592651367188
 21
41
  0
LINE
  8
0
  6
DASHED
 62
     7
 10
155.4594116210938
 20
29.650146484375
 11
155.4594116210938
 21
40
  0
LINE
  8
0
  6
DASHED
 62
     7
 10
155.0592651367188
 20
32
 11
161.0592651367188
 21
32
  0
LINE
  8
0
  6
DASHED
 62
     7
 10
160.6593627929688
 20
29.650146484375
 11
160.6593627929688
 21
40
  0
LINE
  8
0
  6
DASHED
 62
     7
 10
155.0592651367188
 20
32
 11
155.0592651367188
 21
40
  0
LINE
  8
0
  6
CONTINUOUS
 62
     7
 10
-21.50008392333984
 20
34.99996948242188
 11
-23.00008964538574
 21
33.49995422363281
  0
LINE
  8
0
  6
CONTINUOUS
 62
     7
 10
145.8092651367188
 20
100
 11
205.3092498779297
 21
100
  0
LINE
  8
0
  6
CONTINUOUS
 62
     7
 10
145.8092651367188
 20
147.9998016357422
 11
205.3092498779297
 21
147.9998016357422
  0
LINE
  8
0
  6
CONTINUOUS
 62
     7
 10
145.8092651367188
 20
132.849853515625
 11
205.3092498779297
 21
132.849853515625
  0
LINE
  8
0
  6
CONTINUOUS
 62
     7
 10
145.8092651367188
 20
115.189697265625
 11
205.3092498779297
 21
115.189697265625
  0
LINE
  8
0
  6
CONTINUOUS
 62
     7
 10
145.8092651367188
 20
147.9998016357422
 11
145.8092651367188
 21
100
  0
LINE
  8
0
  6
CONTINUOUS
 62
     7
 10
205.3092498779297
 20
147.9998016357422
 11
205.3092498779297
 21
100
  0
LINE
  8
0
  6
CENTER
 62
     7
 10
158.0592651367188
 20
110.5
 11
158.0592651367188
 21
102.5
  0
LINE
  8
0
  6
CENTER
 62
     7
 10
154.0592651367188
 20
106.5
 11
162.0592651367188
 21
106.5
  0
LINE
  8
0
  6
CENTER
 62
     7
 10
158.0592651367188
 20
145.5
 11
158.0592651367188
 21
137.5
  0
LINE
  8
0
  6
CENTER
 62
     7
 10
154.0592651367188
 20
141.5
 11
162.0592651367188
 21
141.5
  0
LINE
  8
0
  6
CENTER
 62
     7
 10
193.0592498779297
 20
145.5
 11
193.0592498779297
 21
137.5
  0
LINE
  8
0
  6
CENTER
 62
     7
 10
189.0592498779297
 20
141.5
 11
197.0592498779297
 21
141.5
  0
LINE
  8
0
  6
CENTER
 62
     7
 10
193.0592498779297
 20
110.5
 11
193.0592498779297
 21
102.5
  0
LINE
  8
0
  6
CENTER
 62
     7
 10
189.0592498779297
 20
106.5
 11
197.0592498779297
 21
106.5
  0
LINE
  8
0
  6
CONTINUOUS
 62
     7
 10
145.8092651367188
 20
32
 11
205.3092498779297
 21
32
  0
LINE
  8
0
  6
CONTINUOUS
 62
     7
 10
7.999820232391357
 20
39.14988327026367
 11
8.849943161010742
 21
40
  0
LINE
  8
0
  6
CONTINUOUS
 62
     7
 10
-13.99999237060547
 20
16.04445648193359
 11
-10.29999256134033
 21
12.34445571899414
  0
LINE
  8
0
  6
CONTINUOUS
 62
     7
 10
14
 20
16.04446029663086
 11
10.29999828338623
 21
12.34445858001709
  0
LINE
  8
0
  6
CONTINUOUS
 62
     7
 10
-13.63552761077881
 20
7.499996185302734
 11
-10.29999256134033
 21
10.83553123474121
  0
LINE
  8
0
  6
CONTINUOUS
 62
     7
 10
-10.30000305175781
 20
12.34445953369141
 11
-10.30000305175781
 21
10.83553314208984
  0
LINE
  8
0
  6
CONTINUOUS
 62
     7
 10
-13.99999713897705
 20
19.94553565979004
 11
-9.445534706115723
 21
24.49999809265137
  0
LINE
  8
0
  6
CONTINUOUS
 62
     7
 10
13.63553905487061
 20
7.499998569488525
 11
10.30000019073486
 21
10.83553695678711
  0
LINE
  8
0
  6
CONTINUOUS
 62
     7
 10
10.30000305175781
 20
12.34445953369141
 11
10.30000305175781
 21
10.83553314208984
  0
LINE
  8
0
  6
CONTINUOUS
 62
     7
 10
14
 20
19.94553375244141
 11
14
 21
16.04446411132813
  0
LINE
  8
0
  6
CONTINUOUS
 62
     7
 10
9.445541381835938
 20
24.5
 11
-9.445541381835938
 21
24.5
  0
LINE
  8
0
  6
CONTINUOUS
 62
     7
 10
14.0000057220459
 20
19.94552993774414
 11
9.445534706115723
 21
24.5
  0
LINE
  8
0
  6
CONTINUOUS
 62
     7
 10
-14
 20
19.94553375244141
 11
-14
 21
16.04446411132813
  0
LINE
  8
0
  6
CONTINUOUS
 62
     7
 10
-15
 20
30.69999694824219
 11
-13.17372131347656
 21
30.69999694824219
  0
LINE
  8
0
  6
CONTINUOUS
 62
     7
 10
-15
 20
27.30000305175781
 11
-11.80900573730469
 21
27.30000305175781
  0
LINE
  8
0
  6
CONTINUOUS
 62
     7
 10
11.80900573730469
 20
27.30000305175781
 11
15
 21
27.30000305175781
  0
LINE
  8
0
  6
CONTINUOUS
 62
     7
 10
13.17372131347656
 20
30.69999694824219
 11
15
 21
30.69999694824219
  0
LINE
  8
0
  6
CONTINUOUS
 62
     7
 10
-5
 20
35
 11
-5
 21
30
  0
LINE
  8
0
  6
CONTINUOUS
 62
     7
 10
5
 20
35
 11
5
 21
33.5
  0
LINE
  8
0
  6
CONTINUOUS
 62
     7
 10
215.1092681884766
 20
147
 11
215.1092681884766
 21
101
  0
LINE
  8
0
  6
CONTINUOUS
 62
     7
 10
217.5092620849609
 20
147
 11
217.5092620849609
 21
101
  0
LINE
  8
0
  6
CONTINUOUS
 62
     7
 10
217.5092926025391
 20
7.5
 11
217.5092926025391
 21
35
  0
LINE
  8
0
  6
CONTINUOUS
 62
     7
 10
130.4095306396484
 20
26
 11
133.4095306396484
 21
26
  0
LINE
  8
0
  6
CONTINUOUS
 62
     7
 10
133.0093841552734
 20
30.00020027160645
 11
131.5093841552734
 21
33.50017547607422
  0
LINE
  8
0
  6
CONTINUOUS
 62
     7
 10
132.1093902587891
 20
30.0001277923584
 11
130.5093841552734
 21
33.50013732910156
  0
LINE
  8
0
  6
CONTINUOUS
 62
     7
 10
131.5093841552734
 20
33.5
 11
126.3094329833984
 21
33.5
  0
LINE
  8
0
  6
CONTINUOUS
 62
     7
 10
126.309700012207
 20
33.49990463256836
 11
125.9096832275391
 21
32.91987609863281
  0
LINE
  8
0
  6
CONTINUOUS
 62
     7
 10
126.3094482421875
 20
26.5001163482666
 11
125.9094314575195
 21
27.08014678955078
  0
LINE
  8
0
  6
CONTINUOUS
 62
     7
 10
132.1096496582031
 20
30.00002479553223
 11
130.5097503662109
 21
26.500244140625
  0
LINE
  8
0
  6
CONTINUOUS
 62
     7
 10
133.0096435546875
 20
30.00023460388184
 11
131.5096588134766
 21
26.50025939941406
  0
LINE
  8
0
  6
CONTINUOUS
 62
     7
 10
131.5093841552734
 20
26.460205078125
 11
131.5093841552734
 21
26.5
  0
LINE
  8
0
  6
CONTINUOUS
 62
     7
 10
131.5093841552734
 20
26.5
 11
126.3094329833984
 21
26.5
  0
LINE
  8
0
  6
CONTINUOUS
 62
     7
 10
136.0092620849609
 20
35
 11
136.0092620849609
 21
7.5
  0
LINE
  8
0
  6
CONTINUOUS
 62
     7
 10
133.6092681884766
 20
35
 11
137.5092620849609
 21
35
  0
LINE
  8
0
  6
CONTINUOUS
 62
     7
 10
133.6092681884766
 20
7.5
 11
137.5092620849609
 21
7.5
  0
LINE
  8
0
  6
CONTINUOUS
 62
     7
 10
133.4094848632813
 20
34.12005996704102
 11
133.6092529296875
 21
34.31983947753906
  0
LINE
  8
0
  6
CONTINUOUS
 62
     7
 10
133.6092529296875
 20
25.68014907836914
 11
133.4093170166016
 21
25.88009643554688
  0
LINE
  8
0
  6
CONTINUOUS
 62
     7
 10
133.4095306396484
 20
25.880126953125
 11
133.4095306396484
 21
34.1201171875
  0
LINE
  8
0
  6
CONTINUOUS
 62
     7
 10
130.4095306396484
 20
34
 11
133.4095306396484
 21
34
  0
LINE
  8
0
  6
CONTINUOUS
 62
     7
 10
133.6092681884766
 20
35
 11
133.6092681884766
 21
7.5
  0
LINE
  8
0
  6
CENTER
 62
     7
 10
122.209587097168
 20
30
 11
138.1380462646484
 21
30
  0
LINE
  8
0
  6
CONTINUOUS
 62
     7
 10
133.6092681884766
 20
147
 11
133.6092681884766
 21
101
  0
LINE
  8
0
  6
CONTINUOUS
 62
     7
 10
136.0092620849609
 20
147
 11
136.0092620849609
 21
101
  0
LINE
  8
0
  6
CONTINUOUS
 62
     7
 10
125.0623092651367
 20
120.2935943603516
 11
131.6110992431641
 21
117.5809936523438
  0
LINE
  8
0
  6
CONTINUOUS
 62
     7
 10
125.2240676879883
 20
118.7394866943359
 11
130.3977813720703
 21
116.5964431762695
  0
LINE
  8
0
  6
CONTINUOUS
 62
     7
 10
132.7147827148438
 20
118.9460601806641
 11
132.3919219970703
 21
119.7255172729492
  0
LINE
  8
0
  6
CONTINUOUS
 62
     7
 10
126.0266418457031
 20
122.3621597290039
 11
132.3919525146484
 21
119.7255630493164
  0
LINE
  8
0
  6
CONTINUOUS
 62
     7
 10
130.2035980224609
 20
118.1640167236328
 11
131.0761566162109
 21
120.2705612182617
  0
LINE
  8
0
  6
CONTINUOUS
 62
     7
 10
126.4698104858398
 20
119.7105865478516
 11
127.3423843383789
 21
121.8171539306641
  0
LINE
  8
0
  6
CONTINUOUS
 62
     7
 10
126.0266189575195
 20
122.3620910644531
 11
125.247184753418
 21
122.0392379760742
  0
LINE
  8
0
  6
CONTINUOUS
 62
     7
 10
132.3001098632813
 20
117.9450149536133
 11
132.7147674560547
 21
118.9460754394531
  0
LINE
  8
0
  6
CONTINUOUS
 62
     7
 10
124.83251953125
 20
121.0381927490234
 11
125.2471923828125
 21
122.0392684936523
  0
LINE
  8
0
  6
CONTINUOUS
 62
     7
 10
128.32666015625
 20
112.6415481567383
 11
130.19140625
 21
114.7916259765625
  0
LINE
  8
0
  6
CONTINUOUS
 62
     7
 10
124.0938110351563
 20
117.3173370361328
 11
130.19140625
 21
114.791633605957
  0
LINE
  8
0
  6
CONTINUOUS
 62
     7
 10
123.8920516967773
 20
114.4784393310547
 11
128.3266754150391
 21
112.6415557861328
  0
LINE
  8
0
  6
CONTINUOUS
 62
     7
 10
133.4092559814453
 20
128
 11
133.6092681884766
 21
128
  0
LINE
  8
0
  6
CONTINUOUS
 62
     7
 10
123.8920516967773
 20
114.4784393310547
 11
124.0938110351563
 21
117.3173294067383
  0
LINE
  8
0
  6
CENTER
 62
     7
 10
125.6611251831055
 20
112.4778823852539
 11
130.5264282226563
 21
124.223762512207
  0
LINE
  8
0
  6
CONTINUOUS
 62
     7
 10
133.4092559814453
 20
120
 11
133.6092681884766
 21
120
  0
LINE
  8
0
  6
CONTINUOUS
 62
     7
 10
126.1093597412109
 20
124
 11
126.1093597412109
 21
122.327880859375
  0
LINE
  8
0
  6
CONTINUOUS
 62
     7
 10
131.7293853759766
 20
120
 11
133.4092712402344
 21
120
  0
LINE
  8
0
  6
CONTINUOUS
 62
     7
 10
130.1093597412109
 20
128
 11
133.4092712402344
 21
128
  0
LINE
  8
0
  6
CONTINUOUS
 62
     7
 10
130.4097290039063
 20
115.58984375
 11
133.6092681884766
 21
115.58984375
  0
LINE
  8
0
  6
CONTINUOUS
 62
     7
 10
154.2383117675781
 20
6.099853515625
 11
285.5592956542969
 21
6.099853515625
  0
CIRCLE
  8
0
  6
CONTINUOUS
 62
     7
 10
85.55928802490234
 20
124
 40
5.5
  0
CIRCLE
  8
0
  6
CONTINUOUS
 62
     7
 10
85.55928802490234
 20
124
 40
3.5
  0
ARC
  8
0
  6
CONTINUOUS
 62
     7
 10
0
 20
30
 40
4
 50
240.0000239814524
 51
241.0449882829511
  0
ARC
  8
0
  6
CONTINUOUS
 62
     7
 10
-15.599853515625
 20
10
 40
4.5
 50
253.6123724312344
 51
286.3877181824576
  0
ARC
  8
0
  6
CONTINUOUS
 62
     7
 10
-14.49951171875
 20
6.258544921875
 40
0.5999999642372133
 50
286.3876635409443
 51
355.0000009992271
  0
ARC
  8
0
  6
CONTINUOUS
 62
     7
 10
-16.7001953125
 20
6.258544921875
 40
0.5999999642372131
 50
185.0000076521949
 51
253.6124270727479
  0
ARC
  8
0
  6
CONTINUOUS
 62
     7
 10
11.400146484375
 20
8
 40
0.5999999642372134
 50
236.4425336126296
 51
270.0000179860894
  0
ARC
  8
0
  6
CONTINUOUS
 62
     7
 10
6.6201171875
 20
25.920166015625
 40
1.246148109436035
 50
80.76452806729958
 51
142.1250351177266
  0
ARC
  8
0
  6
CONTINUOUS
 62
     7
 10
6.6201171875
 20
34.080078125
 40
1.254199028015138
 50
217.8749648822736
 51
279.2353626496737
  0
ARC
  8
0
  6
CONTINUOUS
 62
     7
 10
-11.39990234375
 20
8
 40
0.5999999642372134
 50
270.0000179860894
 51
303.5574716236979
  0
ARC
  8
0
  6
CONTINUOUS
 62
     7
 10
0
 20
30
 40
3.998106002807618
 50
63.34552394777273
 51
298.9059076658729
  0
ARC
  8
0
  6
CONTINUOUS
 62
     7
 10
0
 20
30
 40
4
 50
240.0000239814524
 51
241.0449882829511
  0
ARC
  8
0
  6
CONTINUOUS
 62
     7
 10
7.610107421875
 20
32.2900390625
 40
0.9701611399650598
 50
81.70288677623263
 51
144.668542923126
  0
ARC
  8
0
  6
CONTINUOUS
 62
     7
 10
153.6596069335938
 20
6.25830078125
 40
0.5999999642372117
 50
286.3876635409438
 51
355.0000009992272
  0
ARC
  8
0
  6
CONTINUOUS
 62
     7
 10
152.5592651367188
 20
10
 40
4.500000000000002
 50
253.6123724312343
 51
286.3877181824577
  0
ARC
  8
0
  6
CONTINUOUS
 62
     7
 10
-11.482421875
 20
21.778076171875
 40
2.479999542236328
 50
279.3651908854173
 51
350.6348441761449
  0
ARC
  8
0
  6
CONTINUOUS
 62
     7
 10
-11.482421875
 20
14.22216796875
 40
2.479999542236329
 50
9.085538124518461
 51
80.91440973844635
  0
ARC
  8
0
  6
CONTINUOUS
 62
     7
 10
11.482666015625
 20
21.778076171875
 40
2.479999542236329
 50
189.3652088715066
 51
260.6370102567283
  0
ARC
  8
0
  6
CONTINUOUS
 62
     7
 10
7.610107421875
 20
27.710205078125
 40
0.9683421850204466
 50
215.3314570768741
 51
278.2972225067941
  0
ARC
  8
0
  6
CONTINUOUS
 62
     7
 10
11.482666015625
 20
14.22216796875
 40
2.479999542236329
 50
99.08549964786162
 51
170.9144463938704
  0
ARC
  8
0
  6
CONTINUOUS
 62
     7
 10
151.4591674804688
 20
6.25830078125
 40
0.5999999642371989
 50
185.0000076521949
 51
253.6124270727472
  0
CIRCLE
  8
0
  6
CONTINUOUS
 62
     7
 10
158.0592651367188
 20
106.5
 40
3
  0
CIRCLE
  8
0
  6
CONTINUOUS
 62
     7
 10
158.0592651367188
 20
106.5
 40
2.599853515625
  0
ARC
  8
0
  6
CONTINUOUS
 62
     7
 10
10
 20
30
 40
3.25
 50
12.43809378993695
 51
113.1949697560046
  0
ARC
  8
0
  6
CONTINUOUS
 62
     7
 10
-10
 20
30
 40
3.250000000000001
 50
236.177836461535
 51
167.561902681283
  0
CIRCLE
  8
0
  6
CONTINUOUS
 62
     7
 10
15
 20
29
 40
1.700000047683716
  0
CIRCLE
  8
0
  6
CONTINUOUS
 62
     7
 10
-15
 20
29
 40
1.700000047683716
  0
ARC
  8
0
  6
CONTINUOUS
 62
     7
 10
0
 20
30
 40
5
 50
179.999991348578
 51
315.5729899200514
  0
ARC
  8
0
  6
CONTINUOUS
 62
     7
 10
10
 20
30
 40
3.25
 50
246.8134860181878
 51
303.8221687747924
  0
ARC
  8
0
  6
CONTINUOUS
 62
     7
 10
135.3094024658203
 20
26.41015625
 40
1.896939277648923
 50
153.6704453812576
 51
178.1912206525752
  0
ARC
  8
0
  6
CONTINUOUS
 62
     7
 10
130.4095001220703
 20
30.000244140625
 40
3.982465744018556
 50
241.5040862782025
 51
269.9999087030627
  0
ARC
  8
0
  6
CONTINUOUS
 62
     7
 10
130.4095001220703
 20
30.000244140625
 40
3.999999999999998
 50
89.99998201391055
 51
118.4958044387709
  0
ARC
  8
0
  6
CONTINUOUS
 62
     7
 10
136.7095489501953
 20
30.5302734375
 40
3.317879676818842
 50
159.1346376984028
 51
173.9458482720621
  0
ARC
  8
0
  6
CONTINUOUS
 62
     7
 10
135.3094024658203
 20
33.590087890625
 40
1.900939941406257
 50
181.8086700643979
 51
206.5721902588179
  0
ARC
  8
0
  6
CONTINUOUS
 62
     7
 10
136.7095489501953
 20
29.47021484375
 40
3.318496704101556
 50
186.054315652478
 51
200.8932977753026
  0
ARC
  8
0
  6
CONTINUOUS
 62
     7
 10
130.1093597412109
 20
124
 40
3.999999999999998
 50
89.99998201391055
 51
180.0000186693347
  0
ARC
  8
0
  6
CONTINUOUS
 62
     7
 10
131.2352905273438
 20
116.2990264892578
 40
0.7999999523162747
 50
132.5669776762372
 51
183.4201402735702
  0
ARC
  8
0
  6
CONTINUOUS
 62
     7
 10
124.4215545654297
 20
119.1213684082031
 40
0.7999999523162822
 50
311.5798327472963
 51
2.433049772698627
  0
ARC
  8
0
  6
CONTINUOUS
 62
     7
 10
134.7527923583984
 20
112.4692687988281
 40
6.000000000000011
 50
114.1278165022775
 51
132.5663219780771
  0
ARC
  8
0
  6
CONTINUOUS
 62
     7
 10
119.2262649536133
 20
118.9005737304688
 40
5.999999999999996
 50
2.433650829345525
 51
20.87173987704918
  0
ARC
  8
0
  6
CONTINUOUS
 62
     7
 10
127.1426086425781
 20
116.0544738769531
 40
3.29999923706055
 50
337.5000181569006
 51
3.419602296415186
  0
ARC
  8
0
  6
CONTINUOUS
 62
     7
 10
127.1426086425781
 20
116.0544738769531
 40
3.299999237060547
 50
131.5803705110074
 51
157.4999548639652
  0
POLYLINE
  8
0
  6
CONTINUOUS
 62
     7
 66
     1
 10
0
 20
0
  0
VERTEX
  8
0
  6
CONTINUOUS
 62
     7
 10
6.820068359375
 20
32.84999084472656
 42
0.1885726779010779
  0
VERTEX
  8
0
  6
CONTINUOUS
 62
     7
 10
6.460337272862854
 20
32.6903032293245
 42
0.07574420959134427
  0
VERTEX
  8
0
  6
CONTINUOUS
 62
     7
 10
6.21610037367873
 20
32.37246863396099
 42
0.03933604236364117
  0
VERTEX
  8
0
  6
CONTINUOUS
 62
     7
 10
6.046235838095941
 20
32.00713646364739
 42
0.0257714888312618
  0
VERTEX
  8
0
  6
CONTINUOUS
 62
     7
 10
5.924078660353725
 20
31.62298674628062
 42
0.01950550062451576
  0
VERTEX
  8
0
  6
CONTINUOUS
 62
     7
 10
5.836585601761552
 20
31.22877556625424
 42
0.01621492887998294
  0
VERTEX
  8
0
  6
CONTINUOUS
 62
     7
 10
5.777223621651758
 20
30.82918493987645
 42
0.01446689375526031
  0
VERTEX
  8
0
  6
CONTINUOUS
 62
     7
 10
5.742354699333071
 20
30.42666044128232
 42
0.01369167337259289
  0
VERTEX
  8
0
  6
CONTINUOUS
 62
     7
 10
5.730105970076803
 20
30.02251636559609
 42
0.01360443429893682
  0
VERTEX
  8
0
  6
CONTINUOUS
 62
     7
 10
5.739822332585088
 20
29.6196712336005
 42
0.0143148783651798
  0
VERTEX
  8
0
  6
CONTINUOUS
 62
     7
 10
5.7719715713962
 20
29.21741989230632
 42
0.01598150507265729
  0
VERTEX
  8
0
  6
CONTINUOUS
 62
     7
 10
5.828481546157015
 20
28.81660183583432
 42
0.01902643065606218
  0
VERTEX
  8
0
  6
CONTINUOUS
 62
     7
 10
5.912541747673066
 20
28.42144823600337
 42
0.0248794808049606
  0
VERTEX
  8
0
  6
CONTINUOUS
 62
     7
 10
6.030555548529692
 20
28.03505169882654
 42
0.03729593317875837
  0
VERTEX
  8
0
  6
CONTINUOUS
 62
     7
 10
6.194628358783495
 20
27.66586740618315
 42
0.06998300092439491
  0
VERTEX
  8
0
  6
CONTINUOUS
 62
     7
 10
6.430211843666779
 20
27.33853552047146
 42
0.1738224015069715
  0
VERTEX
  8
0
  6
CONTINUOUS
 62
     7
 10
6.779978578989481
 20
27.151936980602
 42
0
  0
SEQEND
  8
0
  0
POLYLINE
  8
0
  6
CONTINUOUS
 62
     7
 66
     1
 10
0
 20
0
  0
VERTEX
  8
0
  6
CONTINUOUS
 62
     7
 10
7.75
 20
33.25
 42
0.188650886634617
  0
VERTEX
  8
0
  6
CONTINUOUS
 62
     7
 10
7.335176339936563
 20
33.06581481268238
 42
0.07588873282306308
  0
VERTEX
  8
0
  6
CONTINUOUS
 62
     7
 10
7.053715040108791
 20
32.69909922466707
 42
0.03946210653137584
  0
VERTEX
  8
0
  6
CONTINUOUS
 62
     7
 10
6.858295081255292
 20
32.27757594584841
 42
0.02589551358249988
  0
VERTEX
  8
0
  6
CONTINUOUS
 62
     7
 10
6.718128340884406
 20
31.83431908164499
 42
0.01963311821542939
  0
VERTEX
  8
0
  6
CONTINUOUS
 62
     7
 10
6.61819559633743
 20
31.37952091467108
 42
0.01635620026062394
  0
VERTEX
  8
0
  6
CONTINUOUS
 62
     7
 10
6.550966645331165
 20
30.91858243030979
 42
0.01463240806319687
  0
VERTEX
  8
0
  6
CONTINUOUS
 62
     7
 10
6.512272208896336
 20
30.45430853617649
 42
0.01388413282193339
  0
VERTEX
  8
0
  6
CONTINUOUS
 62
     7
 10
6.500007728400826
 20
29.98859572805385
 42
0.01386058786413826
  0
VERTEX
  8
0
  6
CONTINUOUS
 62
     7
 10
6.513465663610211
 20
29.52426158147627
 42
0.0146715336346804
  0
VERTEX
  8
0
  6
CONTINUOUS
 62
     7
 10
6.5533620255207
 20
29.06056029359474
 42
0.01650604187225286
  0
VERTEX
  8
0
  6
CONTINUOUS
 62
     7
 10
6.622159173725639
 20
28.59871714852385
 42
0.01985489857588666
  0
VERTEX
  8
0
  6
CONTINUOUS
 62
     7
 10
6.723849302102207
 20
28.14411392118487
 42
0.02639109691682198
  0
VERTEX
  8
0
  6
CONTINUOUS
 62
     7
 10
6.866594247420096
 20
27.70065975608078
 42
0.0406509732321939
  0
VERTEX
  8
0
  6
CONTINUOUS
 62
     7
 10
7.066022719672096
 20
27.27970139353333
 42
0.07989400783617882
  0
VERTEX
  8
0
  6
CONTINUOUS
 62
     7
 10
7.355350475799208
 20
26.91622574348786
 42
0.1977504214628965
  0
VERTEX
  8
0
  6
CONTINUOUS
 62
     7
 10
7.77783539832434
 20
26.75080620034203
 42
0
  0
SEQEND
  8
0
  0
POLYLINE
  8
0
  6
CONTINUOUS
 62
     7
 66
     1
 10
0
 20
0
 70
     1
  0
VERTEX
  8
0
  6
CONTINUOUS
 62
     7
 10
10.52001953125
 20
32.5
 42
0.2551566096718412
  0
VERTEX
  8
0
  6
CONTINUOUS
 62
     7
 10
9.990205697803047
 20
32.07511353201534
 42
0.06319184911137921
  0
VERTEX
  8
0
  6
CONTINUOUS
 62
     7
 10
9.7361048620572
 20
31.41222750492618
 42
0.03518713495925148
  0
VERTEX
  8
0
  6
CONTINUOUS
 62
     7
 10
9.609371145564648
 20
30.71217696600283
 42
0.02798626466636508
  0
VERTEX
  8
0
  6
CONTINUOUS
 62
     7
 10
9.57000732421875
 20
30
 42
0.0279004320423075
  0
VERTEX
  8
0
  6
CONTINUOUS
 62
     7
 10
9.609142561808071
 20
29.28985106782708
 42
0.0351609506413189
  0
VERTEX
  8
0
  6
CONTINUOUS
 62
     7
 10
9.735640659931498
 20
28.58955981402875
 42
0.0631561577105207
  0
VERTEX
  8
0
  6
CONTINUOUS
 62
     7
 10
9.989678575003612
 20
27.92582027004889
 42
0.2552812342110241
  0
VERTEX
  8
0
  6
CONTINUOUS
 62
     7
 10
10.52001953125
 20
27.5
 42
0.2551561651234953
  0
VERTEX
  8
0
  6
CONTINUOUS
 62
     7
 10
11.04983367982663
 20
27.92488631871121
 42
0.06319200873202314
  0
VERTEX
  8
0
  6
CONTINUOUS
 62
     7
 10
11.30393472262135
 20
28.58777225891121
 42
0.0351872344855247
  0
VERTEX
  8
0
  6
CONTINUOUS
 62
     7
 10
11.43066831000094
 20
29.28782281996706
 42
0.02798636106883378
  0
VERTEX
  8
0
  6
CONTINUOUS
 62
     7
 10
11.47003173828125
 20
30
 42
0.02790043179201551
  0
VERTEX
  8
0
  6
CONTINUOUS
 62
     7
 10
11.43089705544029
 20
30.71014898153906
 42
0.03516100496095687
  0
VERTEX
  8
0
  6
CONTINUOUS
 62
     7
 10
11.30439943116081
 20
31.41044032048136
 42
0.0631563135920043
  0
VERTEX
  8
0
  6
CONTINUOUS
 62
     7
 10
11.05036170622723
 20
32.07417992810442
 42
0.2552818845544976
  0
SEQEND
  8
0
  0
POLYLINE
  8
0
  6
CONTINUOUS
 62
     7
 66
     1
 10
0
 20
0
  0
VERTEX
  8
0
  6
CONTINUOUS
 62
     7
 10
127.2095489501953
 20
33.250244140625
 42
0.01434925613043892
  0
VERTEX
  8
0
  6
CONTINUOUS
 62
     7
 10
127.0506681363285
 20
33.24568314165205
 42
0.01426059355604136
  0
VERTEX
  8
0
  6
CONTINUOUS
 62
     7
 10
126.8930573312079
 20
33.23210778307333
 42
0.0141757047167842
  0
VERTEX
  8
0
  6
CONTINUOUS
 62
     7
 10
126.7369585328152
 20
33.20966510458743
 42
0.01415089193205708
  0
VERTEX
  8
0
  6
CONTINUOUS
 62
     7
 10
126.5819966254427
 20
33.17834182624097
 42
0.01410159875753321
  0
VERTEX
  8
0
  6
CONTINUOUS
 62
     7
 10
126.4287348796286
 20
33.13823423287506
 42
0.01402958965525207
  0
VERTEX
  8
0
  6
CONTINUOUS
 62
     7
 10
126.2777182817451
 20
33.08949014929306
 42
0.01393700395497262
  0
VERTEX
  8
0
  6
CONTINUOUS
 62
     7
 10
126.1294680542618
 20
33.0323047269259
 42
0.01382627869989611
  0
VERTEX
  8
0
  6
CONTINUOUS
 62
     7
 10
125.9844770359078
 20
32.96691545350246
 42
0.01370006398012109
  0
VERTEX
  8
0
  6
CONTINUOUS
 62
     7
 10
125.8432060390674
 20
32.89359660326448
 42
0.01356113627983787
  0
VERTEX
  8
0
  6
CONTINUOUS
 62
     7
 10
125.7060812483587
 20
32.81265336194687
 42
0.01332235787651457
  0
VERTEX
  8
0
  6
CONTINUOUS
 62
     7
 10
125.5743715074602
 20
32.72503506191156
 42
0.01328778346136026
  0
VERTEX
  8
0
  6
CONTINUOUS
 62
     7
 10
125.446350848318
 20
32.62967200349232
 42
0.01315484945416394
  0
VERTEX
  8
0
  6
CONTINUOUS
 62
     7
 10
125.3232987134036
 20
32.52746669379626
 42
0.01293831205035066
  0
VERTEX
  8
0
  6
CONTINUOUS
 62
     7
 10
125.2062545295841
 20
32.41945236894687
 42
0.01278031710725316
  0
VERTEX
  8
0
  6
CONTINUOUS
 62
     7
 10
125.0949181908574
 20
32.30556341372031
 42
0.01262530371331459
  0
VERTEX
  8
0
  6
CONTINUOUS
 62
     7
 10
124.9895088145138
 20
32.18616639816997
 42
0
  0
SEQEND
  8
0
  0
POLYLINE
  8
0
  6
CONTINUOUS
 62
     7
 66
     1
 10
0
 20
0
  0
VERTEX
  8
0
  6
CONTINUOUS
 62
     7
 10
124.9854822596802
 20
27.81913082238484
 42
0.0628319378719706
  0
VERTEX
  8
0
  6
CONTINUOUS
 62
     7
 10
125.5497810725845
 20
27.29295883654003
 42
0.06649697188559076
  0
VERTEX
  8
0
  6
CONTINUOUS
 62
     7
 10
126.229781318467
 20
26.92845416754843
 42
0.06915556071676184
  0
VERTEX
  8
0
  6
CONTINUOUS
 62
     7
 10
126.9821358438592
 20
26.75959548783848
 42
0.06975291675920374
  0
VERTEX
  8
0
  6
CONTINUOUS
 62
     7
 10
127.7508906260671
 20
26.80359359994905
 42
0.06816347273169833
  0
VERTEX
  8
0
  6
CONTINUOUS
 62
     7
 10
128.4787339605305
 20
27.05541530045496
 42
0.06499587775554876
  0
VERTEX
  8
0
  6
CONTINUOUS
 62
     7
 10
129.115299521147
 20
27.49024674188664
 42
0.06129090380094249
  0
VERTEX
  8
0
  6
CONTINUOUS
 62
     7
 10
129.6233568554904
 20
28.07034772744224
 42
0.0580796378044804
  0
VERTEX
  8
0
  6
CONTINUOUS
 62
     7
 10
129.9803537587876
 20
28.75434166714663
 42
0.05590544109000313
  0
VERTEX
  8
0
  6
CONTINUOUS
 62
     7
 10
130.1740121053472
 20
29.50148558820084
 42
0.05496308177664068
  0
VERTEX
  8
0
  6
CONTINUOUS
 62
     7
 10
130.1990269530791
 20
30.2722079899725
 42
0.05547408716407926
  0
VERTEX
  8
0
  6
CONTINUOUS
 62
     7
 10
130.0549484521591
 20
31.03009723461144
 42
0.05728054718078415
  0
VERTEX
  8
0
  6
CONTINUOUS
 62
     7
 10
129.7455388181597
 20
31.73653878209151
 42
0.06026828785426832
  0
VERTEX
  8
0
  6
CONTINUOUS
 62
     7
 10
129.2802996978992
 20
32.35184755267259
 42
0.06395226173139081
  0
VERTEX
  8
0
  6
CONTINUOUS
 62
     7
 10
128.6780933088814
 20
32.83422595966261
 42
0.06744462552540455
  0
VERTEX
  8
0
  6
CONTINUOUS
 62
     7
 10
127.9714363522263
 20
33.14368841507064
 42
0.06944120513989394
  0
VERTEX
  8
0
  6
CONTINUOUS
 62
     7
 10
127.2095489501953
 20
33.250244140625
 42
0
  0
SEQEND
  8
0
  0
POLYLINE
  8
0
  6
CONTINUOUS
 62
     7
 66
     1
 10
0
 20
0
 70
     1
  0
VERTEX
  8
0
  6
CONTINUOUS
 62
     7
 10
126.1094207763672
 20
32.500244140625
 42
0.1103780684204192
  0
VERTEX
  8
0
  6
CONTINUOUS
 62
     7
 10
125.1972625988893
 20
32.29522717109971
 42
0.1025062601696072
  0
VERTEX
  8
0
  6
CONTINUOUS
 62
     7
 10
124.4499279858618
 20
31.73121802300105
 42
0.09328994491156911
  0
VERTEX
  8
0
  6
CONTINUOUS
 62
     7
 10
123.972322901377
 20
30.92432445947776
 42
0.08782041318997461
  0
VERTEX
  8
0
  6
CONTINUOUS
 62
     7
 10
123.8094329833985
 20
30.00022888183594
 42
0.08777453680738982
  0
VERTEX
  8
0
  6
CONTINUOUS
 62
     7
 10
123.9721649237306
 20
29.07661077352141
 42
0.09326038602096425
  0
VERTEX
  8
0
  6
CONTINUOUS
 62
     7
 10
124.4494701958136
 20
28.26980823805811
 42
0.1026286646008538
  0
VERTEX
  8
0
  6
CONTINUOUS
 62
     7
 10
125.1976800761314
 20
27.7050787036147
 42
0.1103318302594213
  0
VERTEX
  8
0
  6
CONTINUOUS
 62
     7
 10
126.1094818115234
 20
27.500244140625
 42
0.1103779952849952
  0
VERTEX
  8
0
  6
CONTINUOUS
 62
     7
 10
127.0216398502017
 20
27.70526179765193
 42
0.1025061015807418
  0
VERTEX
  8
0
  6
CONTINUOUS
 62
     7
 10
127.7689743450796
 20
28.2692711388002
 42
0.09328988682818705
  0
VERTEX
  8
0
  6
CONTINUOUS
 62
     7
 10
128.246579618091
 20
29.07616460794636
 42
0.08782048305265666
  0
VERTEX
  8
0
  6
CONTINUOUS
 62
     7
 10
128.4094696044922
 20
30.00025939941406
 42
0.08777255011278763
  0
VERTEX
  8
0
  6
CONTINUOUS
 62
     7
 10
128.2467418158654
 20
30.92387852921891
 42
0.09326068252989267
  0
VERTEX
  8
0
  6
CONTINUOUS
 62
     7
 10
127.7694430078304
 20
31.73068493447288
 42
0.1026310491621527
  0
VERTEX
  8
0
  6
CONTINUOUS
 62
     7
 10
127.0212347554886
 20
32.29541611643205
 42
0.1103314756775944
  0
SEQEND
  8
0
  0
TEXT
  8
0
  6
CONTINUOUS
 62
     7
 10
-11.28550004959106
 20
-31.79999995231628
 40
3.599999904632568
 41
0.8455426207593617
  1
ＨＳＲ２５Ｍ１Ｒ
  0
ENDSEC
  0
EOF
