  0
SECTION
  2
HEADER
  0
ENDSEC
  0
SECTION
  2
TABLES
  0
TABLE
  2
LTYPE
 70
    22
  0
LTYPE
  2
CONTINUOUS
 70
    64
  3
Solid line
 72
    65
 73
     0
 40
0.000000
  0
LTYPE
  2
DASHED
 70
    64
  3
__ __ __ __ __ __ __ __ __ __ __ __ __ __ __
 72
    65
 73
     2
 40
3.500000
 49
2.000000
 49
-1.500000
  0
LTYPE
  2
CENTER
 70
    64
  3
____ _ ____ _ ____ _ ____ _ ____ _ ____ _ ____
 72
    65
 73
     4
 40
17.500000
 49
13.000000
 49
-1.500000
 49
1.500000
 49
-1.500000
  0
LTYPE
  2
PHANTOM
 70
    64
  3
_____ _ _ _____ _ _ _____ _ _ _____ _ _ ____  
 72
    65
 73
     6
 40
15.500000
 49
8.000000
 49
-1.500000
 49
1.500000
 49
-1.500000
 49
1.500000
 49
-1.500000
  0
LTYPE
  2
DOT
 70
    64
  3
. . . . . . . . . . . . . . . . . . . . . . . .
 72
    65
 73
     2
 40
0.25
 49
0.0
 49
-0.25
  0
ENDTAB
  0
TABLE
  2
LAYER
 70
     1
  0
LAYER
  2
0
 70
     0
 62
     7
  6
CONTINUOUS
  0
ENDTAB
  0
TABLE
  2
STYLE
 70
     1
  0
STYLE
  2
STANDARD
 70
     0
 40
0.000000
 41
1.000000
 50
0.000000
 71
     0
 42
0.200000
  3
txt
  0
ENDTAB
  0
TABLE
  2
VIEW
 70
     0
  0
ENDTAB
  0
ENDSEC
  0
SECTION
  2
BLOCKS
  0
ENDSEC
  0
SECTION
  2
ENTITIES
  0
LINE
  8
0
  6
CENTER
 62
     7
 10
179.8002624511719
 20
34.999755859375
 11
195.7284851074219
 21
34.999755859375
  0
LINE
  8
0
  6
CONTINUOUS
 62
     7
 10
191
 20
30.8798828125
 11
191
 21
39.11962890625
  0
LINE
  8
0
  6
CONTINUOUS
 62
     7
 10
187.9999694824219
 20
38.999755859375
 11
190.9999694824219
 21
38.999755859375
  0
LINE
  8
0
  6
CONTINUOUS
 62
     7
 10
192.9999694824219
 20
39.61962890625
 11
191.4999694824219
 21
39.61962890625
  0
LINE
  8
0
  6
CONTINUOUS
 62
     7
 10
192.9999694824219
 20
37.309814453125
 11
191.4999694824219
 21
37.309814453125
  0
LINE
  8
0
  6
CONTINUOUS
 62
     7
 10
192.9999694824219
 20
30.3798828125
 11
191.4999694824219
 21
30.3798828125
  0
LINE
  8
0
  6
CONTINUOUS
 62
     7
 10
192.0500183105469
 20
32.689697265625
 11
191.4999694824219
 21
32.689697265625
  0
LINE
  8
0
  6
CONTINUOUS
 62
     7
 10
191.4998626708984
 20
30.37963676452637
 11
190.9999237060547
 21
30.87958335876465
  0
LINE
  8
0
  6
CONTINUOUS
 62
     7
 10
190.9999237060547
 20
39.11972427368164
 11
191.4998626708984
 21
39.61967086791992
  0
LINE
  8
0
  6
CONTINUOUS
 62
     7
 10
189.1000671386719
 20
31.499755859375
 11
183.8998718261719
 21
31.499755859375
  0
LINE
  8
0
  6
CONTINUOUS
 62
     7
 10
189.10009765625
 20
31.459716796875
 11
189.10009765625
 21
31.499755859375
  0
LINE
  8
0
  6
CONTINUOUS
 62
     7
 10
190.6000366210938
 20
34.99972534179688
 11
189.1000518798828
 21
31.49974060058594
  0
LINE
  8
0
  6
CONTINUOUS
 62
     7
 10
189.7001953125
 20
34.99976348876953
 11
188.1001892089844
 21
31.49975395202637
  0
LINE
  8
0
  6
CONTINUOUS
 62
     7
 10
183.9004974365234
 20
31.49931907653809
 11
183.5004730224609
 21
32.07934951782227
  0
LINE
  8
0
  6
CONTINUOUS
 62
     7
 10
183.9000244140625
 20
38.49959945678711
 11
183.5
 21
37.9195671081543
  0
LINE
  8
0
  6
CONTINUOUS
 62
     7
 10
189.1000671386719
 20
38.499755859375
 11
183.8998718261719
 21
38.499755859375
  0
LINE
  8
0
  6
CONTINUOUS
 62
     7
 10
189.7005004882813
 20
34.9996452331543
 11
188.1003875732422
 21
38.4998779296875
  0
LINE
  8
0
  6
CONTINUOUS
 62
     7
 10
190.6002807617188
 20
34.99940872192383
 11
189.1003875732422
 21
38.49916458129883
  0
LINE
  8
0
  6
CONTINUOUS
 62
     7
 10
187.9999694824219
 20
30.999755859375
 11
190.9999694824219
 21
30.999755859375
  0
LINE
  8
0
  6
CENTER
 62
     7
 10
268
 20
8.999755859375
 11
268
 21
5.999755859375
  0
LINE
  8
0
  6
CENTER
 62
     7
 10
212
 20
8.999755859375
 11
212
 21
5.999755859375
  0
LINE
  8
0
  6
CONTINUOUS
 62
     7
 10
194.5
 20
39.999755859375
 11
194.5
 21
7.999755859375
  0
LINE
  8
0
  6
CONTINUOUS
 62
     7
 10
191
 20
26.69970703125
 11
191
 21
8.499755859375
  0
LINE
  8
0
  6
CONTINUOUS
 62
     7
 10
193
 20
39.999755859375
 11
193
 21
8.499755859375
  0
LINE
  8
0
  6
CONTINUOUS
 62
     7
 10
100
 20
25.999755859375
 11
191
 21
25.999755859375
  0
LINE
  8
0
  6
CONTINUOUS
 62
     7
 10
100
 20
0
 11
380
 21
0
  0
LINE
  8
0
  6
CONTINUOUS
 62
     7
 10
193
 20
39.999755859375
 11
194.5
 21
39.999755859375
  0
LINE
  8
0
  6
CONTINUOUS
 62
     7
 10
289.000244140625
 20
25.999755859375
 11
380
 21
25.999755859375
  0
LINE
  8
0
  6
CONTINUOUS
 62
     7
 10
206.400146484375
 20
41.999755859375
 11
273.60009765625
 21
41.999755859375
  0
LINE
  8
0
  6
CONTINUOUS
 62
     7
 10
204.800048828125
 20
7.999755859375
 11
275.2001953125
 21
7.999755859375
  0
LINE
  8
0
  6
CONTINUOUS
 62
     7
 10
275.2001953125
 20
40.999755859375
 11
275.2001953125
 21
7.999755859375
  0
LINE
  8
0
  6
CONTINUOUS
 62
     7
 10
273.5999755859375
 20
41.99961853027344
 11
275.1999206542969
 21
40.39965057373047
  0
LINE
  8
0
  6
CONTINUOUS
 62
     7
 10
285.5000305175781
 20
39.99997329711914
 11
284.5001525878906
 21
40.9998664855957
  0
LINE
  8
0
  6
CONTINUOUS
 62
     7
 10
275.2001953125
 20
7.999755859375
 11
285.500244140625
 21
7.999755859375
  0
LINE
  8
0
  6
CONTINUOUS
 62
     7
 10
275.2001953125
 20
40.999755859375
 11
284.500244140625
 21
40.999755859375
  0
LINE
  8
0
  6
CONTINUOUS
 62
     7
 10
287.0001831054688
 20
28.69973564147949
 11
288.9999694824219
 21
26.69994926452637
  0
LINE
  8
0
  6
CONTINUOUS
 62
     7
 10
285.500244140625
 20
8.499755859375
 11
289.000244140625
 21
8.499755859375
  0
LINE
  8
0
  6
CONTINUOUS
 62
     7
 10
285.500244140625
 20
39.999755859375
 11
287.000244140625
 21
39.999755859375
  0
LINE
  8
0
  6
CONTINUOUS
 62
     7
 10
287.000244140625
 20
8.499755859375
 11
287.000244140625
 21
39.999755859375
  0
LINE
  8
0
  6
CONTINUOUS
 62
     7
 10
289.000244140625
 20
8.499755859375
 11
289.000244140625
 21
26.69970703125
  0
LINE
  8
0
  6
CONTINUOUS
 62
     7
 10
285.500244140625
 20
7.999755859375
 11
285.500244140625
 21
39.999755859375
  0
LINE
  8
0
  6
CONTINUOUS
 62
     7
 10
192.050048828125
 20
35.49951171875
 11
192.050048828125
 21
32.49951171875
  0
LINE
  8
0
  6
CENTER
 62
     7
 10
288.3185729980469
 20
33.999755859375
 11
283.3815612792969
 21
33.999755859375
  0
LINE
  8
0
  6
CONTINUOUS
 62
     7
 10
287.9501647949219
 20
32.499755859375
 11
287.9501647949219
 21
35.49951171875
  0
LINE
  8
0
  6
CENTER
 62
     7
 10
196.61865234375
 20
33.99951171875
 11
191.681640625
 21
33.99951171875
  0
LINE
  8
0
  6
CONTINUOUS
 62
     7
 10
204.8001556396484
 20
40.39956665039063
 11
206.4001312255859
 21
41.99953460693359
  0
LINE
  8
0
  6
CONTINUOUS
 62
     7
 10
204.800048828125
 20
7.999755859375
 11
204.800048828125
 21
40.999755859375
  0
LINE
  8
0
  6
CONTINUOUS
 62
     7
 10
195.5001068115234
 20
40.99967193603516
 11
194.5002136230469
 21
39.99977874755859
  0
LINE
  8
0
  6
CONTINUOUS
 62
     7
 10
194.5
 20
7.999755859375
 11
204.800048828125
 21
7.999755859375
  0
LINE
  8
0
  6
CONTINUOUS
 62
     7
 10
195.5
 20
40.999755859375
 11
204.800048828125
 21
40.999755859375
  0
LINE
  8
0
  6
CONTINUOUS
 62
     7
 10
191.0000915527344
 20
26.69995498657227
 11
192.9998779296875
 21
28.69974136352539
  0
LINE
  8
0
  6
CONTINUOUS
 62
     7
 10
191
 20
8.499755859375
 11
194.5
 21
8.499755859375
  0
LINE
  8
0
  6
CONTINUOUS
 62
     7
 10
12.5
 20
0
 11
7.75
 21
0
  0
LINE
  8
0
  6
CONTINUOUS
 62
     7
 10
-10.21484375
 20
26
 11
10.21533203125
 21
26
  0
LINE
  8
0
  6
CONTINUOUS
 62
     7
 10
14
 20
22.21484375
 11
14
 21
19.77978515625
  0
LINE
  8
0
  6
CONTINUOUS
 62
     7
 10
-14
 20
22.21484375
 11
-14
 21
19.77978515625
  0
LINE
  8
0
  6
CONTINUOUS
 62
     7
 10
9.30029296875
 20
15.079833984375
 11
9.30029296875
 21
11
  0
LINE
  8
0
  6
CONTINUOUS
 62
     7
 10
-9.2998046875
 20
15.079833984375
 11
-9.2998046875
 21
11
  0
LINE
  8
0
  6
CONTINUOUS
 62
     7
 10
10.21535396575928
 20
25.99964904785156
 11
11.00049114227295
 21
25.21451187133789
  0
LINE
  8
0
  6
CONTINUOUS
 62
     7
 10
-13.99994659423828
 20
19.7796630859375
 11
-13.52969264984131
 21
19.30941009521484
  0
LINE
  8
0
  6
CONTINUOUS
 62
     7
 10
9.300224304199219
 20
10.99969673156738
 11
14.00017070770264
 21
6.299750328063965
  0
LINE
  8
0
  6
CONTINUOUS
 62
     7
 10
9.300396919250488
 20
15.07954406738281
 11
10.99980068206787
 21
16.7789478302002
  0
LINE
  8
0
  6
CONTINUOUS
 62
     7
 10
-13.9997730255127
 20
6.299922466278076
 11
-9.299999237060547
 21
10.99969673156738
  0
LINE
  8
0
  6
CONTINUOUS
 62
     7
 10
-13.99977397918701
 20
22.21465873718262
 11
-13.52416896820068
 21
22.69026374816895
  0
LINE
  8
0
  6
CONTINUOUS
 62
     7
 10
-14
 20
6.2998046875
 11
-14
 21
1.5
  0
LINE
  8
0
  6
CONTINUOUS
 62
     7
 10
14
 20
6.2998046875
 11
14
 21
1.5
  0
LINE
  8
0
  6
CONTINUOUS
 62
     7
 10
-13.99937343597412
 20
1.499689221382141
 11
-12.49953365325928
 21
-0.000150675026816316
  0
LINE
  8
0
  6
CONTINUOUS
 62
     7
 10
14.00046253204346
 20
1.499492287635803
 11
12.50045013427734
 21
-0.0005202185129746795
  0
LINE
  8
0
  6
CONTINUOUS
 62
     7
 10
-10.99923133850098
 20
16.7789478302002
 11
-9.299827575683594
 21
15.07954502105713
  0
LINE
  8
0
  6
CONTINUOUS
 62
     7
 10
-10.99992179870606
 20
25.21451187133789
 11
-10.21478462219238
 21
25.99964904785156
  0
LINE
  8
0
  6
CONTINUOUS
 62
     7
 10
13.52473831176758
 20
22.69026374816895
 11
14.00017070770264
 21
22.2148323059082
  0
LINE
  8
0
  6
CONTINUOUS
 62
     7
 10
13.53026294708252
 20
19.30941009521484
 11
14.00034332275391
 21
19.77949142456055
  0
LINE
  8
0
  6
CONTINUOUS
 62
     7
 10
-7.25
 20
0.5
 11
-3.75
 21
0.5
  0
LINE
  8
0
  6
CONTINUOUS
 62
     7
 10
3.75
 20
0.5
 11
7.25
 21
0.5
  0
LINE
  8
0
  6
CONTINUOUS
 62
     7
 10
-7.74951171875
 20
0
 11
-12.49968528747559
 21
0
  0
LINE
  8
0
  6
CONTINUOUS
 62
     7
 10
-3.24951171875
 20
0
 11
3.25
 21
0
  0
LINE
  8
0
  6
CONTINUOUS
 62
     7
 10
-7.74957799911499
 20
-0.0003368376055732369
 11
-7.24945878982544
 21
0.4997823834419251
  0
LINE
  8
0
  6
CONTINUOUS
 62
     7
 10
3.249938011169434
 20
8.597957275924273E-006
 11
3.749884605407715
 21
0.4999551773071289
  0
LINE
  8
0
  6
CONTINUOUS
 62
     7
 10
7.250028610229492
 20
0.4997823834419251
 11
7.749975204467773
 21
-0.0001642041170271114
  0
LINE
  8
0
  6
CONTINUOUS
 62
     7
 10
-3.749659538269043
 20
0.4999551773071289
 11
-3.249712944030762
 21
8.597957275924273E-006
  0
LINE
  8
0
  6
CONTINUOUS
 62
     7
 10
-26.482421875
 20
8
 11
-22
 21
8
  0
LINE
  8
0
  6
CONTINUOUS
 62
     7
 10
21.9998779296875
 20
8
 11
26.4827880859375
 21
8
  0
LINE
  8
0
  6
CENTER
 62
     7
 10
-5
 20
35
 11
13.35400390625
 21
35
  0
LINE
  8
0
  6
CONTINUOUS
 62
     7
 10
44.9998779296875
 20
40.599853515625
 11
44.9998779296875
 21
32
  0
LINE
  8
0
  6
CONTINUOUS
 62
     7
 10
-45
 20
40.599853515625
 11
-45
 21
32
  0
LINE
  8
0
  6
CONTINUOUS
 62
     7
 10
-43.599609375
 20
42
 11
-25.7998046875
 21
42
  0
LINE
  8
0
  6
CONTINUOUS
 62
     7
 10
43.9998779296875
 20
30.267822265625
 11
43.9998779296875
 21
27
  0
LINE
  8
0
  6
CONTINUOUS
 62
     7
 10
-25
 20
41.199951171875
 11
-11
 21
41.199951171875
  0
LINE
  8
0
  6
CONTINUOUS
 62
     7
 10
11
 20
41.199951171875
 11
24.9998779296875
 21
41.199951171875
  0
LINE
  8
0
  6
CONTINUOUS
 62
     7
 10
-10.19970703125
 20
42
 11
10.2001953125
 21
42
  0
LINE
  8
0
  6
CONTINUOUS
 62
     7
 10
25.8001708984375
 20
42
 11
43.5999755859375
 21
42
  0
LINE
  8
0
  6
CONTINUOUS
 62
     7
 10
11.00018215179443
 20
41.19952011108398
 11
10.20019340515137
 21
41.99949645996094
  0
LINE
  8
0
  6
CONTINUOUS
 62
     7
 10
-24.99969863891602
 20
41.19968032836914
 11
-25.7996826171875
 21
41.99966430664063
  0
LINE
  8
0
  6
CONTINUOUS
 62
     7
 10
-10.99970054626465
 20
41.19963836669922
 11
-10.19971179962158
 21
41.99961853027344
  0
LINE
  8
0
  6
CONTINUOUS
 62
     7
 10
25.00031089782715
 20
41.19972991943359
 11
25.80029487609863
 21
41.99971389770508
  0
LINE
  8
0
  6
CONTINUOUS
 62
     7
 10
-43.599609375
 20
41.99947738647461
 11
-44.99949264526367
 21
40.59959030151367
  0
LINE
  8
0
  6
CONTINUOUS
 62
     7
 10
43.60031127929688
 20
41.99940872192383
 11
45.00001907348633
 21
40.59969329833984
  0
LINE
  8
0
  6
CONTINUOUS
 62
     7
 10
29.43697166442871
 20
10.47870445251465
 11
31.38398170471191
 21
21.520751953125
  0
LINE
  8
0
  6
CONTINUOUS
 62
     7
 10
-29.43692970275879
 20
10.47873401641846
 11
-31.38393974304199
 21
21.52078056335449
  0
LINE
  8
0
  6
CONTINUOUS
 62
     7
 10
34.3387451171875
 20
24
 11
40.9998779296875
 21
24
  0
LINE
  8
0
  6
CONTINUOUS
 62
     7
 10
-44
 20
30.267822265625
 11
-44
 21
27
  0
LINE
  8
0
  6
CONTINUOUS
 62
     7
 10
1.7802734375
 20
38.499755859375
 11
5.8603515625
 21
38.499755859375
  0
LINE
  8
0
  6
CONTINUOUS
 62
     7
 10
1.7802734375
 20
31.499755859375
 11
5.8603515625
 21
31.499755859375
  0
LINE
  8
0
  6
CONTINUOUS
 62
     7
 10
1.130136132240295
 20
34.99966430664063
 11
1.780124664306641
 21
31.49969100952148
  0
LINE
  8
0
  6
CONTINUOUS
 62
     7
 10
1.130183339118958
 20
34.99946212768555
 11
1.780171513557434
 21
38.49943161010742
  0
LINE
  8
0
  6
CONTINUOUS
 62
     7
 10
3.440254211425781
 20
34.9993782043457
 11
4.09025764465332
 21
31.49940872192383
  0
LINE
  8
0
  6
CONTINUOUS
 62
     7
 10
3.440143346786499
 20
34.99957275390625
 11
4.090146541595459
 21
38.49954223632813
  0
LINE
  8
0
  6
CONTINUOUS
 62
     7
 10
5.950069904327393
 20
31.96954727172852
 11
5.860063552856445
 21
31.49957275390625
  0
LINE
  8
0
  6
CONTINUOUS
 62
     7
 10
5.950548648834229
 20
38.01940536499023
 11
5.860509872436523
 21
38.49956130981445
  0
LINE
  8
0
  6
CONTINUOUS
 62
     7
 10
7.766476631164551
 20
31.75372314453125
 11
10.52034568786621
 21
32.49935531616211
  0
LINE
  8
0
  6
CONTINUOUS
 62
     7
 10
7.750205516815186
 20
38.24956893920898
 11
10.52009963989258
 21
37.49959945678711
  0
LINE
  8
0
  6
CONTINUOUS
 62
     7
 10
0.000422628567321226
 20
30.38055610656738
 11
1.947599411010742
 21
31.49963760375977
  0
LINE
  8
0
  6
CONTINUOUS
 62
     7
 10
-0.0005244479398243129
 20
39.61859512329102
 11
1.937883973121643
 21
38.49945449829102
  0
LINE
  8
0
  6
CENTER
 62
     7
 10
-36
 20
43
 11
-36
 21
31
  0
LINE
  8
0
  6
CONTINUOUS
 62
     7
 10
-22
 20
8.5
 11
-22
 21
8
  0
LINE
  8
0
  6
CONTINUOUS
 62
     7
 10
28.9998779296875
 20
37.999755859375
 11
28.9998779296875
 21
10.5
  0
LINE
  8
0
  6
CONTINUOUS
 62
     7
 10
-26.99974632263184
 20
40
 11
26.9998779296875
 21
40
  0
LINE
  8
0
  6
CONTINUOUS
 62
     7
 10
26.99983596801758
 20
39.99990844726563
 11
28.99996185302734
 21
37.99977111816406
  0
LINE
  8
0
  6
CONTINUOUS
 62
     7
 10
29.00012397766113
 20
10.4995813369751
 11
27.00015830993652
 21
8.499628067016602
  0
LINE
  8
0
  6
CONTINUOUS
 62
     7
 10
11.80029296875
 20
8.5
 11
26.9998779296875
 21
8.5
  0
LINE
  8
0
  6
CONTINUOUS
 62
     7
 10
-11.34228515625
 20
28.699951171875
 11
11.3427734375
 21
28.699951171875
  0
LINE
  8
0
  6
CONTINUOUS
 62
     7
 10
11.34299659729004
 20
28.69963645935059
 11
16.70015907287598
 21
23.34247398376465
  0
LINE
  8
0
  6
CONTINUOUS
 62
     7
 10
16.7001953125
 20
23.342529296875
 11
16.7001953125
 21
18.857177734375
  0
LINE
  8
0
  6
CONTINUOUS
 62
     7
 10
11.85036563873291
 20
14.00697231292725
 11
16.70033073425293
 21
18.85693740844727
  0
LINE
  8
0
  6
CONTINUOUS
 62
     7
 10
11.85009765625
 20
14.00732421875
 11
11.85009765625
 21
12.25244140625
  0
LINE
  8
0
  6
CONTINUOUS
 62
     7
 10
11.85019302368164
 20
12.25215339660645
 11
15.60272789001465
 21
8.499618530273438
  0
LINE
  8
0
  6
CONTINUOUS
 62
     7
 10
21.9998779296875
 20
8
 11
21.9998779296875
 21
8.5
  0
LINE
  8
0
  6
CONTINUOUS
 62
     7
 10
-3.998046875
 20
37.30810546875
 11
-3.998046875
 21
32.691650390625
  0
LINE
  8
0
  6
CONTINUOUS
 62
     7
 10
-3.998279809951782
 20
32.69134902954102
 11
0.00243700947612524
 21
30.38153266906738
  0
LINE
  8
0
  6
CONTINUOUS
 62
     7
 10
-3.998024225234985
 20
37.3077507019043
 11
0.002057552570477128
 21
39.6171989440918
  0
LINE
  8
0
  6
CONTINUOUS
 62
     7
 10
-29
 20
10.49986743927002
 11
-29
 21
37.99973297119141
  0
LINE
  8
0
  6
CONTINUOUS
 62
     7
 10
-26.99963188171387
 20
8.499509811401367
 11
-29
 21
10.4998664855957
  0
LINE
  8
0
  6
CONTINUOUS
 62
     7
 10
-26.99951171875
 20
8.5
 11
-11.7998046875
 21
8.5
  0
LINE
  8
0
  6
CONTINUOUS
 62
     7
 10
-16.69976234436035
 20
23.3423023223877
 11
-11.34242630004883
 21
28.69963645935059
  0
LINE
  8
0
  6
CONTINUOUS
 62
     7
 10
-16.69970703125
 20
18.857177734375
 11
-16.69970703125
 21
23.342529296875
  0
LINE
  8
0
  6
CONTINUOUS
 62
     7
 10
-16.69993400573731
 20
18.85711097717285
 11
-11.84962368011475
 21
14.00680065155029
  0
LINE
  8
0
  6
CONTINUOUS
 62
     7
 10
-11.849609375
 20
12.25244140625
 11
-11.849609375
 21
14.00732421875
  0
LINE
  8
0
  6
CONTINUOUS
 62
     7
 10
-15.60215854644775
 20
8.499619483947754
 11
-11.84962368011475
 21
12.25215339660645
  0
LINE
  8
0
  6
CONTINUOUS
 62
     7
 10
-41
 20
24
 11
-34.33837890625
 21
24
  0
LINE
  8
0
  6
CENTER
 62
     7
 10
35.9998779296875
 20
43
 11
35.9998779296875
 21
31
  0
LINE
  8
0
  6
CENTER
 62
     7
 10
0
 20
43
 11
0
 21
-1
  0
LINE
  8
0
  6
DASHED
 62
     7
 10
-7
 20
26
 11
-7
 21
14
  0
LINE
  8
0
  6
DASHED
 62
     7
 10
7
 20
26
 11
7
 21
14
  0
LINE
  8
0
  6
DASHED
 62
     7
 10
4.5
 20
14
 11
4.5
 21
0.5
  0
LINE
  8
0
  6
DASHED
 62
     7
 10
-4.5
 20
14
 11
-4.5
 21
0.5
  0
LINE
  8
0
  6
DASHED
 62
     7
 10
-7
 20
14
 11
7
 21
14
  0
LINE
  8
0
  6
CENTER
 62
     7
 10
18.9998779296875
 20
9.5
 11
18.9998779296875
 21
6
  0
LINE
  8
0
  6
CENTER
 62
     7
 10
-19
 20
9.5
 11
-19
 21
6
  0
LINE
  8
0
  6
CONTINUOUS
 62
     7
 10
-21.23251914978027
 20
8.499631881713867
 11
-21.18160057067871
 21
7.91762638092041
  0
LINE
  8
0
  6
CONTINUOUS
 62
     7
 10
-16.81821632385254
 20
7.917662143707275
 11
-16.76726913452148
 21
8.5
  0
LINE
  8
0
  6
CENTER
 62
     7
 10
-17.75
 20
34
 11
-10.25
 21
34
  0
LINE
  8
0
  6
CENTER
 62
     7
 10
-14
 20
37.75
 11
-14
 21
30.25
  0
LINE
  8
0
  6
CENTER
 62
     7
 10
10.25
 20
34
 11
17.75
 21
34
  0
LINE
  8
0
  6
CENTER
 62
     7
 10
14
 20
30.25
 11
14
 21
37.75
  0
LINE
  8
0
  6
CONTINUOUS
 62
     7
 10
-26.99983596801758
 20
39.99990844726563
 11
-28.99996185302734
 21
37.99977111816406
  0
LINE
  8
0
  6
CONTINUOUS
 62
     7
 10
100
 20
25.999755859375
 11
100
 21
0
  0
LINE
  8
0
  6
CENTER
 62
     7
 10
120
 20
26.999755859375
 11
120
 21
-1
  0
LINE
  8
0
  6
DASHED
 62
     7
 10
113
 20
26
 11
113
 21
14
  0
LINE
  8
0
  6
DASHED
 62
     7
 10
127
 20
26
 11
127
 21
14
  0
LINE
  8
0
  6
DASHED
 62
     7
 10
124.5
 20
14
 11
124.5
 21
0
  0
LINE
  8
0
  6
DASHED
 62
     7
 10
115.5
 20
14
 11
115.5
 21
0
  0
LINE
  8
0
  6
DASHED
 62
     7
 10
113
 20
14
 11
127
 21
14
  0
LINE
  8
0
  6
CONTINUOUS
 62
     7
 10
380
 20
25.999755859375
 11
380
 21
0
  0
LINE
  8
0
  6
CENTER
 62
     7
 10
200
 20
8.999755859375
 11
200
 21
-1
  0
LINE
  8
0
  6
CENTER
 62
     7
 10
280
 20
8.999755859375
 11
280
 21
-1
  0
LINE
  8
0
  6
CENTER
 62
     7
 10
360
 20
26.999755859375
 11
360
 21
-1
  0
LINE
  8
0
  6
CONTINUOUS
 62
     7
 10
100
 20
25.21451187133789
 11
191
 21
25.21451187133789
  0
LINE
  8
0
  6
CONTINUOUS
 62
     7
 10
100
 20
22.69049644470215
 11
191
 21
22.69049644470215
  0
LINE
  8
0
  6
CONTINUOUS
 62
     7
 10
100
 20
19.31001853942871
 11
191
 21
19.31001853942871
  0
LINE
  8
0
  6
CONTINUOUS
 62
     7
 10
100
 20
15.07944011688232
 11
191
 21
15.07944011688232
  0
LINE
  8
0
  6
CONTINUOUS
 62
     7
 10
100
 20
10.9996280670166
 11
191
 21
10.9996280670166
  0
LINE
  8
0
  6
CONTINUOUS
 62
     7
 10
100
 20
6.299749851226807
 11
380
 21
6.299749851226807
  0
LINE
  8
0
  6
CONTINUOUS
 62
     7
 10
289.000244140625
 20
25.21451187133789
 11
380
 21
25.21451187133789
  0
LINE
  8
0
  6
CONTINUOUS
 62
     7
 10
289.000244140625
 20
22.69049644470215
 11
380
 21
22.69049644470215
  0
LINE
  8
0
  6
CONTINUOUS
 62
     7
 10
289.000244140625
 20
19.31001853942871
 11
380
 21
19.31001853942871
  0
LINE
  8
0
  6
CONTINUOUS
 62
     7
 10
289.000244140625
 20
15.07944011688232
 11
380
 21
15.07944011688232
  0
LINE
  8
0
  6
CONTINUOUS
 62
     7
 10
289.000244140625
 20
10.9996280670166
 11
380
 21
10.9996280670166
  0
LINE
  8
0
  6
CENTER
 62
     7
 10
99
 20
166.999755859375
 11
381
 21
166.999755859375
  0
LINE
  8
0
  6
CONTINUOUS
 62
     7
 10
204.800048828125
 20
121.9998779296875
 11
275.2001953125
 21
121.9998779296875
  0
LINE
  8
0
  6
CONTINUOUS
 62
     7
 10
204.800048828125
 20
211.999755859375
 11
275.2001953125
 21
211.999755859375
  0
LINE
  8
0
  6
CONTINUOUS
 62
     7
 10
204.800048828125
 20
192.799560546875
 11
275.2001953125
 21
192.799560546875
  0
LINE
  8
0
  6
CONTINUOUS
 62
     7
 10
204.800048828125
 20
177.199462890625
 11
275.2001953125
 21
177.199462890625
  0
LINE
  8
0
  6
CONTINUOUS
 62
     7
 10
204.800048828125
 20
156.799560546875
 11
275.2001953125
 21
156.799560546875
  0
LINE
  8
0
  6
CONTINUOUS
 62
     7
 10
204.800048828125
 20
141.1995849609375
 11
275.2001953125
 21
141.1995849609375
  0
LINE
  8
0
  6
CONTINUOUS
 62
     7
 10
204.800048828125
 20
211.999755859375
 11
204.800048828125
 21
121.9998779296875
  0
LINE
  8
0
  6
CONTINUOUS
 62
     7
 10
275.2001953125
 20
211.999755859375
 11
275.2001953125
 21
121.9998779296875
  0
LINE
  8
0
  6
CONTINUOUS
 62
     7
 10
193
 20
137.9998779296875
 11
204.800048828125
 21
137.9998779296875
  0
LINE
  8
0
  6
CONTINUOUS
 62
     7
 10
193
 20
195.999755859375
 11
204.800048828125
 21
195.999755859375
  0
LINE
  8
0
  6
CONTINUOUS
 62
     7
 10
191
 20
181.699462890625
 11
191
 21
170.999755859375
  0
LINE
  8
0
  6
CONTINUOUS
 62
     7
 10
193
 20
195.999755859375
 11
193
 21
137.9998779296875
  0
LINE
  8
0
  6
CONTINUOUS
 62
     7
 10
194.5
 20
195.999755859375
 11
194.5
 21
137.9998779296875
  0
LINE
  8
0
  6
CONTINUOUS
 62
     7
 10
191.0000152587891
 20
181.6994781494141
 11
192.9999847412109
 21
183.6994476318359
  0
LINE
  8
0
  6
CONTINUOUS
 62
     7
 10
191
 20
152.2995910644531
 11
193
 21
150.2995910644531
  0
LINE
  8
0
  6
CONTINUOUS
 62
     7
 10
192.050048828125
 20
154.499755859375
 11
192.050048828125
 21
151.499755859375
  0
LINE
  8
0
  6
CENTER
 62
     7
 10
196.61865234375
 20
152.999755859375
 11
191.681640625
 21
152.999755859375
  0
LINE
  8
0
  6
CENTER
 62
     7
 10
196.61865234375
 20
180.999755859375
 11
191.681640625
 21
180.999755859375
  0
LINE
  8
0
  6
CONTINUOUS
 62
     7
 10
192.050048828125
 20
179.499755859375
 11
192.050048828125
 21
182.499755859375
  0
LINE
  8
0
  6
CENTER
 62
     7
 10
283.381591796875
 20
152.999755859375
 11
288.318603515625
 21
152.999755859375
  0
LINE
  8
0
  6
CONTINUOUS
 62
     7
 10
287.9501953125
 20
179.499755859375
 11
287.9501953125
 21
182.499755859375
  0
LINE
  8
0
  6
CONTINUOUS
 62
     7
 10
289.000244140625
 20
152.2995910644531
 11
287.000244140625
 21
150.2995910644531
  0
LINE
  8
0
  6
CENTER
 62
     7
 10
283.381591796875
 20
180.999755859375
 11
288.318603515625
 21
180.999755859375
  0
LINE
  8
0
  6
CONTINUOUS
 62
     7
 10
289.000244140625
 20
181.699462890625
 11
287.000244140625
 21
183.699462890625
  0
LINE
  8
0
  6
CONTINUOUS
 62
     7
 10
287.9501953125
 20
154.499755859375
 11
287.9501953125
 21
151.499755859375
  0
LINE
  8
0
  6
CONTINUOUS
 62
     7
 10
287.000244140625
 20
195.999755859375
 11
275.2001953125
 21
195.999755859375
  0
LINE
  8
0
  6
CONTINUOUS
 62
     7
 10
285.500244140625
 20
195.999755859375
 11
285.500244140625
 21
137.9998779296875
  0
LINE
  8
0
  6
CONTINUOUS
 62
     7
 10
287.000244140625
 20
195.999755859375
 11
287.000244140625
 21
137.9998779296875
  0
LINE
  8
0
  6
CONTINUOUS
 62
     7
 10
289.000244140625
 20
181.699462890625
 11
289.000244140625
 21
152.2995910644531
  0
LINE
  8
0
  6
CONTINUOUS
 62
     7
 10
287.000244140625
 20
137.9998779296875
 11
275.2001953125
 21
137.9998779296875
  0
LINE
  8
0
  6
CONTINUOUS
 62
     7
 10
100
 20
152.999755859375
 11
191
 21
152.999755859375
  0
LINE
  8
0
  6
CONTINUOUS
 62
     7
 10
100
 20
180.999755859375
 11
191
 21
180.999755859375
  0
LINE
  8
0
  6
CONTINUOUS
 62
     7
 10
100
 20
156.7844085693359
 11
183.1577606201172
 21
156.7844085693359
  0
LINE
  8
0
  6
CONTINUOUS
 62
     7
 10
100
 20
177.214599609375
 11
191
 21
177.214599609375
  0
LINE
  8
0
  6
CONTINUOUS
 62
     7
 10
100
 20
180.999755859375
 11
100
 21
152.999755859375
  0
LINE
  8
0
  6
CONTINUOUS
 62
     7
 10
380
 20
180.999755859375
 11
380
 21
152.999755859375
  0
LINE
  8
0
  6
CONTINUOUS
 62
     7
 10
289.000244140625
 20
180.999755859375
 11
380
 21
180.999755859375
  0
LINE
  8
0
  6
CONTINUOUS
 62
     7
 10
289.000244140625
 20
177.214599609375
 11
380
 21
177.214599609375
  0
LINE
  8
0
  6
CONTINUOUS
 62
     7
 10
289.000244140625
 20
156.7844085693359
 11
380
 21
156.7844085693359
  0
LINE
  8
0
  6
CONTINUOUS
 62
     7
 10
289.000244140625
 20
152.999755859375
 11
380
 21
152.999755859375
  0
LINE
  8
0
  6
CENTER
 62
     7
 10
120
 20
174.999755859375
 11
120
 21
158.999755859375
  0
LINE
  8
0
  6
CENTER
 62
     7
 10
200
 20
174.999755859375
 11
200
 21
158.999755859375
  0
LINE
  8
0
  6
CENTER
 62
     7
 10
280
 20
174.999755859375
 11
280
 21
158.999755859375
  0
LINE
  8
0
  6
CENTER
 62
     7
 10
360
 20
174.999755859375
 11
360
 21
158.999755859375
  0
LINE
  8
0
  6
CONTINUOUS
 62
     7
 10
191.0000152587891
 20
162.9997406005859
 11
191.0000152587891
 21
170.9997406005859
  0
LINE
  8
0
  6
CONTINUOUS
 62
     7
 10
187.7001037597656
 20
170.999755859375
 11
191.0000152587891
 21
170.999755859375
  0
LINE
  8
0
  6
CONTINUOUS
 62
     7
 10
189.3201293945313
 20
162.999755859375
 11
191.0000152587891
 21
162.999755859375
  0
LINE
  8
0
  6
CONTINUOUS
 62
     7
 10
183.7001037597656
 20
166.999755859375
 11
183.7001037597656
 21
165.32763671875
  0
LINE
  8
0
  6
CONTINUOUS
 62
     7
 10
191
 20
170.999755859375
 11
193
 21
170.999755859375
  0
LINE
  8
0
  6
CONTINUOUS
 62
     7
 10
191
 20
162.999755859375
 11
193
 21
162.999755859375
  0
LINE
  8
0
  6
CENTER
 62
     7
 10
183.2518615722656
 20
155.4776306152344
 11
188.1171569824219
 21
167.2235107421875
  0
LINE
  8
0
  6
CONTINUOUS
 62
     7
 10
181.4827880859375
 20
157.4781951904297
 11
185.9174041748047
 21
155.6413116455078
  0
LINE
  8
0
  6
CONTINUOUS
 62
     7
 10
181.6845397949219
 20
160.3170928955078
 11
187.7821502685547
 21
157.7913818359375
  0
LINE
  8
0
  6
CONTINUOUS
 62
     7
 10
181.4827880859375
 20
157.4782104492188
 11
181.6845550537109
 21
160.3171081542969
  0
LINE
  8
0
  6
CONTINUOUS
 62
     7
 10
185.9174194335938
 20
155.6413116455078
 11
187.7821655273438
 21
157.7913970947266
  0
LINE
  8
0
  6
CONTINUOUS
 62
     7
 10
182.4232635498047
 20
164.0379486083984
 11
182.8379364013672
 21
165.0390167236328
  0
LINE
  8
0
  6
CONTINUOUS
 62
     7
 10
189.8908538818359
 20
160.9447631835938
 11
190.3055114746094
 21
161.9458312988281
  0
LINE
  8
0
  6
CONTINUOUS
 62
     7
 10
183.6173553466797
 20
165.3618469238281
 11
182.8379211425781
 21
165.0389862060547
  0
LINE
  8
0
  6
CONTINUOUS
 62
     7
 10
184.060546875
 20
162.7103424072266
 11
184.9331359863281
 21
164.8169097900391
  0
LINE
  8
0
  6
CONTINUOUS
 62
     7
 10
187.7943420410156
 20
161.1637573242188
 11
188.6669158935547
 21
163.2703247070313
  0
LINE
  8
0
  6
CONTINUOUS
 62
     7
 10
183.6173706054688
 20
165.3619079589844
 11
189.9826812744141
 21
162.7253112792969
  0
LINE
  8
0
  6
CONTINUOUS
 62
     7
 10
190.3055114746094
 20
161.9458160400391
 11
189.9826507568359
 21
162.7252655029297
  0
LINE
  8
0
  6
CONTINUOUS
 62
     7
 10
182.8148193359375
 20
161.7392425537109
 11
187.988525390625
 21
159.5962066650391
  0
LINE
  8
0
  6
CONTINUOUS
 62
     7
 10
191
 20
162.999755859375
 11
191
 21
152.2995910644531
  0
LINE
  8
0
  6
CONTINUOUS
 62
     7
 10
186.9087982177734
 20
156.7844085693359
 11
191
 21
156.7844085693359
  0
LINE
  8
0
  6
CONTINUOUS
 62
     7
 10
182.6530456542969
 20
163.2933654785156
 11
189.2018432617188
 21
160.5807647705078
  0
LINE
  8
0
  6
DASHED
 62
     7
 10
-40.5
 20
32
 11
-40.5
 21
42
  0
LINE
  8
0
  6
DASHED
 62
     7
 10
-31.5
 20
32
 11
-31.5
 21
42
  0
LINE
  8
0
  6
DASHED
 62
     7
 10
-43.7205810546875
 20
32
 11
-29
 21
32
  0
LINE
  8
0
  6
CENTER
 62
     7
 10
214
 20
42.999755859375
 11
214
 21
7.999755859375
  0
LINE
  8
0
  6
CONTINUOUS
 62
     7
 10
221
 20
23.999755859375
 11
259
 21
23.999755859375
  0
LINE
  8
0
  6
CONTINUOUS
 62
     7
 10
221
 20
31.681884765625
 11
259
 21
31.681884765625
  0
LINE
  8
0
  6
CONTINUOUS
 62
     7
 10
204.800048828125
 20
31.999755859375
 11
221
 21
31.999755859375
  0
LINE
  8
0
  6
DASHED
 62
     7
 10
209.5
 20
41.999755859375
 11
209.5
 21
31.999755859375
  0
LINE
  8
0
  6
DASHED
 62
     7
 10
218.5
 20
41.999755859375
 11
218.5
 21
31.999755859375
  0
LINE
  8
0
  6
CONTINUOUS
 62
     7
 10
207
 20
31.999755859375
 11
207
 21
23.999755859375
  0
LINE
  8
0
  6
CONTINUOUS
 62
     7
 10
221
 20
31.999755859375
 11
221
 21
23.999755859375
  0
LINE
  8
0
  6
CONTINUOUS
 62
     7
 10
218.6159515380859
 20
10.4787483215332
 11
221.0000457763672
 21
23.99964714050293
  0
LINE
  8
0
  6
CONTINUOUS
 62
     7
 10
207.0001220703125
 20
23.99932289123535
 11
209.3842315673828
 21
10.47841262817383
  0
LINE
  8
0
  6
CONTINUOUS
 62
     7
 10
273
 20
23.999755859375
 11
273
 21
31.999755859375
  0
LINE
  8
0
  6
CONTINUOUS
 62
     7
 10
259
 20
23.999755859375
 11
259
 21
31.999755859375
  0
LINE
  8
0
  6
CONTINUOUS
 62
     7
 10
259
 20
23.99971580505371
 11
261.3841247558594
 21
10.47880268096924
  0
LINE
  8
0
  6
CONTINUOUS
 62
     7
 10
270.6158752441406
 20
10.47883892059326
 11
273
 21
23.99974632263184
  0
LINE
  8
0
  6
CENTER
 62
     7
 10
266
 20
7.999755859375
 11
266
 21
42.999755859375
  0
LINE
  8
0
  6
CONTINUOUS
 62
     7
 10
259
 20
31.999755859375
 11
275.199951171875
 21
31.999755859375
  0
LINE
  8
0
  6
CENTER
 62
     7
 10
219.5
 20
130.999755859375
 11
208.5
 21
130.999755859375
  0
LINE
  8
0
  6
CENTER
 62
     7
 10
214
 20
136.499755859375
 11
214
 21
125.499755859375
  0
LINE
  8
0
  6
CENTER
 62
     7
 10
266.000244140625
 20
136.499755859375
 11
266.000244140625
 21
125.499755859375
  0
LINE
  8
0
  6
CENTER
 62
     7
 10
260.500244140625
 20
130.999755859375
 11
271.500244140625
 21
130.999755859375
  0
LINE
  8
0
  6
CENTER
 62
     7
 10
260.500244140625
 20
202.999755859375
 11
271.500244140625
 21
202.999755859375
  0
LINE
  8
0
  6
CENTER
 62
     7
 10
214
 20
197.499755859375
 11
214
 21
208.499755859375
  0
LINE
  8
0
  6
CENTER
 62
     7
 10
219.5
 20
202.999755859375
 11
208.5
 21
202.999755859375
  0
LINE
  8
0
  6
CENTER
 62
     7
 10
266.000244140625
 20
197.499755859375
 11
266.000244140625
 21
208.499755859375
  0
LINE
  8
0
  6
CONTINUOUS
 62
     7
 10
-45
 20
32
 11
-43.7205810546875
 21
32
  0
LINE
  8
0
  6
CONTINUOUS
 62
     7
 10
43.7205810546875
 20
32
 11
44.9998779296875
 21
32
  0
ARC
  8
0
  6
CONTINUOUS
 62
     7
 10
188
 20
34.999755859375
 40
3.982465744018556
 50
241.5040862782025
 51
269.9999087030627
  0
ARC
  8
0
  6
CONTINUOUS
 62
     7
 10
212
 20
12.999755859375
 40
5.999999999999999
 50
254.557342763284
 51
285.4426932088946
  0
ARC
  8
0
  6
CONTINUOUS
 62
     7
 10
213.384765625
 20
7.987548828125
 40
0.7999999523162812
 50
285.4426932088939
 51
0.8784649935446215
  0
ARC
  8
0
  6
CONTINUOUS
 62
     7
 10
210.61572265625
 20
7.987548828125
 40
0.7999999523162926
 50
179.121492417531
 51
254.5573254604404
  0
ARC
  8
0
  6
CONTINUOUS
 62
     7
 10
192.89990234375
 20
38.58984375
 40
1.900939941406257
 50
181.8086700643979
 51
222.4362198515213
  0
ARC
  8
0
  6
CONTINUOUS
 62
     7
 10
194.30029296875
 20
35.52978515625
 40
3.317878723144528
 50
147.5550901493999
 51
173.9458482720621
  0
ARC
  8
0
  6
CONTINUOUS
 62
     7
 10
194.30029296875
 20
34.4697265625
 40
3.318496704101556
 50
186.054315652478
 51
212.4448005675732
  0
ARC
  8
0
  6
CONTINUOUS
 62
     7
 10
192.900390625
 20
31.409912109375
 40
1.896939277648928
 50
137.5635615824254
 51
178.1912206525752
  0
ARC
  8
0
  6
CONTINUOUS
 62
     7
 10
188
 20
34.999755859375
 40
3.999999999999998
 50
89.99998201391055
 51
118.4958044387709
  0
ARC
  8
0
  6
CONTINUOUS
 62
     7
 10
285.349365234375
 20
33.9951171875
 40
2.999999999999994
 50
303.3850195924385
 51
330.102971097101
  0
ARC
  8
0
  6
CONTINUOUS
 62
     7
 10
285.349365234375
 20
34.00439453125
 40
2.999999999999998
 50
29.89702890289898
 51
56.61498040756148
  0
ARC
  8
0
  6
CONTINUOUS
 62
     7
 10
194.65087890625
 20
33.9951171875
 40
2.999999999999996
 50
209.8970307241319
 51
236.6149822287941
  0
ARC
  8
0
  6
CONTINUOUS
 62
     7
 10
194.65087890625
 20
34.00439453125
 40
2.999999999999996
 50
123.3850177712058
 51
150.1029692758681
  0
ARC
  8
0
  6
CONTINUOUS
 62
     7
 10
-13.869140625
 20
25.559814453125
 40
2.889999389648439
 50
276.8601507054235
 51
353.139891186328
  0
ARC
  8
0
  6
CONTINUOUS
 62
     7
 10
-13.869140625
 20
16.43994140625
 40
2.889999389648437
 50
6.746867692327753
 51
83.25312115177206
  0
ARC
  8
0
  6
CONTINUOUS
 62
     7
 10
13.86962890625
 20
25.559814453125
 40
2.889999389648437
 50
186.8601140499994
 51
263.1398852667552
  0
ARC
  8
0
  6
CONTINUOUS
 62
     7
 10
13.86962890625
 20
16.43994140625
 40
2.889999389648437
 50
96.74684287604927
 51
173.2531031656828
  0
ARC
  8
0
  6
CONTINUOUS
 62
     7
 10
-41
 20
27
 40
3.000000000000001
 50
179.9999640278213
 51
270.0000006832453
  0
ARC
  8
0
  6
CONTINUOUS
 62
     7
 10
40.9998779296875
 20
27
 40
2.999999999999999
 50
270.0000179860893
 51
0
  0
ARC
  8
0
  6
CONTINUOUS
 62
     7
 10
-44
 20
32
 40
0.9999999999999981
 50
179.9999640278211
 51
239.999952037095
  0
ARC
  8
0
  6
CONTINUOUS
 62
     7
 10
-34.33837890625
 20
21
 40
3.000000000000001
 50
9.999950190221457
 51
89.99970880634389
  0
ARC
  8
0
  6
CONTINUOUS
 62
     7
 10
34.3387451171875
 20
21
 40
3.000000000000001
 50
90.00020057996414
 51
170.000020667789
  0
ARC
  8
0
  6
CONTINUOUS
 62
     7
 10
-45
 20
30.267822265625
 40
0.9999999999999968
 50
359.9999949509801
 51
59.99998800927364
  0
ARC
  8
0
  6
CONTINUOUS
 62
     7
 10
43.9998779296875
 20
32
 40
1.000000000000002
 50
300.0000119907264
 51
0
  0
ARC
  8
0
  6
CONTINUOUS
 62
     7
 10
44.9998779296875
 20
30.267822265625
 40
1
 50
119.9999760185477
 51
180.0000186693347
  0
ARC
  8
0
  6
CONTINUOUS
 62
     7
 10
26.4827880859375
 20
11
 40
3
 50
269.999963344576
 51
349.9999951682652
  0
ARC
  8
0
  6
CONTINUOUS
 62
     7
 10
-26.482421875
 20
11
 40
2.999999999999999
 50
190.0000339737243
 51
270.000127269116
  0
ARC
  8
0
  6
CONTINUOUS
 62
     7
 10
7.6103515625
 20
32.7099609375
 40
0.9683421850204466
 50
215.3314570768741
 51
278.2972225067941
  0
ARC
  8
0
  6
CONTINUOUS
 62
     7
 10
6.6201171875
 20
30.919921875
 40
1.246148109436035
 50
80.76452806729958
 51
142.1250351177266
  0
ARC
  8
0
  6
CONTINUOUS
 62
     7
 10
6.6201171875
 20
39.079833984375
 40
1.254199028015138
 50
217.8749648822736
 51
279.2353626496737
  0
ARC
  8
0
  6
CONTINUOUS
 62
     7
 10
7.6103515625
 20
37.289794921875
 40
0.9701610803604147
 50
81.70288677623263
 51
144.6685429231259
  0
ARC
  8
0
  6
CONTINUOUS
 62
     7
 10
0
 20
34.999755859375
 40
4
 50
240.0000239814524
 51
241.0449882829511
  0
ARC
  8
0
  6
CONTINUOUS
 62
     7
 10
0
 20
34.999755859375
 40
3.998106002807619
 50
61.09402038976974
 51
298.9059076658729
  0
ARC
  8
0
  6
CONTINUOUS
 62
     7
 10
-19
 20
13
 40
6.000000000000001
 50
254.557342763284
 51
285.4426932088946
  0
ARC
  8
0
  6
CONTINUOUS
 62
     7
 10
-17.615234375
 20
7.987548828125
 40
0.7999999523162841
 50
285.4426932088946
 51
355.0000044143218
  0
ARC
  8
0
  6
CONTINUOUS
 62
     7
 10
-20.38427734375
 20
7.987548828125
 40
0.7999999523162842
 50
185.0000076521948
 51
254.5573427632839
  0
CIRCLE
  8
0
  6
CONTINUOUS
 62
     7
 10
-14
 20
34
 40
2.84999942779541
  0
ARC
  8
0
  6
CONTINUOUS
 62
     7
 10
14
 20
34
 40
2.849999427795411
 50
193.4936484134291
 51
152.8869543815654
  0
ARC
  8
0
  6
CONTINUOUS
 62
     7
 10
194.65087890625
 20
152.995361328125
 40
2.999999999999993
 50
209.8970307241317
 51
236.6149822287941
  0
ARC
  8
0
  6
CONTINUOUS
 62
     7
 10
194.65087890625
 20
153.004638671875
 40
2.999999999999991
 50
123.3850177712059
 51
150.1029692758683
  0
ARC
  8
0
  6
CONTINUOUS
 62
     7
 10
194.65087890625
 20
180.994873046875
 40
2.999999999999993
 50
209.8970307241317
 51
236.6149822287941
  0
ARC
  8
0
  6
CONTINUOUS
 62
     7
 10
194.65087890625
 20
181.004150390625
 40
2.999999999999991
 50
123.3850177712059
 51
150.1029692758683
  0
ARC
  8
0
  6
CONTINUOUS
 62
     7
 10
285.349365234375
 20
180.994873046875
 40
3
 50
303.3850161773439
 51
330.1029676820068
  0
ARC
  8
0
  6
CONTINUOUS
 62
     7
 10
285.349365234375
 20
153.004638671875
 40
3.000000000000023
 50
29.89703231799328
 51
56.61498382265611
  0
ARC
  8
0
  6
CONTINUOUS
 62
     7
 10
285.349365234375
 20
152.995361328125
 40
3
 50
303.3850161773439
 51
330.1029676820068
  0
ARC
  8
0
  6
CONTINUOUS
 62
     7
 10
285.349365234375
 20
181.004150390625
 40
3.000000000000023
 50
29.89703231799328
 51
56.61498382265611
  0
CIRCLE
  8
0
  6
CONTINUOUS
 62
     7
 10
120
 20
166.999755859375
 40
4.5
  0
CIRCLE
  8
0
  6
CONTINUOUS
 62
     7
 10
120
 20
166.999755859375
 40
7
  0
ARC
  8
0
  6
CONTINUOUS
 62
     7
 10
195.249755859375
 20
168.999755859375
 40
4.249771118164061
 50
151.9258648030746
 51
208.0741178940814
  0
ARC
  8
0
  6
CONTINUOUS
 62
     7
 10
195.2498779296875
 20
164.999755859375
 40
4.24988555908202
 50
151.9264658597215
 51
208.0735168374343
  0
ARC
  8
0
  6
CONTINUOUS
 62
     7
 10
188.7501831054688
 20
168.999755859375
 40
4.24977111816405
 50
331.9258836997802
 51
28.07413337569262
  0
ARC
  8
0
  6
CONTINUOUS
 62
     7
 10
188.7500610351563
 20
164.999755859375
 40
4.249885559082024
 50
331.9264847564272
 51
28.07353231904542
  0
ARC
  8
0
  6
CONTINUOUS
 62
     7
 10
184.7333526611328
 20
159.0542297363281
 40
3.299999237060546
 50
131.5803705110077
 51
157.4999548639651
  0
ARC
  8
0
  6
CONTINUOUS
 62
     7
 10
184.7333526611328
 20
159.0542297363281
 40
3.299999237060545
 50
337.5000181569009
 51
3.419602296415186
  0
ARC
  8
0
  6
CONTINUOUS
 62
     7
 10
176.8170013427734
 20
161.9003295898438
 40
6.00000000000001
 50
2.43365082934552
 51
20.87173987704925
  0
ARC
  8
0
  6
CONTINUOUS
 62
     7
 10
192.3435363769531
 20
155.4690246582031
 40
6.000000000000011
 50
114.1278165022775
 51
132.5663219780772
  0
ARC
  8
0
  6
CONTINUOUS
 62
     7
 10
182.0122985839844
 20
162.1211242675781
 40
0.7999999523162822
 50
311.5798327472963
 51
2.433049772698627
  0
ARC
  8
0
  6
CONTINUOUS
 62
     7
 10
188.8260345458984
 20
159.2987823486328
 40
0.7999999523162747
 50
132.5669776762372
 51
183.4201402735692
  0
ARC
  8
0
  6
CONTINUOUS
 62
     7
 10
187.7001037597656
 20
166.999755859375
 40
3.999999999999998
 50
89.99998201391055
 51
180.0000186693345
  0
ARC
  8
0
  6
CONTINUOUS
 62
     7
 10
43.7205810546875
 20
19.5
 40
12.5
 50
90.00000250447819
 51
170.5106865912742
  0
ARC
  8
0
  6
CONTINUOUS
 62
     7
 10
214
 20
19.512451171875
 40
10.14453697204589
 50
242.93427324889
 51
297.0658720063155
  0
ARC
  8
0
  6
CONTINUOUS
 62
     7
 10
266
 20
19.512451171875
 40
10.14453697204589
 50
242.9341639658633
 51
297.0657627232889
  0
ARC
  8
0
  6
CONTINUOUS
 62
     7
 10
-43.7205810546875
 20
19.5
 40
12.5
 50
9.489309879945648
 51
90.00000250447819
  0
CIRCLE
  8
0
  6
CONTINUOUS
 62
     7
 10
214
 20
130.999755859375
 40
4.5
  0
POLYLINE
  8
0
  6
CONTINUOUS
 62
     7
 66
     1
 10
0
 20
0
  0
VERTEX
  8
0
  6
CONTINUOUS
 62
     7
 10
182.5762230076192
 20
32.81864073998823
 42
0.06283216350177946
  0
VERTEX
  8
0
  6
CONTINUOUS
 62
     7
 10
183.1405218470686
 20
32.2924688321731
 42
0.06649712368541728
  0
VERTEX
  8
0
  6
CONTINUOUS
 62
     7
 10
183.820522378859
 20
31.92796477402922
 42
0.06915554882281901
  0
VERTEX
  8
0
  6
CONTINUOUS
 62
     7
 10
184.5728770857268
 20
31.75910697919825
 42
0.06975243727124326
  0
VERTEX
  8
0
  6
CONTINUOUS
 62
     7
 10
185.3416318896366
 20
31.80310470824922
 42
0.06816367987848554
  0
VERTEX
  8
0
  6
CONTINUOUS
 62
     7
 10
186.0694751994052
 20
32.05492625958843
 42
0.06499589504272137
  0
VERTEX
  8
0
  6
CONTINUOUS
 62
     7
 10
186.706040628677
 20
32.48975786473494
 42
0.06129076817816864
  0
VERTEX
  8
0
  6
CONTINUOUS
 62
     7
 10
187.2140979500157
 20
33.06985885889955
 42
0.05807941666053312
  0
VERTEX
  8
0
  6
CONTINUOUS
 62
     7
 10
187.5710953384224
 20
33.7538525471025
 42
0.05590519834431496
  0
VERTEX
  8
0
  6
CONTINUOUS
 62
     7
 10
187.7647549172024
 20
34.50099615474563
 42
0.05496451450345164
  0
VERTEX
  8
0
  6
CONTINUOUS
 62
     7
 10
187.7897704776355
 20
35.27171848089387
 42
0.05547380488141925
  0
VERTEX
  8
0
  6
CONTINUOUS
 62
     7
 10
187.6456911669775
 20
36.02960758339529
 42
0.05728029168222453
  0
VERTEX
  8
0
  6
CONTINUOUS
 62
     7
 10
187.336281547241
 20
36.73604913976058
 42
0.06026812643269705
  0
VERTEX
  8
0
  6
CONTINUOUS
 62
     7
 10
186.871042954306
 20
37.35135832597528
 42
0.06395226429675319
  0
VERTEX
  8
0
  6
CONTINUOUS
 62
     7
 10
186.2688371361363
 20
37.83373746528701
 42
0.06744483676428643
  0
VERTEX
  8
0
  6
CONTINUOUS
 62
     7
 10
185.5621804273715
 20
38.14320047085776
 42
0.06944160058115129
  0
VERTEX
  8
0
  6
CONTINUOUS
 62
     7
 10
184.80029296875
 20
38.249755859375
 42
0
  0
SEQEND
  8
0
  0
POLYLINE
  8
0
  6
CONTINUOUS
 62
     7
 66
     1
 10
0
 20
0
 70
     1
  0
VERTEX
  8
0
  6
CONTINUOUS
 62
     7
 10
10.52001953125
 20
37.499755859375
 42
0.2551554762438217
  0
VERTEX
  8
0
  6
CONTINUOUS
 62
     7
 10
9.990206009134761
 20
37.07486847843401
 42
0.06319180796813131
  0
VERTEX
  8
0
  6
CONTINUOUS
 62
     7
 10
9.736105006708913
 20
36.41198245764517
 42
0.03518717185968149
  0
VERTEX
  8
0
  6
CONTINUOUS
 62
     7
 10
9.609371143130101
 20
35.71193189593705
 42
0.02798629271311547
  0
VERTEX
  8
0
  6
CONTINUOUS
 62
     7
 10
9.57000732421875
 20
34.999755859375
 42
0.02790033163594726
  0
VERTEX
  8
0
  6
CONTINUOUS
 62
     7
 10
9.609142413597807
 20
34.28960685201113
 42
0.03516087829562964
  0
VERTEX
  8
0
  6
CONTINUOUS
 62
     7
 10
9.735640131211708
 20
33.58931547658294
 42
0.06315614608531162
  0
VERTEX
  8
0
  6
CONTINUOUS
 62
     7
 10
9.989677567277459
 20
32.92557569256874
 42
0.2552829221514735
  0
VERTEX
  8
0
  6
CONTINUOUS
 62
     7
 10
10.52001953125
 20
32.499755859375
 42
0.2551578350953497
  0
VERTEX
  8
0
  6
CONTINUOUS
 62
     7
 10
11.04983411833881
 20
32.92464103344489
 42
0.06319203025242098
  0
VERTEX
  8
0
  6
CONTINUOUS
 62
     7
 10
11.30393491672499
 20
33.58752711308824
 42
0.03518717678833777
  0
VERTEX
  8
0
  6
CONTINUOUS
 62
     7
 10
11.43066831846424
 20
34.28757775631694
 42
0.02798632226806054
  0
VERTEX
  8
0
  6
CONTINUOUS
 62
     7
 10
11.47003173828125
 20
34.999755859375
 42
0.02790047984932673
  0
VERTEX
  8
0
  6
CONTINUOUS
 62
     7
 10
11.43089698591074
 20
35.70990488298521
 42
0.03516106040170879
  0
VERTEX
  8
0
  6
CONTINUOUS
 62
     7
 10
11.30439914350767
 20
36.41019622840341
 42
0.06315637351381666
  0
VERTEX
  8
0
  6
CONTINUOUS
 62
     7
 10
11.05036104815231
 20
37.07393573913803
 42
0.2552808125226034
  0
SEQEND
  8
0
  0
POLYLINE
  8
0
  6
CONTINUOUS
 62
     7
 66
     1
 10
0
 20
0
  0
VERTEX
  8
0
  6
CONTINUOUS
 62
     7
 10
184.80029296875
 20
38.249755859375
 42
0.01434917183770723
  0
VERTEX
  8
0
  6
CONTINUOUS
 62
     7
 10
184.6414119640881
 20
38.24519467979242
 42
0.01426051767713378
  0
VERTEX
  8
0
  6
CONTINUOUS
 62
     7
 10
184.4838009496704
 20
38.23161917920771
 42
0.01417563783880673
  0
VERTEX
  8
0
  6
CONTINUOUS
 62
     7
 10
184.3277019235938
 20
38.20917638910317
 42
0.01415083188934748
  0
VERTEX
  8
0
  6
CONTINUOUS
 62
     7
 10
184.1727397962154
 20
38.17785302740604
 42
0.01410154647294462
  0
VERTEX
  8
0
  6
CONTINUOUS
 62
     7
 10
184.0194778351932
 20
38.13774537506493
 42
0.01402954588795404
  0
VERTEX
  8
0
  6
CONTINUOUS
 62
     7
 10
183.8684610246555
 20
38.08900125219073
 42
0.01393696925815141
  0
VERTEX
  8
0
  6
CONTINUOUS
 62
     7
 10
183.7202105856097
 20
38.03181580492745
 42
0.0138262534240526
  0
VERTEX
  8
0
  6
CONTINUOUS
 62
     7
 10
183.5752193562022
 20
37.96642651535463
 42
0.01370004826675507
  0
VERTEX
  8
0
  6
CONTINUOUS
 62
     7
 10
183.4339481491589
 20
37.89310765194564
 42
0.01356113009688495
  0
VERTEX
  8
0
  6
CONTINUOUS
 62
     7
 10
183.2968231503574
 20
37.81216439478693
 42
0.01332237684252706
  0
VERTEX
  8
0
  6
CONTINUOUS
 62
     7
 10
183.1651130518498
 20
37.72454596189099
 42
0.01328780965644373
  0
VERTEX
  8
0
  6
CONTINUOUS
 62
     7
 10
183.0370920654003
 20
37.62918275170903
 42
0.01315487638114401
  0
VERTEX
  8
0
  6
CONTINUOUS
 62
     7
 10
182.9140396942683
 20
37.526977319855
 42
0.01293834043650228
  0
VERTEX
  8
0
  6
CONTINUOUS
 62
     7
 10
182.7969953512166
 20
37.41896290121624
 42
0.01278035279074336
  0
VERTEX
  8
0
  6
CONTINUOUS
 62
     7
 10
182.6856588728383
 20
37.3050738297924
 42
0.01262534591246501
  0
VERTEX
  8
0
  6
CONTINUOUS
 62
     7
 10
182.580249381497
 20
37.18567667461882
 42
0
  0
SEQEND
  8
0
  0
POLYLINE
  8
0
  6
CONTINUOUS
 62
     7
 66
     1
 10
0
 20
0
  0
VERTEX
  8
0
  6
CONTINUOUS
 62
     7
 10
6.8203125
 20
37.84974670410156
 42
0.1885754046345939
  0
VERTEX
  8
0
  6
CONTINUOUS
 62
     7
 10
6.460584125474639
 20
37.69005725136918
 42
0.07574484704559528
  0
VERTEX
  8
0
  6
CONTINUOUS
 62
     7
 10
6.216352638959066
 20
37.37222047301793
 42
0.03933577191758048
  0
VERTEX
  8
0
  6
CONTINUOUS
 62
     7
 10
6.046494008041988
 20
37.00688721543917
 42
0.02577098815909317
  0
VERTEX
  8
0
  6
CONTINUOUS
 62
     7
 10
5.924342211268118
 20
36.62273736355429
 42
0.01950490589526488
  0
VERTEX
  8
0
  6
CONTINUOUS
 62
     7
 10
5.836853661891482
 20
36.22852670864047
 42
0.01621426289610866
  0
VERTEX
  8
0
  6
CONTINUOUS
 62
     7
 10
5.777495135863223
 20
35.82893706782394
 42
0.0144661465689052
  0
VERTEX
  8
0
  6
CONTINUOUS
 62
     7
 10
5.742628466075759
 20
35.42641386294118
 42
0.0136908174638847
  0
VERTEX
  8
0
  6
CONTINUOUS
 62
     7
 10
5.730380623148967
 20
35.0222712561906
 42
0.01360348655264262
  0
VERTEX
  8
0
  6
CONTINUOUS
 62
     7
 10
5.740096304712899
 20
34.61942759780985
 42
0.01431405740125332
  0
VERTEX
  8
0
  6
CONTINUOUS
 62
     7
 10
5.772243364128138
 20
34.21717754815534
 42
0.01598078067188615
  0
VERTEX
  8
0
  6
CONTINUOUS
 62
     7
 10
5.828749846459257
 20
33.81636044796031
 42
0.01902579425549634
  0
VERTEX
  8
0
  6
CONTINUOUS
 62
     7
 10
5.912805418945523
 20
33.42120737658151
 42
0.02487896475955752
  0
VERTEX
  8
0
  6
CONTINUOUS
 62
     7
 10
6.030813666473904
 20
33.03481068690211
 42
0.0372957099264757
  0
VERTEX
  8
0
  6
CONTINUOUS
 62
     7
 10
6.194880410109191
 20
32.66562530838199
 42
0.06998393217353374
  0
VERTEX
  8
0
  6
CONTINUOUS
 62
     7
 10
6.430458490508597
 20
32.33829138743393
 42
0.1738270911093547
  0
VERTEX
  8
0
  6
CONTINUOUS
 62
     7
 10
6.780222945665374
 20
32.1516926163579
 42
0
  0
SEQEND
  8
0
  0
POLYLINE
  8
0
  6
CONTINUOUS
 62
     7
 66
     1
 10
0
 20
0
 70
     1
  0
VERTEX
  8
0
  6
CONTINUOUS
 62
     7
 10
183.7001647949219
 20
37.499755859375
 42
0.1103774522037141
  0
VERTEX
  8
0
  6
CONTINUOUS
 62
     7
 10
182.7880077177547
 20
37.29473876757547
 42
0.1025060084546201
  0
VERTEX
  8
0
  6
CONTINUOUS
 62
     7
 10
182.0406732170429
 20
36.7307313230501
 42
0.09329005926101709
  0
VERTEX
  8
0
  6
CONTINUOUS
 62
     7
 10
181.5630674226439
 20
35.92383952853101
 42
0.08782113043274512
  0
VERTEX
  8
0
  6
CONTINUOUS
 62
     7
 10
181.4001770019531
 20
34.99974060058594
 42
0.08777239875636436
  0
VERTEX
  8
0
  6
CONTINUOUS
 62
     7
 10
181.5629028171812
 20
34.07612227705135
 42
0.09326081159898489
  0
VERTEX
  8
0
  6
CONTINUOUS
 62
     7
 10
182.0401994559065
 20
33.26931594587807
 42
0.1026312542813133
  0
VERTEX
  8
0
  6
CONTINUOUS
 62
     7
 10
182.7884060589349
 20
32.70458459840605
 42
0.1103321203831685
  0
VERTEX
  8
0
  6
CONTINUOUS
 62
     7
 10
183.7001953125
 20
32.499755859375
 42
0.1103785363114056
  0
VERTEX
  8
0
  6
CONTINUOUS
 62
     7
 10
184.6123524083074
 20
32.70477201445597
 42
0.1025061928042668
  0
VERTEX
  8
0
  6
CONTINUOUS
 62
     7
 10
185.3596859923836
 20
33.26878061929353
 42
0.09328955059996204
  0
VERTEX
  8
0
  6
CONTINUOUS
 62
     7
 10
185.8372911598565
 20
34.07567284157115
 42
0.08782043122465875
  0
VERTEX
  8
0
  6
CONTINUOUS
 62
     7
 10
186.0001831054688
 20
34.99977111816406
 42
0.08777236859884673
  0
VERTEX
  8
0
  6
CONTINUOUS
 62
     7
 10
185.8374543969432
 20
35.92338893085459
 42
0.09326035863048655
  0
VERTEX
  8
0
  6
CONTINUOUS
 62
     7
 10
185.3601559930144
 20
36.73019427372008
 42
0.1026306547844697
  0
VERTEX
  8
0
  6
CONTINUOUS
 62
     7
 10
184.6119493203245
 20
37.29492573620716
 42
0.1103315608440667
  0
SEQEND
  8
0
  0
TEXT
  8
0
  6
CONTINUOUS
 62
     7
 10
-1.285500049591065
 20
-21.79999995231628
 40
3.599999904632568
 41
1.008382419577613
  1
HSR30B
  0
ENDSEC
  0
EOF
