  0
SECTION
  2
HEADER
  0
ENDSEC
  0
SECTION
  2
TABLES
  0
TABLE
  2
LTYPE
 70
    22
  0
LTYPE
  2
CONTINUOUS
 70
    64
  3
Solid line
 72
    65
 73
     0
 40
0.000000
  0
LTYPE
  2
DASHED
 70
    64
  3
__ __ __ __ __ __ __ __ __ __ __ __ __ __ __
 72
    65
 73
     2
 40
3.500000
 49
2.000000
 49
-1.500000
  0
LTYPE
  2
CENTER
 70
    64
  3
____ _ ____ _ ____ _ ____ _ ____ _ ____ _ ____
 72
    65
 73
     4
 40
17.500000
 49
13.000000
 49
-1.500000
 49
1.500000
 49
-1.500000
  0
LTYPE
  2
PHANTOM
 70
    64
  3
_____ _ _ _____ _ _ _____ _ _ _____ _ _ ____  
 72
    65
 73
     6
 40
15.500000
 49
8.000000
 49
-1.500000
 49
1.500000
 49
-1.500000
 49
1.500000
 49
-1.500000
  0
LTYPE
  2
DOT
 70
    64
  3
. . . . . . . . . . . . . . . . . . . . . . . .
 72
    65
 73
     2
 40
0.25
 49
0.0
 49
-0.25
  0
ENDTAB
  0
TABLE
  2
LAYER
 70
     1
  0
LAYER
  2
0
 70
     0
 62
     7
  6
CONTINUOUS
  0
ENDTAB
  0
TABLE
  2
STYLE
 70
     1
  0
STYLE
  2
STANDARD
 70
     0
 40
0.000000
 41
1.000000
 50
0.000000
 71
     0
 42
0.200000
  3
txt
  0
ENDTAB
  0
TABLE
  2
VIEW
 70
     0
  0
ENDTAB
  0
ENDSEC
  0
SECTION
  2
BLOCKS
  0
ENDSEC
  0
SECTION
  2
ENTITIES
  0
LINE
  8
0
  6
DASHED
 62
     7
 10
200.5999145507813
 20
40.150146484375
 11
207.4002075195313
 21
40.150146484375
  0
LINE
  8
0
  6
DASHED
 62
     7
 10
199.9998168945313
 20
43
 11
207.9998168945313
 21
43
  0
LINE
  8
0
  6
DASHED
 62
     7
 10
207.3998718261719
 20
40.15024948120117
 11
203.9998321533203
 21
38.18723678588867
  0
LINE
  8
0
  6
DASHED
 62
     7
 10
208.0000762939453
 20
43.00009918212891
 11
207.3999938964844
 21
41.96069717407227
  0
LINE
  8
0
  6
CONTINUOUS
 62
     7
 10
100.0000305175781
 20
28.999755859375
 11
172.4998779296875
 21
28.999755859375
  0
LINE
  8
0
  6
CENTER
 62
     7
 10
359.9997253417969
 20
29.999755859375
 11
359.9997253417969
 21
-1
  0
LINE
  8
0
  6
CENTER
 62
     7
 10
275.9999389648438
 20
56
 11
275.9999389648438
 21
36.4462890625
  0
LINE
  8
0
  6
CONTINUOUS
 62
     7
 10
169.4998779296875
 20
36
 11
172.4998779296875
 21
36
  0
LINE
  8
0
  6
CONTINUOUS
 62
     7
 10
174.4998779296875
 20
46
 11
175.9998779296875
 21
46
  0
LINE
  8
0
  6
CONTINUOUS
 62
     7
 10
172.4998779296875
 20
9.5
 11
175.9998779296875
 21
9.5
  0
LINE
  8
0
  6
CONTINUOUS
 62
     7
 10
174.4998779296875
 20
46
 11
174.4998779296875
 21
9.5
  0
LINE
  8
0
  6
CONTINUOUS
 62
     7
 10
172.4994201660156
 20
29.69970893859863
 11
174.4995422363281
 21
31.69983100891113
  0
LINE
  8
0
  6
CONTINUOUS
 62
     7
 10
171.1995697021484
 20
40.00012969970703
 11
169.5996551513672
 21
43.49991989135742
  0
LINE
  8
0
  6
CONTINUOUS
 62
     7
 10
172.0996398925781
 20
40.00027465820313
 11
170.5997467041016
 21
43.50002670288086
  0
LINE
  8
0
  6
CONTINUOUS
 62
     7
 10
14.24276733398438
 20
31.69998359680176
 11
19.70005798339844
 21
26.24269485473633
  0
LINE
  8
0
  6
CONTINUOUS
 62
     7
 10
19.7001953125
 20
26.24267578125
 11
19.7001953125
 21
21.95751953125
  0
LINE
  8
0
  6
CONTINUOUS
 62
     7
 10
14.35014533996582
 20
16.60732841491699
 11
19.70022964477539
 21
21.95741271972656
  0
LINE
  8
0
  6
DASHED
 62
     7
 10
113.0000305175781
 20
17
 11
127.0000305175781
 21
17
  0
LINE
  8
0
  6
DASHED
 62
     7
 10
124.5000305175781
 20
17
 11
124.5000305175781
 21
0
  0
LINE
  8
0
  6
DASHED
 62
     7
 10
115.5000305175781
 20
17
 11
115.5000305175781
 21
0
  0
LINE
  8
0
  6
CONTINUOUS
 62
     7
 10
172.4998779296875
 20
29.699951171875
 11
172.4998779296875
 21
9.5
  0
LINE
  8
0
  6
CONTINUOUS
 62
     7
 10
14.35009765625
 20
16.607421875
 11
14.35009765625
 21
13.45263671875
  0
LINE
  8
0
  6
CONTINUOUS
 62
     7
 10
11.80029296875
 20
17.68017578125
 11
11.80029296875
 21
12.2001953125
  0
LINE
  8
0
  6
CONTINUOUS
 62
     7
 10
176.9998779296875
 20
47
 11
187.0996246337891
 21
47
  0
LINE
  8
0
  6
CONTINUOUS
 62
     7
 10
304.0000305175781
 20
45.99973678588867
 11
303.0001525878906
 21
46.9996223449707
  0
LINE
  8
0
  6
CONTINUOUS
 62
     7
 10
379.9997253417969
 20
17.67990112304688
 11
307.4998779296875
 21
17.67990112304688
  0
LINE
  8
0
  6
CONTINUOUS
 62
     7
 10
11.8001766204834
 20
17.67990112304688
 11
13.63820457458496
 21
19.51792907714844
  0
LINE
  8
0
  6
CONTINUOUS
 62
     7
 10
-16.99972915649414
 20
6.999951362609863
 11
-11.79966354370117
 21
12.20001792907715
  0
LINE
  8
0
  6
CONTINUOUS
 62
     7
 10
-3.24951171875
 20
0
 11
3.25
 21
0
  0
LINE
  8
0
  6
CONTINUOUS
 62
     7
 10
165.3994903564453
 20
43.50004196166992
 11
164.9994659423828
 21
42.92000961303711
  0
LINE
  8
0
  6
CONTINUOUS
 62
     7
 10
165.3997344970703
 20
36.49992752075195
 11
164.9997253417969
 21
37.0799560546875
  0
LINE
  8
0
  6
DASHED
 62
     7
 10
127.0000305175781
 20
28.999755859375
 11
127.0000305175781
 21
17
  0
LINE
  8
0
  6
CONTINUOUS
 62
     7
 10
171.2000122070313
 20
39.99999618530273
 11
169.6000061035156
 21
36.4999885559082
  0
LINE
  8
0
  6
CONTINUOUS
 62
     7
 10
172.0999145507813
 20
40.00016403198242
 11
170.5999145507813
 21
36.50019073486328
  0
LINE
  8
0
  6
CONTINUOUS
 62
     7
 10
170.5995178222656
 20
36.460205078125
 11
170.5995178222656
 21
36.5
  0
LINE
  8
0
  6
CONTINUOUS
 62
     7
 10
170.5994873046875
 20
36.5
 11
165.3997802734375
 21
36.5
  0
LINE
  8
0
  6
CONTINUOUS
 62
     7
 10
172.4996490478516
 20
44.12001037597656
 11
172.9996032714844
 21
44.61995697021484
  0
LINE
  8
0
  6
CONTINUOUS
 62
     7
 10
172.9996032714844
 20
35.37992477416992
 11
172.4996490478516
 21
35.8798713684082
  0
LINE
  8
0
  6
CONTINUOUS
 62
     7
 10
187.0998687744141
 20
42.99988555908203
 11
292.89990234375
 21
42.99988555908203
  0
LINE
  8
0
  6
CONTINUOUS
 62
     7
 10
174.4998779296875
 20
35.380126953125
 11
172.9998779296875
 21
35.380126953125
  0
LINE
  8
0
  6
CONTINUOUS
 62
     7
 10
174.4998779296875
 20
44.6201171875
 11
172.9998779296875
 21
44.6201171875
  0
LINE
  8
0
  6
CONTINUOUS
 62
     7
 10
170.5994873046875
 20
43.5
 11
165.3997802734375
 21
43.5
  0
LINE
  8
0
  6
CONTINUOUS
 62
     7
 10
14.34997272491455
 20
13.45279693603516
 11
18.30258941650391
 21
9.500180244445801
  0
LINE
  8
0
  6
CENTER
 62
     7
 10
161.2996826171875
 20
40
 11
177.8485107421875
 21
40
  0
LINE
  8
0
  6
CONTINUOUS
 62
     7
 10
172.4999084472656
 20
35.880126953125
 11
172.4999084472656
 21
44.1201171875
  0
LINE
  8
0
  6
CONTINUOUS
 62
     7
 10
379.9997253417969
 20
28.999755859375
 11
379.9997253417969
 21
0
  0
LINE
  8
0
  6
CONTINUOUS
 62
     7
 10
306.9996337890625
 20
42.000244140625
 11
306.9996337890625
 21
38
  0
LINE
  8
0
  6
CONTINUOUS
 62
     7
 10
169.4998779296875
 20
44
 11
172.4998779296875
 21
44
  0
LINE
  8
0
  6
CONTINUOUS
 62
     7
 10
100.0000305175781
 20
22.880126953125
 11
172.4998779296875
 21
22.880126953125
  0
LINE
  8
0
  6
CONTINUOUS
 62
     7
 10
100.0000305175781
 20
12.2001953125
 11
172.4998779296875
 21
12.2001953125
  0
LINE
  8
0
  6
CENTER
 62
     7
 10
203.9998168945313
 20
56
 11
203.9998168945313
 21
36.4462890625
  0
LINE
  8
0
  6
DASHED
 62
     7
 10
207.9998168945313
 20
55
 11
207.9998168945313
 21
43
  0
LINE
  8
0
  6
DASHED
 62
     7
 10
113.0000305175781
 20
28.999755859375
 11
113.0000305175781
 21
17
  0
LINE
  8
0
  6
CENTER
 62
     7
 10
120.0000305175781
 20
29.999755859375
 11
120.0000305175781
 21
-1
  0
LINE
  8
0
  6
CONTINUOUS
 62
     7
 10
100.0000305175781
 20
25.1102180480957
 11
172.4998779296875
 21
25.1102180480957
  0
LINE
  8
0
  6
CONTINUOUS
 62
     7
 10
100.0000305175781
 20
0
 11
379.9997253417969
 21
0
  0
LINE
  8
0
  6
CONTINUOUS
 62
     7
 10
379.9997253417969
 20
12.2001953125
 11
307.4998779296875
 21
12.2001953125
  0
LINE
  8
0
  6
CONTINUOUS
 62
     7
 10
292.89990234375
 20
9.39990234375
 11
303.9996337890625
 21
9.39990234375
  0
LINE
  8
0
  6
CONTINUOUS
 62
     7
 10
292.89990234375
 20
47
 11
302.9996337890625
 21
47
  0
LINE
  8
0
  6
CONTINUOUS
 62
     7
 10
305.4999694824219
 20
31.69987869262695
 11
307.5001220703125
 21
29.69974708557129
  0
LINE
  8
0
  6
CONTINUOUS
 62
     7
 10
303.9996337890625
 20
9.5
 11
307.4996337890625
 21
9.5
  0
LINE
  8
0
  6
CONTINUOUS
 62
     7
 10
15.5
 20
0
 11
8.75
 21
0
  0
LINE
  8
0
  6
CONTINUOUS
 62
     7
 10
-17
 20
25.110107421875
 11
-17
 21
22.880126953125
  0
LINE
  8
0
  6
CONTINUOUS
 62
     7
 10
17
 20
25.110107421875
 11
17
 21
22.880126953125
  0
LINE
  8
0
  6
CONTINUOUS
 62
     7
 10
-13.10986328125
 20
29
 11
13.1103515625
 21
29
  0
LINE
  8
0
  6
CONTINUOUS
 62
     7
 10
100.0000305175781
 20
28.999755859375
 11
100.0000305175781
 21
0
  0
LINE
  8
0
  6
CONTINUOUS
 62
     7
 10
176.9994964599609
 20
46.99945449829102
 11
175.9995880126953
 21
45.99956893920898
  0
LINE
  8
0
  6
CONTINUOUS
 62
     7
 10
172.9998779296875
 20
38
 11
172.9998779296875
 21
42.000244140625
  0
LINE
  8
0
  6
CONTINUOUS
 62
     7
 10
175.9998779296875
 20
46
 11
175.9998779296875
 21
9.39990234375
  0
LINE
  8
0
  6
CENTER
 62
     7
 10
302.2996826171875
 20
40
 11
308.4842834472656
 21
40
  0
LINE
  8
0
  6
CONTINUOUS
 62
     7
 10
175.9998779296875
 20
9.39990234375
 11
187.0996246337891
 21
9.39990234375
  0
LINE
  8
0
  6
DASHED
 62
     7
 10
199.9998779296875
 20
43.00006484985352
 11
200.5999755859375
 21
41.96066284179688
  0
LINE
  8
0
  6
DASHED
 62
     7
 10
200.6000366210938
 20
40.14997863769531
 11
203.9998474121094
 21
38.18708038330078
  0
LINE
  8
0
  6
CONTINUOUS
 62
     7
 10
100.0000305175781
 20
17.67990112304688
 11
172.4998779296875
 21
17.67990112304688
  0
LINE
  8
0
  6
DASHED
 62
     7
 10
207.4002075195313
 20
55
 11
207.4002075195313
 21
40.150146484375
  0
LINE
  8
0
  6
CONTINUOUS
 62
     7
 10
307.4996337890625
 20
28.999755859375
 11
379.9997253417969
 21
28.999755859375
  0
LINE
  8
0
  6
DASHED
 62
     7
 10
200.5999145507813
 20
55
 11
200.5999145507813
 21
40.150146484375
  0
LINE
  8
0
  6
DASHED
 62
     7
 10
199.9998168945313
 20
55
 11
199.9998168945313
 21
43
  0
LINE
  8
0
  6
CONTINUOUS
 62
     7
 10
-8.750092506408691
 20
0.0001814000424928963
 11
-8.249973297119141
 21
0.5003006458282471
  0
LINE
  8
0
  6
CONTINUOUS
 62
     7
 10
-8.25
 20
0.5
 11
-3.75
 21
0.5
  0
LINE
  8
0
  6
CONTINUOUS
 62
     7
 10
100.0000305175781
 20
7.000102043151856
 11
379.9997253417969
 21
7.000102043151856
  0
LINE
  8
0
  6
CONTINUOUS
 62
     7
 10
-3.749935865402222
 20
0.5001278519630432
 11
-3.24998927116394
 21
0.0001812314440030605
  0
LINE
  8
0
  6
CONTINUOUS
 62
     7
 10
3.75
 20
0.5
 11
8.2451171875
 21
0.5
  0
LINE
  8
0
  6
CONTINUOUS
 62
     7
 10
3.250007152557373
 20
0.0001812314440030605
 11
3.749953746795654
 21
0.5001278519630432
  0
LINE
  8
0
  6
CONTINUOUS
 62
     7
 10
16.48113250732422
 20
22.3608570098877
 11
17.00024223327637
 21
22.87996673583984
  0
LINE
  8
0
  6
CONTINUOUS
 62
     7
 10
8.245157241821289
 20
0.4999553561210632
 11
8.74510383605957
 21
8.76654485182371E-006
  0
LINE
  8
0
  6
CONTINUOUS
 62
     7
 10
-8.750273704528809
 20
0
 11
-15.49951171875
 21
0
  0
LINE
  8
0
  6
CONTINUOUS
 62
     7
 10
13.11029148101807
 20
28.99999618530273
 11
13.63993167877197
 21
28.47035598754883
  0
LINE
  8
0
  6
CONTINUOUS
 62
     7
 10
-16.99990081787109
 20
22.87998771667481
 11
-16.48061943054199
 21
22.3607063293457
  0
LINE
  8
0
  6
CONTINUOUS
 62
     7
 10
11.79983139038086
 20
12.20016765594482
 11
16.99989700317383
 21
7.000102043151856
  0
LINE
  8
0
  6
CONTINUOUS
 62
     7
 10
-11.7998046875
 20
17.68017578125
 11
-11.7998046875
 21
12.2001953125
  0
LINE
  8
0
  6
CONTINUOUS
 62
     7
 10
-16.99957847595215
 20
1.499904990196228
 11
-15.49973773956299
 21
6.549624959006906E-005
  0
LINE
  8
0
  6
CONTINUOUS
 62
     7
 10
-17
 20
7
 11
-17
 21
1.5
  0
LINE
  8
0
  6
CONTINUOUS
 62
     7
 10
17
 20
7
 11
17
 21
1.5
  0
LINE
  8
0
  6
CONTINUOUS
 62
     7
 10
-16.99972915649414
 20
25.10989570617676
 11
-16.468017578125
 21
25.6416072845459
  0
LINE
  8
0
  6
CONTINUOUS
 62
     7
 10
16.46835899353027
 20
25.64192962646484
 11
17.00006866455078
 21
25.1102180480957
  0
LINE
  8
0
  6
CONTINUOUS
 62
     7
 10
-13.63769149780273
 20
19.51777839660645
 11
-11.79983520507813
 21
17.67992210388184
  0
LINE
  8
0
  6
CONTINUOUS
 62
     7
 10
-13.63941860198975
 20
28.47020721435547
 11
-13.10977840423584
 21
28.99984550476074
  0
LINE
  8
0
  6
CONTINUOUS
 62
     7
 10
16.99998474121094
 20
1.500088453292847
 11
15.49997138977051
 21
7.628580351592973E-005
  0
LINE
  8
0
  6
CONTINUOUS
 62
     7
 10
1.130480170249939
 20
40.00008010864258
 11
1.780468344688416
 21
43.50005340576172
  0
LINE
  8
0
  6
CONTINUOUS
 62
     7
 10
1.13011360168457
 20
39.99988555908203
 11
1.780101895332336
 21
36.49991607666016
  0
LINE
  8
0
  6
CONTINUOUS
 62
     7
 10
1.7802734375
 20
36.5
 11
5.8603515625
 21
36.5
  0
LINE
  8
0
  6
CENTER
 62
     7
 10
-5
 20
40
 11
13.39111328125
 21
40
  0
LINE
  8
0
  6
CONTINUOUS
 62
     7
 10
1.7802734375
 20
43.5
 11
5.8603515625
 21
43.5
  0
LINE
  8
0
  6
CONTINUOUS
 62
     7
 10
3.440176248550415
 20
40.00005340576172
 11
4.090178966522217
 21
36.50008392333984
  0
LINE
  8
0
  6
CONTINUOUS
 62
     7
 10
7.750216484069824
 20
43.25014495849609
 11
10.52011108398438
 21
42.50017547607422
  0
LINE
  8
0
  6
CONTINUOUS
 62
     7
 10
7.766227722167969
 20
36.75453948974609
 11
10.52009773254395
 21
37.50017166137695
  0
LINE
  8
0
  6
CONTINUOUS
 62
     7
 10
5.950089931488037
 20
43.02008438110352
 11
5.860096454620361
 21
43.5
  0
LINE
  8
0
  6
CONTINUOUS
 62
     7
 10
3.440397024154663
 20
39.99991607666016
 11
4.090444564819336
 21
43.5001220703125
  0
LINE
  8
0
  6
CONTINUOUS
 62
     7
 10
5.950046062469482
 20
36.97017288208008
 11
5.85999345779419
 21
36.49995803833008
  0
LINE
  8
0
  6
CONTINUOUS
 62
     7
 10
0.0005430869641713798
 20
35.38101959228516
 11
1.947719812393189
 21
36.50009918212891
  0
LINE
  8
0
  6
CONTINUOUS
 62
     7
 10
34.00017166137695
 20
11.49984741210938
 11
32.00020980834961
 21
9.499888420104981
  0
LINE
  8
0
  6
CONTINUOUS
 62
     7
 10
32.00037002563477
 20
45.99978256225586
 11
34.00015258789063
 21
43.99999237060547
  0
LINE
  8
0
  6
CONTINUOUS
 62
     7
 10
-32.00015640258789
 20
46
 11
32
 21
46
  0
LINE
  8
0
  6
CONTINUOUS
 62
     7
 10
-0.0005208515212871134
 20
44.61916351318359
 11
1.937887668609619
 21
43.50002670288086
  0
LINE
  8
0
  6
CONTINUOUS
 62
     7
 10
34
 20
44
 11
34
 21
11.5
  0
LINE
  8
0
  6
CONTINUOUS
 62
     7
 10
-14.2421875
 20
31.7001953125
 11
14.24267578125
 21
31.7001953125
  0
LINE
  8
0
  6
CENTER
 62
     7
 10
-22.25
 20
10.532958984375
 11
-22.25
 21
6.93212890625
  0
LINE
  8
0
  6
CONTINUOUS
 62
     7
 10
-33.19970703125
 20
9.5
 11
-14.49951171875
 21
9.5
  0
LINE
  8
0
  6
CONTINUOUS
 62
     7
 10
-34
 20
11.5
 11
-34
 21
33.591064453125
  0
LINE
  8
0
  6
CONTINUOUS
 62
     7
 10
-31.99961280822754
 20
9.499927520751953
 11
-33.9997444152832
 21
11.50005626678467
  0
LINE
  8
0
  6
CONTINUOUS
 62
     7
 10
-19.69954490661621
 20
26.24254417419434
 11
-14.24225425720215
 21
31.69983291625977
  0
LINE
  8
0
  6
CONTINUOUS
 62
     7
 10
-19.69970703125
 20
21.95751953125
 11
-19.69970703125
 21
26.24267578125
  0
LINE
  8
0
  6
CONTINUOUS
 62
     7
 10
-19.69989013671875
 20
21.95743560791016
 11
-14.34963226318359
 21
16.607177734375
  0
LINE
  8
0
  6
CONTINUOUS
 62
     7
 10
-14.349609375
 20
13.45263671875
 11
-14.349609375
 21
16.607421875
  0
LINE
  8
0
  6
CONTINUOUS
 62
     7
 10
-18.30242156982422
 20
9.500029563903809
 11
-14.34980487823486
 21
13.45264625549316
  0
LINE
  8
0
  6
CONTINUOUS
 62
     7
 10
14.5
 20
9.5
 11
33.2001953125
 21
9.5
  0
LINE
  8
0
  6
CONTINUOUS
 62
     7
 10
-3.999995470046997
 20
42.30986785888672
 11
-0.0003365675220265985
 21
44.61907196044922
  0
LINE
  8
0
  6
CONTINUOUS
 62
     7
 10
-3.999673843383789
 20
37.69047546386719
 11
0.000619396916590631
 21
35.38090515136719
  0
LINE
  8
0
  6
CONTINUOUS
 62
     7
 10
-4
 20
42.31005859375
 11
-4
 21
37.690673828125
  0
LINE
  8
0
  6
CENTER
 62
     7
 10
22.25
 20
6.93212890625
 11
22.25
 21
10.532958984375
  0
LINE
  8
0
  6
CENTER
 62
     7
 10
0
 20
56
 11
0
 21
-1
  0
LINE
  8
0
  6
DASHED
 62
     7
 10
-7
 20
29
 11
-7
 21
17
  0
LINE
  8
0
  6
DASHED
 62
     7
 10
7
 20
29
 11
7
 21
17
  0
LINE
  8
0
  6
DASHED
 62
     7
 10
-4.5
 20
17
 11
-4.5
 21
0.5
  0
LINE
  8
0
  6
DASHED
 62
     7
 10
4.5
 20
17
 11
4.5
 21
0.5
  0
LINE
  8
0
  6
DASHED
 62
     7
 10
-7
 20
17
 11
7
 21
17
  0
LINE
  8
0
  6
CONTINUOUS
 62
     7
 10
-33.49951171875
 20
55
 11
-16.099609375
 21
55
  0
LINE
  8
0
  6
CONTINUOUS
 62
     7
 10
35
 20
53.5
 11
35
 21
45
  0
LINE
  8
0
  6
CONTINUOUS
 62
     7
 10
-35
 20
53.5
 11
-35
 21
45
  0
LINE
  8
0
  6
CONTINUOUS
 62
     7
 10
34.7001953125
 20
44.699951171875
 11
34.7001953125
 21
11
  0
LINE
  8
0
  6
CONTINUOUS
 62
     7
 10
-15.2998046875
 20
54.2001953125
 11
-5.69970703125
 21
54.2001953125
  0
LINE
  8
0
  6
CONTINUOUS
 62
     7
 10
-34.99982833862305
 20
53.50014877319336
 11
-33.49981307983398
 21
55.00016021728516
  0
LINE
  8
0
  6
CONTINUOUS
 62
     7
 10
33.49991226196289
 20
55.00013732910156
 11
35.00009536743164
 21
53.49995040893555
  0
LINE
  8
0
  6
CONTINUOUS
 62
     7
 10
34.70027923583984
 20
10.9999303817749
 11
33.20026397705078
 21
9.499923706054688
  0
LINE
  8
0
  6
CONTINUOUS
 62
     7
 10
-33.1994514465332
 20
9.500051498413086
 11
-34.69963455200195
 21
11.00024032592773
  0
LINE
  8
0
  6
CONTINUOUS
 62
     7
 10
5.7001953125
 20
54.2001953125
 11
15.30029296875
 21
54.2001953125
  0
LINE
  8
0
  6
CONTINUOUS
 62
     7
 10
15.30037021636963
 20
54.19993591308594
 11
16.10036277770996
 21
54.99990844726563
  0
LINE
  8
0
  6
CONTINUOUS
 62
     7
 10
-5.699836730957031
 20
54.20000839233398
 11
-4.899845600128174
 21
54.99998474121094
  0
LINE
  8
0
  6
CONTINUOUS
 62
     7
 10
5.700133323669434
 20
54.2000732421875
 11
4.900142192840576
 21
55.00004959106445
  0
LINE
  8
0
  6
CONTINUOUS
 62
     7
 10
-15.30007076263428
 20
54.20013046264648
 11
-16.10006332397461
 21
55.00010681152344
  0
LINE
  8
0
  6
CONTINUOUS
 62
     7
 10
-4.89990234375
 20
55
 11
4.900390625
 21
55
  0
LINE
  8
0
  6
CONTINUOUS
 62
     7
 10
16.10009765625
 20
55
 11
33.5
 21
55
  0
LINE
  8
0
  6
CONTINUOUS
 62
     7
 10
-34.69968414306641
 20
44.69971466064453
 11
-34.99972152709961
 21
44.99975204467773
  0
LINE
  8
0
  6
CONTINUOUS
 62
     7
 10
-34.69970703125
 20
44.69974136352539
 11
-34.69970703125
 21
11
  0
LINE
  8
0
  6
CONTINUOUS
 62
     7
 10
34.70036697387695
 20
44.69983673095703
 11
35.00040435791016
 21
44.99987411499023
  0
LINE
  8
0
  6
CENTER
 62
     7
 10
-25
 20
56
 11
-25
 21
36.4462890625
  0
LINE
  8
0
  6
DASHED
 62
     7
 10
-21
 20
55
 11
-21
 21
43
  0
LINE
  8
0
  6
DASHED
 62
     7
 10
-29
 20
55
 11
-29
 21
43
  0
LINE
  8
0
  6
DASHED
 62
     7
 10
-21.599609375
 20
55
 11
-21.599609375
 21
40.150146484375
  0
LINE
  8
0
  6
DASHED
 62
     7
 10
-28.39990234375
 20
55
 11
-28.39990234375
 21
40.150146484375
  0
LINE
  8
0
  6
DASHED
 62
     7
 10
-28.39990234375
 20
40.150146484375
 11
-21.599609375
 21
40.150146484375
  0
LINE
  8
0
  6
DASHED
 62
     7
 10
-29
 20
43
 11
-21
 21
43
  0
LINE
  8
0
  6
DASHED
 62
     7
 10
-28.99995231628418
 20
43.00006484985352
 11
-28.39985466003418
 21
41.96066665649414
  0
LINE
  8
0
  6
DASHED
 62
     7
 10
-28.39979362487793
 20
40.14997863769531
 11
-24.99997329711914
 21
38.18708038330078
  0
LINE
  8
0
  6
DASHED
 62
     7
 10
-21.59996223449707
 20
40.15024185180664
 11
-25
 21
38.18722915649414
  0
LINE
  8
0
  6
DASHED
 62
     7
 10
-20.99974632263184
 20
43.00009536743164
 11
-21.59983634948731
 21
41.960693359375
  0
LINE
  8
0
  6
CONTINUOUS
 62
     7
 10
-34.00017166137695
 20
11.49984741210938
 11
-32.00020980834961
 21
9.499888420104981
  0
LINE
  8
0
  6
CENTER
 62
     7
 10
25
 20
56
 11
25
 21
36.4462890625
  0
LINE
  8
0
  6
CENTER
 62
     7
 10
-16
 20
40
 11
-6
 21
40
  0
LINE
  8
0
  6
CONTINUOUS
 62
     7
 10
-32.00037002563477
 20
45.99978256225586
 11
-34.00015258789063
 21
43.99999237060547
  0
LINE
  8
0
  6
CENTER
 62
     7
 10
-11
 20
45
 11
-11
 21
35
  0
LINE
  8
0
  6
CENTER
 62
     7
 10
11
 20
35
 11
11
 21
45
  0
LINE
  8
0
  6
CONTINUOUS
 62
     7
 10
187.0998687744141
 20
9.5
 11
292.89990234375
 21
9.5
  0
LINE
  8
0
  6
CONTINUOUS
 62
     7
 10
187.0998687744141
 20
53.39990234375
 11
187.0998687744141
 21
9.5
  0
LINE
  8
0
  6
CONTINUOUS
 62
     7
 10
292.89990234375
 20
9.5
 11
292.89990234375
 21
53.39990234375
  0
LINE
  8
0
  6
CONTINUOUS
 62
     7
 10
188.6992340087891
 20
55
 11
291.2998046875
 21
55
  0
LINE
  8
0
  6
CONTINUOUS
 62
     7
 10
187.099365234375
 20
53.40005111694336
 11
188.6993255615234
 21
55.00001907348633
  0
LINE
  8
0
  6
CONTINUOUS
 62
     7
 10
291.2998962402344
 20
54.99996185302734
 11
292.8998718261719
 21
53.39999389648438
  0
LINE
  8
0
  6
CONTINUOUS
 62
     7
 10
379.9997253417969
 20
22.880126953125
 11
307.4998779296875
 21
22.880126953125
  0
LINE
  8
0
  6
CONTINUOUS
 62
     7
 10
303.9996337890625
 20
9.39990234375
 11
303.9996337890625
 21
46
  0
LINE
  8
0
  6
CONTINUOUS
 62
     7
 10
305.4996337890625
 20
9.5
 11
305.4996337890625
 21
46
  0
LINE
  8
0
  6
CONTINUOUS
 62
     7
 10
307.4996337890625
 20
9.5
 11
307.4996337890625
 21
29.699951171875
  0
LINE
  8
0
  6
CONTINUOUS
 62
     7
 10
303.9996337890625
 20
46
 11
305.4996337890625
 21
46
  0
LINE
  8
0
  6
CONTINUOUS
 62
     7
 10
-34
 20
44
 11
-34
 21
11.5
  0
LINE
  8
0
  6
CONTINUOUS
 62
     7
 10
379.9997253417969
 20
25.1102180480957
 11
307.4998779296875
 21
25.1102180480957
  0
LINE
  8
0
  6
CENTER
 62
     7
 10
99.00003051757813
 20
170
 11
380.9997253417969
 21
170
  0
LINE
  8
0
  6
CONTINUOUS
 62
     7
 10
100.0000305175781
 20
153
 11
172.4998779296875
 21
153
  0
LINE
  8
0
  6
CONTINUOUS
 62
     7
 10
100.0000305175781
 20
156.8897094726563
 11
172.4998779296875
 21
156.8897094726563
  0
LINE
  8
0
  6
CONTINUOUS
 62
     7
 10
174.4998779296875
 20
136
 11
187.0998687744141
 21
136
  0
LINE
  8
0
  6
CENTER
 62
     7
 10
120.0000305175781
 20
178
 11
120.0000305175781
 21
162
  0
LINE
  8
0
  6
CONTINUOUS
 62
     7
 10
187.0998687744141
 20
135
 11
292.89990234375
 21
135
  0
LINE
  8
0
  6
CONTINUOUS
 62
     7
 10
187.0998687744141
 20
174.9001922607422
 11
292.89990234375
 21
174.9001922607422
  0
LINE
  8
0
  6
CONTINUOUS
 62
     7
 10
172.4998779296875
 20
152.2998046875
 11
174.4998779296875
 21
150.2998046875
  0
LINE
  8
0
  6
CENTER
 62
     7
 10
198.9998168945313
 20
145
 11
208.9998168945313
 21
145
  0
LINE
  8
0
  6
CENTER
 62
     7
 10
203.9998168945313
 20
150
 11
203.9998168945313
 21
140
  0
LINE
  8
0
  6
CONTINUOUS
 62
     7
 10
379.9997253417969
 20
156.8897094726563
 11
307.4998779296875
 21
156.8897094726563
  0
LINE
  8
0
  6
CONTINUOUS
 62
     7
 10
187.0998687744141
 20
165.0998077392578
 11
292.89990234375
 21
165.0998077392578
  0
LINE
  8
0
  6
CONTINUOUS
 62
     7
 10
379.9997253417969
 20
153
 11
307.4998779296875
 21
153
  0
LINE
  8
0
  6
CONTINUOUS
 62
     7
 10
187.0998687744141
 20
153.8995513916016
 11
292.89990234375
 21
153.8995513916016
  0
LINE
  8
0
  6
CONTINUOUS
 62
     7
 10
100.0000305175781
 20
187
 11
172.4998779296875
 21
187
  0
LINE
  8
0
  6
CONTINUOUS
 62
     7
 10
305.4998779296875
 20
136
 11
292.89990234375
 21
136
  0
LINE
  8
0
  6
CENTER
 62
     7
 10
360.0000305175781
 20
178
 11
360.0000305175781
 21
162
  0
LINE
  8
0
  6
CONTINUOUS
 62
     7
 10
303.9998779296875
 20
204
 11
303.9998779296875
 21
136
  0
LINE
  8
0
  6
CONTINUOUS
 62
     7
 10
292.89990234375
 20
205
 11
292.89990234375
 21
135
  0
LINE
  8
0
  6
CONTINUOUS
 62
     7
 10
307.4998779296875
 20
152.2998046875
 11
305.4998779296875
 21
150.2998046875
  0
LINE
  8
0
  6
CENTER
 62
     7
 10
280.9999389648438
 20
145
 11
270.9999389648438
 21
145
  0
LINE
  8
0
  6
CENTER
 62
     7
 10
275.9999389648438
 20
150
 11
275.9999389648438
 21
140
  0
LINE
  8
0
  6
CONTINUOUS
 62
     7
 10
100.0000305175781
 20
153
 11
100.0000305175781
 21
187
  0
LINE
  8
0
  6
CONTINUOUS
 62
     7
 10
100.0000305175781
 20
183.1102905273438
 11
172.4998779296875
 21
183.1102905273438
  0
LINE
  8
0
  6
CONTINUOUS
 62
     7
 10
174.4998779296875
 20
204
 11
187.0998687744141
 21
204
  0
LINE
  8
0
  6
CONTINUOUS
 62
     7
 10
187.0998687744141
 20
205
 11
292.89990234375
 21
205
  0
LINE
  8
0
  6
CONTINUOUS
 62
     7
 10
172.4998779296875
 20
152.2998046875
 11
172.4998779296875
 21
187.7001953125
  0
LINE
  8
0
  6
CONTINUOUS
 62
     7
 10
174.4998779296875
 20
136
 11
174.4998779296875
 21
204
  0
LINE
  8
0
  6
CONTINUOUS
 62
     7
 10
175.9998779296875
 20
136
 11
175.9998779296875
 21
204
  0
LINE
  8
0
  6
CONTINUOUS
 62
     7
 10
187.0998687744141
 20
135
 11
187.0998687744141
 21
205
  0
LINE
  8
0
  6
CONTINUOUS
 62
     7
 10
172.4998931884766
 20
187.7001953125
 11
174.4998931884766
 21
189.7001953125
  0
LINE
  8
0
  6
CENTER
 62
     7
 10
198.9998168945313
 20
195
 11
208.9998168945313
 21
195
  0
LINE
  8
0
  6
CENTER
 62
     7
 10
203.9998168945313
 20
190
 11
203.9998168945313
 21
200
  0
LINE
  8
0
  6
CENTER
 62
     7
 10
177.6998291015625
 20
159
 11
171.5152282714844
 21
159
  0
LINE
  8
0
  6
CONTINUOUS
 62
     7
 10
172.9998779296875
 20
161.000244140625
 11
172.9998779296875
 21
157
  0
LINE
  8
0
  6
CONTINUOUS
 62
     7
 10
379.9997253417969
 20
183.1102905273438
 11
307.4998779296875
 21
183.1102905273438
  0
LINE
  8
0
  6
CONTINUOUS
 62
     7
 10
379.9997253417969
 20
153
 11
379.9997253417969
 21
187
  0
LINE
  8
0
  6
CONTINUOUS
 62
     7
 10
379.9997253417969
 20
187
 11
307.4998779296875
 21
187
  0
LINE
  8
0
  6
CONTINUOUS
 62
     7
 10
187.0998687744141
 20
186.1004486083984
 11
292.89990234375
 21
186.1004486083984
  0
LINE
  8
0
  6
CONTINUOUS
 62
     7
 10
305.4998779296875
 20
204
 11
292.89990234375
 21
204
  0
LINE
  8
0
  6
CONTINUOUS
 62
     7
 10
307.4998779296875
 20
152.2998046875
 11
307.4998779296875
 21
187.7001953125
  0
LINE
  8
0
  6
CONTINUOUS
 62
     7
 10
305.4998779296875
 20
136
 11
305.4998779296875
 21
204
  0
LINE
  8
0
  6
CENTER
 62
     7
 10
177.6998291015625
 20
181
 11
171.5152282714844
 21
181
  0
LINE
  8
0
  6
CONTINUOUS
 62
     7
 10
172.9998779296875
 20
178.999755859375
 11
172.9998779296875
 21
183
  0
LINE
  8
0
  6
CONTINUOUS
 62
     7
 10
307.4998779296875
 20
187.7002105712891
 11
305.4998779296875
 21
189.7001953125
  0
LINE
  8
0
  6
CENTER
 62
     7
 10
280.9999389648438
 20
195
 11
270.9999389648438
 21
195
  0
LINE
  8
0
  6
CENTER
 62
     7
 10
275.9999389648438
 20
190
 11
275.9999389648438
 21
200
  0
LINE
  8
0
  6
CENTER
 62
     7
 10
302.2999267578125
 20
159
 11
308.4845275878906
 21
159
  0
LINE
  8
0
  6
CONTINUOUS
 62
     7
 10
306.9998779296875
 20
161.000244140625
 11
306.9998779296875
 21
157
  0
LINE
  8
0
  6
CENTER
 62
     7
 10
302.2999267578125
 20
181
 11
308.4845275878906
 21
181
  0
LINE
  8
0
  6
CONTINUOUS
 62
     7
 10
306.9998779296875
 20
178.999755859375
 11
306.9998779296875
 21
183
  0
LINE
  8
0
  6
CONTINUOUS
 62
     7
 10
169.1999816894531
 20
174
 11
172.4998931884766
 21
174
  0
LINE
  8
0
  6
CONTINUOUS
 62
     7
 10
170.8200073242188
 20
166
 11
172.4998931884766
 21
166
  0
LINE
  8
0
  6
CONTINUOUS
 62
     7
 10
165.1999816894531
 20
170
 11
165.1999816894531
 21
168.327880859375
  0
LINE
  8
0
  6
CONTINUOUS
 62
     7
 10
172.4998779296875
 20
174
 11
174.4998779296875
 21
174
  0
LINE
  8
0
  6
CONTINUOUS
 62
     7
 10
172.4998779296875
 20
166
 11
174.4998779296875
 21
166
  0
LINE
  8
0
  6
CENTER
 62
     7
 10
164.7517547607422
 20
158.4778900146484
 11
169.6170501708984
 21
170.2237701416016
  0
LINE
  8
0
  6
CONTINUOUS
 62
     7
 10
162.9826812744141
 20
160.4784545898438
 11
167.4172973632813
 21
158.6415710449219
  0
LINE
  8
0
  6
CONTINUOUS
 62
     7
 10
163.1844329833984
 20
163.3173522949219
 11
169.2820434570313
 21
160.7916412353516
  0
LINE
  8
0
  6
CONTINUOUS
 62
     7
 10
162.9826812744141
 20
160.4784545898438
 11
163.1844482421875
 21
163.3173522949219
  0
LINE
  8
0
  6
CONTINUOUS
 62
     7
 10
167.4172973632813
 20
158.6415557861328
 11
169.2820434570313
 21
160.7916412353516
  0
LINE
  8
0
  6
CONTINUOUS
 62
     7
 10
163.9231567382813
 20
167.0381927490234
 11
164.3378143310547
 21
168.0392608642578
  0
LINE
  8
0
  6
CONTINUOUS
 62
     7
 10
171.3907470703125
 20
163.9449920654297
 11
171.8053894042969
 21
164.9460601806641
  0
LINE
  8
0
  6
CONTINUOUS
 62
     7
 10
165.1172637939453
 20
168.3620910644531
 11
164.3378143310547
 21
168.0392303466797
  0
LINE
  8
0
  6
CONTINUOUS
 62
     7
 10
165.5604400634766
 20
165.7105865478516
 11
166.4330291748047
 21
167.8171539306641
  0
LINE
  8
0
  6
CONTINUOUS
 62
     7
 10
169.2942199707031
 20
164.1640167236328
 11
170.1667938232422
 21
166.2705841064453
  0
LINE
  8
0
  6
CONTINUOUS
 62
     7
 10
165.1172637939453
 20
168.3621673583984
 11
171.4825744628906
 21
165.7255706787109
  0
LINE
  8
0
  6
CONTINUOUS
 62
     7
 10
171.8054046630859
 20
164.9460601806641
 11
171.4825439453125
 21
165.7255096435547
  0
LINE
  8
0
  6
CONTINUOUS
 62
     7
 10
164.3147125244141
 20
164.739501953125
 11
169.4884338378906
 21
162.5964660644531
  0
LINE
  8
0
  6
CONTINUOUS
 62
     7
 10
164.1529388427734
 20
166.2935943603516
 11
170.7017669677734
 21
163.5810241699219
  0
LINE
  8
0
  6
CENTER
 62
     7
 10
200.0003356933594
 20
10.5020866394043
 11
200.0000305175781
 21
-0.9979130029678345
  0
LINE
  8
0
  6
CENTER
 62
     7
 10
280.0003356933594
 20
10.5
 11
280.0000305175781
 21
-1
  0
LINE
  8
0
  6
CENTER
 62
     7
 10
200.0000305175781
 20
178
 11
200.0000305175781
 21
162
  0
LINE
  8
0
  6
CENTER
 62
     7
 10
280.0000305175781
 20
178
 11
280.0000305175781
 21
162
  0
LINE
  8
0
  6
CONTINUOUS
 62
     7
 10
-24.43427658081055
 20
8.48779296875
 11
-24.43427658081055
 21
9.5
  0
LINE
  8
0
  6
CONTINUOUS
 62
     7
 10
-20.06523513793945
 20
8.48779296875
 11
-20.06523513793945
 21
9.5
  0
LINE
  8
0
  6
CONTINUOUS
 62
     7
 10
197.8162689208984
 20
8.48779296875
 11
197.8162689208984
 21
9.5
  0
LINE
  8
0
  6
CONTINUOUS
 62
     7
 10
202.185302734375
 20
8.48779296875
 11
202.185302734375
 21
9.5
  0
ARC
  8
0
  6
CONTINUOUS
 62
     7
 10
175.7728271484375
 20
159.855224609375
 40
2.999999999999999
 50
115.1083994406595
 51
157.5670273216149
  0
ARC
  8
0
  6
CONTINUOUS
 62
     7
 10
-20.865234375
 20
8.48779296875
 40
0.7999999523162841
 50
285.4426932088946
 51
0
  0
ARC
  8
0
  6
CONTINUOUS
 62
     7
 10
-22.25
 20
13.5
 40
6.000000000000001
 50
254.557342763284
 51
285.4426932088946
  0
ARC
  8
0
  6
CONTINUOUS
 62
     7
 10
0
 20
40
 40
3.998106002807619
 50
61.09402038976974
 51
298.9059076658729
  0
ARC
  8
0
  6
CONTINUOUS
 62
     7
 10
7.6103515625
 20
42.2900390625
 40
0.9701610803604147
 50
81.70288677623263
 51
144.6685429231259
  0
ARC
  8
0
  6
CONTINUOUS
 62
     7
 10
11
 20
40
 40
3.799999237060545
 50
232.1664527016081
 51
127.8362793740598
  0
CIRCLE
  8
0
  6
CONTINUOUS
 62
     7
 10
-11
 20
40
 40
3.799999237060547
  0
ARC
  8
0
  6
CONTINUOUS
 62
     7
 10
169.4998779296875
 20
40.00048828125
 40
3.999999999999998
 50
89.99998201391055
 51
118.4958044387709
  0
ARC
  8
0
  6
CONTINUOUS
 62
     7
 10
201.3853149414063
 20
8.48779296875
 40
0.7999999523162812
 50
285.4426932088939
 51
0
  0
ARC
  8
0
  6
CONTINUOUS
 62
     7
 10
198.6162719726563
 20
8.48779296875
 40
0.7999999523162873
 50
180.0000050089564
 51
254.557270818926
  0
ARC
  8
0
  6
CONTINUOUS
 62
     7
 10
200.0010375976563
 20
13.5
 40
5.999999999999999
 50
254.557342763284
 51
285.4426932088946
  0
ARC
  8
0
  6
CONTINUOUS
 62
     7
 10
304.2266845703125
 20
40.855224609375
 40
2.999999999999981
 50
22.43297085715247
 51
64.8916055682969
  0
ARC
  8
0
  6
CONTINUOUS
 62
     7
 10
169.4998779296875
 20
40.00048828125
 40
3.982465744018556
 50
241.5040862782025
 51
269.9999087030627
  0
ARC
  8
0
  6
CONTINUOUS
 62
     7
 10
175.7728271484375
 20
40.855224609375
 40
3
 50
115.1083584595244
 51
157.567000000858
  0
ARC
  8
0
  6
CONTINUOUS
 62
     7
 10
6.6201171875
 20
35.920166015625
 40
1.246148109436035
 50
80.76452806729958
 51
142.1250351177264
  0
ARC
  8
0
  6
CONTINUOUS
 62
     7
 10
7.6103515625
 20
37.710205078125
 40
0.9683421850204466
 50
215.3314570768741
 51
278.2972225067941
  0
ARC
  8
0
  6
CONTINUOUS
 62
     7
 10
175.7728271484375
 20
39.144775390625
 40
3.000000000000007
 50
202.4322350179548
 51
244.8913136913954
  0
ARC
  8
0
  6
CONTINUOUS
 62
     7
 10
304.2266845703125
 20
39.144775390625
 40
2.999999999999996
 50
295.1087222807832
 51
337.5677907089399
  0
ARC
  8
0
  6
CONTINUOUS
 62
     7
 10
-16.90966796875
 20
28.912109375
 40
3.299999237060548
 50
277.6916306142241
 51
352.308397617149
  0
ARC
  8
0
  6
CONTINUOUS
 62
     7
 10
0
 20
40
 40
4.000000000000003
 50
240.0000239814524
 51
241.0449882829511
  0
ARC
  8
0
  6
CONTINUOUS
 62
     7
 10
6.6201171875
 20
44.080078125
 40
1.254199028015138
 50
217.8749648822736
 51
279.2353626496737
  0
ARC
  8
0
  6
CONTINUOUS
 62
     7
 10
-16.90966796875
 20
19.089111328125
 40
3.299999237060548
 50
7.469515366893473
 51
82.53043249607138
  0
ARC
  8
0
  6
CONTINUOUS
 62
     7
 10
-23.63427734375
 20
8.48779296875
 40
0.7999999523162837
 50
180.0000050089564
 51
254.5573254604399
  0
ARC
  8
0
  6
CONTINUOUS
 62
     7
 10
16.91015625
 20
28.912109375
 40
3.299999237060546
 50
187.6916486003134
 51
262.3084053579546
  0
ARC
  8
0
  6
CONTINUOUS
 62
     7
 10
16.91015625
 20
19.089111328125
 40
3.299999237060549
 50
97.46947689023656
 51
172.5304691514954
  0
ARC
  8
0
  6
CONTINUOUS
 62
     7
 10
304.2269287109375
 20
181.855224609375
 40
2.999999999999985
 50
22.43220929106006
 51
64.89127771921679
  0
CIRCLE
  8
0
  6
CONTINUOUS
 62
     7
 10
120.0000305175781
 20
170
 40
4.5
  0
CIRCLE
  8
0
  6
CONTINUOUS
 62
     7
 10
120.0000305175781
 20
170
 40
7
  0
ARC
  8
0
  6
CONTINUOUS
 62
     7
 10
304.2269287109375
 20
180.144775390625
 40
3.00000000000001
 50
295.108394431703
 51
337.5670291428474
  0
ARC
  8
0
  6
CONTINUOUS
 62
     7
 10
304.2269287109375
 20
159.855224609375
 40
2.999999999999984
 50
22.43297085715259
 51
64.891605568297
  0
CIRCLE
  8
0
  6
CONTINUOUS
 62
     7
 10
203.9998168945313
 20
145
 40
3.39990234375
  0
CIRCLE
  8
0
  6
CONTINUOUS
 62
     7
 10
203.9998168945313
 20
145
 40
4
  0
ARC
  8
0
  6
CONTINUOUS
 62
     7
 10
175.7728271484375
 20
180.144775390625
 40
3.000000000000005
 50
202.4329726783851
 51
244.8916005593405
  0
ARC
  8
0
  6
CONTINUOUS
 62
     7
 10
175.7728271484375
 20
181.855224609375
 40
3.00000000000001
 50
115.1087272897397
 51
157.567792302802
  0
ARC
  8
0
  6
CONTINUOUS
 62
     7
 10
175.7728271484375
 20
158.144775390625
 40
2.999999999999998
 50
202.432207697198
 51
244.8912727102603
  0
ARC
  8
0
  6
CONTINUOUS
 62
     7
 10
304.2269287109375
 20
158.144775390625
 40
2.999999999999996
 50
295.1087222807832
 51
337.5677907089399
  0
ARC
  8
0
  6
CONTINUOUS
 62
     7
 10
166.2332458496094
 20
162.0544738769531
 40
3.299999237060546
 50
131.5803705110077
 51
157.4999548639651
  0
ARC
  8
0
  6
CONTINUOUS
 62
     7
 10
166.2332458496094
 20
162.0544738769531
 40
3.299999237060545
 50
337.5000181569009
 51
3.419602296415186
  0
ARC
  8
0
  6
CONTINUOUS
 62
     7
 10
158.31689453125
 20
164.9005737304688
 40
6.00000000000001
 50
2.43365082934552
 51
20.87173987704925
  0
ARC
  8
0
  6
CONTINUOUS
 62
     7
 10
173.8434143066406
 20
158.4692687988281
 40
6.000000000000011
 50
114.1278165022775
 51
132.5663219780772
  0
ARC
  8
0
  6
CONTINUOUS
 62
     7
 10
163.5121765136719
 20
165.1213684082031
 40
0.7999999523162822
 50
311.5798327472963
 51
2.433049772698627
  0
ARC
  8
0
  6
CONTINUOUS
 62
     7
 10
170.325927734375
 20
162.2990264892578
 40
0.7999999523162747
 50
132.5669776762372
 51
183.4201402735692
  0
ARC
  8
0
  6
CONTINUOUS
 62
     7
 10
169.1999816894531
 20
170
 40
3.999999999999998
 50
89.99998201391055
 51
180.0000186693345
  0
POLYLINE
  8
0
  6
CONTINUOUS
 62
     7
 66
     1
 10
0
 20
0
 70
     1
  0
VERTEX
  8
0
  6
CONTINUOUS
 62
     7
 10
10.52001953125
 20
42.5
 42
0.2551566137277048
  0
VERTEX
  8
0
  6
CONTINUOUS
 62
     7
 10
9.990205674314179
 20
42.07511349048475
 42
0.06319184808347887
  0
VERTEX
  8
0
  6
CONTINUOUS
 62
     7
 10
9.736104838058644
 20
41.41222741267583
 42
0.03518713516923939
  0
VERTEX
  8
0
  6
CONTINUOUS
 62
     7
 10
9.609371129528837
 20
40.7121768240095
 42
0.02798625856828019
  0
VERTEX
  8
0
  6
CONTINUOUS
 62
     7
 10
9.57000732421875
 20
40
 42
0.02790040059227221
  0
VERTEX
  8
0
  6
CONTINUOUS
 62
     7
 10
9.609142517151517
 20
39.28985101160738
 42
0.0351609289634917
  0
VERTEX
  8
0
  6
CONTINUOUS
 62
     7
 10
9.735640502921406
 20
38.58955968778344
 42
0.06315616204946971
  0
VERTEX
  8
0
  6
CONTINUOUS
 62
     7
 10
9.989678290079871
 20
37.92582004250461
 42
0.2552818022052672
  0
VERTEX
  8
0
  6
CONTINUOUS
 62
     7
 10
10.52001953125
 20
37.5
 42
0.2551566976104018
  0
VERTEX
  8
0
  6
CONTINUOUS
 62
     7
 10
11.04983378351935
 20
37.92488604549795
 42
0.06319199013698021
  0
VERTEX
  8
0
  6
CONTINUOUS
 62
     7
 10
11.30393474807534
 20
38.58777206812076
 42
0.03518721347880377
  0
VERTEX
  8
0
  6
CONTINUOUS
 62
     7
 10
11.43066830486306
 20
39.28782268439076
 42
0.0279863564129045
  0
VERTEX
  8
0
  6
CONTINUOUS
 62
     7
 10
11.47003173828125
 20
40
 42
0.02790041089262253
  0
VERTEX
  8
0
  6
CONTINUOUS
 62
     7
 10
11.43089708946414
 20
40.71014904258079
 42
0.03516100973359029
  0
VERTEX
  8
0
  6
CONTINUOUS
 62
     7
 10
11.30439951521788
 20
41.4104404396027
 42
0.06315635754977027
  0
VERTEX
  8
0
  6
CONTINUOUS
 62
     7
 10
11.05036177095656
 20
42.07418008907276
 42
0.2552819324672895
  0
SEQEND
  8
0
  0
POLYLINE
  8
0
  6
CONTINUOUS
 62
     7
 66
     1
 10
0
 20
0
  0
VERTEX
  8
0
  6
CONTINUOUS
 62
     7
 10
6.8203125
 20
42.84999084472656
 42
0.1885761701784839
  0
VERTEX
  8
0
  6
CONTINUOUS
 62
     7
 10
6.460583877310487
 20
42.69030220385707
 42
0.07574505642910592
  0
VERTEX
  8
0
  6
CONTINUOUS
 62
     7
 10
6.216352327588641
 20
42.37246553074997
 42
0.03933581420680431
  0
VERTEX
  8
0
  6
CONTINUOUS
 62
     7
 10
6.046493764742347
 20
42.00713227280566
 42
0.02577098992902224
  0
VERTEX
  8
0
  6
CONTINUOUS
 62
     7
 10
5.924342065359582
 20
41.62298242165704
 42
0.01950489401944227
  0
VERTEX
  8
0
  6
CONTINUOUS
 62
     7
 10
5.836853602578851
 20
41.22877177171313
 42
0.01621424382658715
  0
VERTEX
  8
0
  6
CONTINUOUS
 62
     7
 10
5.777495136864594
 20
40.82918214089805
 42
0.0144661215845724
  0
VERTEX
  8
0
  6
CONTINUOUS
 62
     7
 10
5.742628491260557
 20
40.42665895348822
 42
0.01369078631786752
  0
VERTEX
  8
0
  6
CONTINUOUS
 62
     7
 10
5.730380625954008
 20
40.02251635534439
 42
0.01360351970307701
  0
VERTEX
  8
0
  6
CONTINUOUS
 62
     7
 10
5.740096280351721
 20
39.61967271257175
 42
0.01431408262836043
  0
VERTEX
  8
0
  6
CONTINUOUS
 62
     7
 10
5.772243357841266
 20
39.21742269159694
 42
0.01598079838716653
  0
VERTEX
  8
0
  6
CONTINUOUS
 62
     7
 10
5.828749890320045
 20
38.81660563085376
 42
0.01902580324098792
  0
VERTEX
  8
0
  6
CONTINUOUS
 62
     7
 10
5.912805534023152
 20
38.42145259461881
 42
0.02487895685903705
  0
VERTEX
  8
0
  6
CONTINUOUS
 62
     7
 10
6.030813851448658
 20
38.03505594714915
 42
0.03729565644220002
  0
VERTEX
  8
0
  6
CONTINUOUS
 62
     7
 10
6.194880618680151
 20
37.66587060117794
 42
0.06998370022276498
  0
VERTEX
  8
0
  6
CONTINUOUS
 62
     7
 10
6.430458554449582
 20
37.33853659246802
 42
0.1738262186464654
  0
VERTEX
  8
0
  6
CONTINUOUS
 62
     7
 10
6.780222604905092
 20
37.15193692770823
 42
0
  0
SEQEND
  8
0
  0
POLYLINE
  8
0
  6
CONTINUOUS
 62
     7
 66
     1
 10
0
 20
0
 70
     1
  0
VERTEX
  8
0
  6
CONTINUOUS
 62
     7
 10
165.1995620727539
 20
42.50048828125
 42
0.1103780760396511
  0
VERTEX
  8
0
  6
CONTINUOUS
 62
     7
 10
164.2874038353894
 20
42.29547128360247
 42
0.1025062663820893
  0
VERTEX
  8
0
  6
CONTINUOUS
 62
     7
 10
163.5400691946728
 20
41.73146206442959
 42
0.09328995013828384
  0
VERTEX
  8
0
  6
CONTINUOUS
 62
     7
 10
163.0624641295036
 20
40.92456841359014
 42
0.08782039412037608
  0
VERTEX
  8
0
  6
CONTINUOUS
 62
     7
 10
162.8995742797852
 20
40.00047302246094
 42
0.08777445367438218
  0
VERTEX
  8
0
  6
CONTINUOUS
 62
     7
 10
163.0623060564394
 20
39.07685480372474
 42
0.09326040117968032
  0
VERTEX
  8
0
  6
CONTINUOUS
 62
     7
 10
163.5396110947112
 20
38.27005205093702
 42
0.1026287797597772
  0
VERTEX
  8
0
  6
CONTINUOUS
 62
     7
 10
164.2878209795933
 20
37.70532243328269
 42
0.1103319970223698
  0
VERTEX
  8
0
  6
CONTINUOUS
 62
     7
 10
165.1996231079102
 20
37.50048828125
 42
0.1103781896312852
  0
VERTEX
  8
0
  6
CONTINUOUS
 62
     7
 10
166.1117812698535
 20
37.70550555775392
 42
0.1025061713210805
  0
VERTEX
  8
0
  6
CONTINUOUS
 62
     7
 10
166.8591157475313
 20
38.26951501463966
 42
0.09328985679415219
  0
VERTEX
  8
0
  6
CONTINUOUS
 62
     7
 10
167.3367209209063
 20
39.07640862305569
 42
0.08782045711741694
  0
VERTEX
  8
0
  6
CONTINUOUS
 62
     7
 10
167.4996109008789
 20
40.00050354003906
 42
0.08777250441295334
  0
VERTEX
  8
0
  6
CONTINUOUS
 62
     7
 10
167.3368832281061
 20
40.92412276804752
 42
0.09326073550581006
  0
VERTEX
  8
0
  6
CONTINUOUS
 62
     7
 10
166.8595844729574
 20
41.73092927732398
 42
0.1026311034486167
  0
VERTEX
  8
0
  6
CONTINUOUS
 62
     7
 10
166.1113760982468
 20
42.29566039231814
 42
0.1103314199982175
  0
SEQEND
  8
0
  0
POLYLINE
  8
0
  6
CONTINUOUS
 62
     7
 66
     1
 10
0
 20
0
  0
VERTEX
  8
0
  6
CONTINUOUS
 62
     7
 10
166.299690246582
 20
43.25048828125
 42
0.0143492152885996
  0
VERTEX
  8
0
  6
CONTINUOUS
 62
     7
 10
166.1408093430134
 20
43.2459272929494
 42
0.0142605591382876
  0
VERTEX
  8
0
  6
CONTINUOUS
 62
     7
 10
165.9831984355564
 20
43.23235196269298
 42
0.01417567678615398
  0
VERTEX
  8
0
  6
CONTINUOUS
 62
     7
 10
165.8270995230801
 20
43.209909324945
 42
0.01415086943694691
  0
VERTEX
  8
0
  6
CONTINUOUS
 62
     7
 10
165.6721375011623
 20
43.17858609756691
 42
0.01410158195061921
  0
VERTEX
  8
0
  6
CONTINUOUS
 62
     7
 10
165.5188756393171
 20
43.13847856196578
 42
0.01402957867565116
  0
VERTEX
  8
0
  6
CONTINUOUS
 62
     7
 10
165.3678589234256
 20
43.08973453929772
 42
0.01393699879322875
  0
VERTEX
  8
0
  6
CONTINUOUS
 62
     7
 10
165.2196085760333
 20
43.03254917728508
 42
0.01382627923515262
  0
VERTEX
  8
0
  6
CONTINUOUS
 62
     7
 10
165.0746174365144
 20
42.96715996003945
 42
0.01370006997313848
  0
VERTEX
  8
0
  6
CONTINUOUS
 62
     7
 10
164.9333463184353
 20
42.89384115842037
 42
0.01356114739127845
  0
VERTEX
  8
0
  6
CONTINUOUS
 62
     7
 10
164.7962214080748
 20
42.81289795514237
 42
0.01332237590263076
  0
VERTEX
  8
0
  6
CONTINUOUS
 62
     7
 10
164.664511529141
 20
42.72527966383967
 42
0.01328780480708405
  0
VERTEX
  8
0
  6
CONTINUOUS
 62
     7
 10
164.5364907481183
 20
42.62991660429158
 42
0.01315487352243118
  0
VERTEX
  8
0
  6
CONTINUOUS
 62
     7
 10
164.4134385101508
 20
42.52771128374992
 42
0.01293833887293376
  0
VERTEX
  8
0
  6
CONTINUOUS
 62
     7
 10
164.2963942378879
 20
42.4196969330969
 42
0.01278034646520608
  0
VERTEX
  8
0
  6
CONTINUOUS
 62
     7
 10
164.1850578249655
 20
42.30580793502333
 42
0.01262533503909115
  0
VERTEX
  8
0
  6
CONTINUOUS
 62
     7
 10
164.0796483912045
 20
42.18641086011099
 42
0
  0
SEQEND
  8
0
  0
POLYLINE
  8
0
  6
CONTINUOUS
 62
     7
 66
     1
 10
0
 20
0
  0
VERTEX
  8
0
  6
CONTINUOUS
 62
     7
 10
164.0756217390359
 20
37.81937483107533
 42
0.06283202204708867
  0
VERTEX
  8
0
  6
CONTINUOUS
 62
     7
 10
164.6399205375238
 20
37.29320273759311
 42
0.06649701805992285
  0
VERTEX
  8
0
  6
CONTINUOUS
 62
     7
 10
165.3199208946417
 20
36.92869814247145
 42
0.06915554073517112
  0
VERTEX
  8
0
  6
CONTINUOUS
 62
     7
 10
166.0722755263057
 20
36.75983960541084
 42
0.06975299037179934
  0
VERTEX
  8
0
  6
CONTINUOUS
 62
     7
 10
166.841030360351
 20
36.80383785981405
 42
0.0681634833991778
  0
VERTEX
  8
0
  6
CONTINUOUS
 62
     7
 10
167.5688736573821
 20
37.05565986146395
 42
0.06499581023104945
  0
VERTEX
  8
0
  6
CONTINUOUS
 62
     7
 10
168.205439168426
 20
37.49049151444478
 42
0.06129079996895176
  0
VERTEX
  8
0
  6
CONTINUOUS
 62
     7
 10
168.713496607978
 20
38.07059251523128
 42
0.05807953770544116
  0
VERTEX
  8
0
  6
CONTINUOUS
 62
     7
 10
169.0704938946157
 20
38.7545863480029
 42
0.05590537278304373
  0
VERTEX
  8
0
  6
CONTINUOUS
 62
     7
 10
169.2641528936973
 20
39.50173018441924
 42
0.05496382197567749
  0
VERTEX
  8
0
  6
CONTINUOUS
 62
     7
 10
169.2891679476077
 20
40.27245266100396
 42
0.05547382969056706
  0
VERTEX
  8
0
  6
CONTINUOUS
 62
     7
 10
169.1450891570261
 20
41.03034194859437
 42
0.05728038969595065
  0
VERTEX
  8
0
  6
CONTINUOUS
 62
     7
 10
168.8356798285551
 20
41.73678372086859
 42
0.06026827446495787
  0
VERTEX
  8
0
  6
CONTINUOUS
 62
     7
 10
168.3704411654579
 20
42.35209294879173
 42
0.06395241978255534
  0
VERTEX
  8
0
  6
CONTINUOUS
 62
     7
 10
167.7682349770369
 20
42.8344717342031
 42
0.06744493795933429
  0
VERTEX
  8
0
  6
CONTINUOUS
 62
     7
 10
167.0615778395312
 20
43.14393392868908
 42
0.06944157982970341
  0
VERTEX
  8
0
  6
CONTINUOUS
 62
     7
 10
166.299690246582
 20
43.25048828125
 42
0
  0
SEQEND
  8
0
  0
TEXT
  8
0
  6
CONTINUOUS
 62
     7
 10
-1.285500049591065
 20
-21.79999995231628
 40
3.599999904632568
 41
1.007125066575079
  1
HSR35LR
  0
ENDSEC
  0
EOF
