  0
SECTION
  2
HEADER
  0
ENDSEC
  0
SECTION
  2
TABLES
  0
TABLE
  2
LTYPE
 70
    22
  0
LTYPE
  2
CONTINUOUS
 70
    64
  3
Solid line
 72
    65
 73
     0
 40
0.000000
  0
LTYPE
  2
DASHED
 70
    64
  3
__ __ __ __ __ __ __ __ __ __ __ __ __ __ __
 72
    65
 73
     2
 40
3.500000
 49
2.000000
 49
-1.500000
  0
LTYPE
  2
CENTER
 70
    64
  3
____ _ ____ _ ____ _ ____ _ ____ _ ____ _ ____
 72
    65
 73
     4
 40
17.500000
 49
13.000000
 49
-1.500000
 49
1.500000
 49
-1.500000
  0
LTYPE
  2
PHANTOM
 70
    64
  3
_____ _ _ _____ _ _ _____ _ _ _____ _ _ ____  
 72
    65
 73
     6
 40
15.500000
 49
8.000000
 49
-1.500000
 49
1.500000
 49
-1.500000
 49
1.500000
 49
-1.500000
  0
LTYPE
  2
DOT
 70
    64
  3
. . . . . . . . . . . . . . . . . . . . . . . .
 72
    65
 73
     2
 40
0.25
 49
0.0
 49
-0.25
  0
ENDTAB
  0
TABLE
  2
LAYER
 70
     1
  0
LAYER
  2
0
 70
     0
 62
     7
  6
CONTINUOUS
  0
ENDTAB
  0
TABLE
  2
STYLE
 70
     1
  0
STYLE
  2
STANDARD
 70
     0
 40
0.000000
 41
1.000000
 50
0.000000
 71
     0
 42
0.200000
  3
txt
  4
BIGFONT
  0
ENDTAB
  0
TABLE
  2
VIEW
 70
     0
  0
ENDTAB
  0
ENDSEC
  0
SECTION
  2
BLOCKS
  0
ENDSEC
  0
SECTION
  2
ENTITIES
  0
LINE
  8
0
  6
CONTINUOUS
 62
     7
 10
34
 20
43.999755859375
 11
34
 21
11.5
  0
LINE
  8
0
  6
CONTINUOUS
 62
     7
 10
0
 20
46
 11
32
 21
46
  0
LINE
  8
0
  6
CONTINUOUS
 62
     7
 10
32.00030517578125
 20
45.99962997436523
 11
34.00008773803711
 21
43.99984359741211
  0
LINE
  8
0
  6
CONTINUOUS
 62
     7
 10
34.00058364868164
 20
11.49991226196289
 11
32.0006217956543
 21
9.499953269958496
  0
LINE
  8
0
  6
CONTINUOUS
 62
     7
 10
17.00015640258789
 20
1.499915838241577
 11
15.50014400482178
 21
-9.634772140998393E-005
  0
LINE
  8
0
  6
CONTINUOUS
 62
     7
 10
199.7996978759766
 20
46.39937973022461
 11
201.399658203125
 21
47.99935150146484
  0
LINE
  8
0
  6
CONTINUOUS
 62
     7
 10
-8.25
 20
0.5
 11
-3.75
 21
0.5
  0
LINE
  8
0
  6
CONTINUOUS
 62
     7
 10
-3.24951171875
 20
0
 11
3.25
 21
0
  0
LINE
  8
0
  6
CONTINUOUS
 62
     7
 10
-48.599609375
 20
48
 11
-29.7998046875
 21
48
  0
LINE
  8
0
  6
CONTINUOUS
 62
     7
 10
189.800048828125
 20
47
 11
188.7995910644531
 21
45.99954986572266
  0
LINE
  8
0
  6
CONTINUOUS
 62
     7
 10
188.80029296875
 20
9.39990234375
 11
199.80029296875
 21
9.39990234375
  0
LINE
  8
0
  6
CONTINUOUS
 62
     7
 10
189.800048828125
 20
47
 11
199.80029296875
 21
47
  0
LINE
  8
0
  6
CONTINUOUS
 62
     7
 10
184.0002899169922
 20
9.5
 11
188.80029296875
 21
9.5
  0
LINE
  8
0
  6
CONTINUOUS
 62
     7
 10
184.0002899169922
 20
46
 11
188.80029296875
 21
46
  0
LINE
  8
0
  6
CONTINUOUS
 62
     7
 10
295.9999389648438
 20
29
 11
380
 21
29
  0
LINE
  8
0
  6
CONTINUOUS
 62
     7
 10
100
 20
29
 11
184.0002899169922
 21
29
  0
LINE
  8
0
  6
CONTINUOUS
 62
     7
 10
188.80029296875
 20
46
 11
188.80029296875
 21
9.39990234375
  0
LINE
  8
0
  6
CONTINUOUS
 62
     7
 10
187.30029296875
 20
46
 11
187.30029296875
 21
9.5
  0
LINE
  8
0
  6
CONTINUOUS
 62
     7
 10
199.80029296875
 20
9.5
 11
199.80029296875
 21
47
  0
LINE
  8
0
  6
CONTINUOUS
 62
     7
 10
-17
 20
25.10986328125
 11
-17
 21
22.8798828125
  0
LINE
  8
0
  6
CONTINUOUS
 62
     7
 10
17
 20
25.10986328125
 11
17
 21
22.8798828125
  0
LINE
  8
0
  6
CONTINUOUS
 62
     7
 10
15.5
 20
0
 11
8.75
 21
0
  0
LINE
  8
0
  6
CONTINUOUS
 62
     7
 10
100
 20
0
 11
380
 21
0
  0
LINE
  8
0
  6
CONTINUOUS
 62
     7
 10
181.5002899169922
 20
36.00001525878906
 11
184.0002899169922
 21
36.00001525878906
  0
LINE
  8
0
  6
CONTINUOUS
 62
     7
 10
184.1000823974609
 20
40.0001335144043
 11
182.6001892089844
 21
43.49988555908203
  0
LINE
  8
0
  6
CONTINUOUS
 62
     7
 10
183.1998443603516
 20
40.00016021728516
 11
181.5999450683594
 21
43.49994659423828
  0
LINE
  8
0
  6
CONTINUOUS
 62
     7
 10
-16.99972915649414
 20
6.999692440032959
 11
-11.79966354370117
 21
12.19975852966309
  0
LINE
  8
0
  6
CONTINUOUS
 62
     7
 10
11.80045700073242
 20
17.67974853515625
 11
13.63831329345703
 21
19.51760482788086
  0
LINE
  8
0
  6
CONTINUOUS
 62
     7
 10
-16.99972915649414
 20
25.1096363067627
 11
-16.468017578125
 21
25.64134788513184
  0
LINE
  8
0
  6
CONTINUOUS
 62
     7
 10
17
 20
6.999755859375
 11
17
 21
1.5
  0
LINE
  8
0
  6
CONTINUOUS
 62
     7
 10
-17
 20
6.999755859375
 11
-17
 21
1.5
  0
LINE
  8
0
  6
CONTINUOUS
 62
     7
 10
-16.99959945678711
 20
1.499797105789185
 11
-15.49975967407227
 21
-4.239968984620646E-005
  0
LINE
  8
0
  6
CONTINUOUS
 62
     7
 10
11.80029296875
 20
17.679931640625
 11
11.80029296875
 21
12.199951171875
  0
LINE
  8
0
  6
CONTINUOUS
 62
     7
 10
-13.10986328125
 20
29
 11
13.1103515625
 21
29
  0
LINE
  8
0
  6
CONTINUOUS
 62
     7
 10
-11.7998046875
 20
17.679931640625
 11
-11.7998046875
 21
12.199951171875
  0
LINE
  8
0
  6
CONTINUOUS
 62
     7
 10
11.80052185058594
 20
12.19964981079102
 11
17.00024223327637
 21
6.999929428100586
  0
LINE
  8
0
  6
CONTINUOUS
 62
     7
 10
-16.99940490722656
 20
22.87962150573731
 11
-16.48046875
 21
22.36068534851074
  0
LINE
  8
0
  6
CONTINUOUS
 62
     7
 10
13.11044311523438
 20
28.99971580505371
 11
13.64008235931397
 21
28.47007560729981
  0
LINE
  8
0
  6
CONTINUOUS
 62
     7
 10
-37.64842987060547
 20
24.52085113525391
 11
-35.43692398071289
 21
11.97876739501953
  0
LINE
  8
0
  6
CONTINUOUS
 62
     7
 10
-50
 20
46.599853515625
 11
-50
 21
35
  0
LINE
  8
0
  6
CONTINUOUS
 62
     7
 10
40.60302734375
 20
27
 11
46
 21
27
  0
LINE
  8
0
  6
CONTINUOUS
 62
     7
 10
49
 20
33.267822265625
 11
49
 21
30
  0
LINE
  8
0
  6
CONTINUOUS
 62
     7
 10
-48.59930801391602
 20
47.99990463256836
 11
-49.99935531616211
 21
46.59983825683594
  0
LINE
  8
0
  6
CONTINUOUS
 62
     7
 10
50
 20
46.7998046875
 11
50
 21
35
  0
LINE
  8
0
  6
CONTINUOUS
 62
     7
 10
48.80044174194336
 20
47.99995803833008
 11
50.00058746337891
 21
46.79980850219727
  0
LINE
  8
0
  6
CONTINUOUS
 62
     7
 10
-49
 20
33.267822265625
 11
-49
 21
30
  0
LINE
  8
0
  6
CONTINUOUS
 62
     7
 10
16.48141479492188
 20
22.3607063293457
 11
17.00035095214844
 21
22.87964248657227
  0
LINE
  8
0
  6
CONTINUOUS
 62
     7
 10
-13.63924503326416
 20
28.47011947631836
 11
-13.10960578918457
 21
28.99975967407227
  0
LINE
  8
0
  6
CONTINUOUS
 62
     7
 10
16.46850967407227
 20
25.64164924621582
 11
17.00022125244141
 21
25.10993766784668
  0
LINE
  8
0
  6
CONTINUOUS
 62
     7
 10
-13.63754081726074
 20
19.51775741577148
 11
-11.79972743988037
 21
17.67994499206543
  0
LINE
  8
0
  6
CONTINUOUS
 62
     7
 10
3.250136613845825
 20
-0.0002071939088637009
 11
3.750255823135376
 21
0.4999120235443115
  0
LINE
  8
0
  6
CONTINUOUS
 62
     7
 10
3.75
 20
0.5
 11
8.2451171875
 21
0.5
  0
LINE
  8
0
  6
CONTINUOUS
 62
     7
 10
-8.749444961547852
 20
-0.0003796587989199907
 11
-8.24949836730957
 21
0.4995669424533844
  0
LINE
  8
0
  6
CENTER
 62
     7
 10
-5
 20
40
 11
15.774658203125
 21
40
  0
LINE
  8
0
  6
CONTINUOUS
 62
     7
 10
-3.749827861785889
 20
0.4998041391372681
 11
-3.24983811378479
 21
-0.0001856147137004882
  0
LINE
  8
0
  6
CONTINUOUS
 62
     7
 10
-8.749065399169922
 20
0
 11
-15.49951171875
 21
0
  0
LINE
  8
0
  6
CONTINUOUS
 62
     7
 10
8.245480537414551
 20
0.4997611343860626
 11
8.745427131652832
 21
-0.0001854461297625676
  0
LINE
  8
0
  6
CONTINUOUS
 62
     7
 10
-28.99958229064941
 20
47.19961547851563
 11
-29.7995662689209
 21
47.99959945678711
  0
LINE
  8
0
  6
CONTINUOUS
 62
     7
 10
29.80029296875
 20
48
 11
48.80029296875
 21
48
  0
LINE
  8
0
  6
CONTINUOUS
 62
     7
 10
-11.19970703125
 20
48
 11
11.2001953125
 21
48
  0
LINE
  8
0
  6
CONTINUOUS
 62
     7
 10
-29
 20
47.199951171875
 11
-12
 21
47.199951171875
  0
LINE
  8
0
  6
CONTINUOUS
 62
     7
 10
12
 20
47.199951171875
 11
29
 21
47.199951171875
  0
LINE
  8
0
  6
CONTINUOUS
 62
     7
 10
12.00045776367188
 20
47.19933700561523
 11
11.20047092437744
 21
47.99931716918945
  0
LINE
  8
0
  6
CONTINUOUS
 62
     7
 10
29.00018119812012
 20
47.20001602172852
 11
29.8001651763916
 21
48
  0
LINE
  8
0
  6
CONTINUOUS
 62
     7
 10
-11.99944877624512
 20
47.19982528686523
 11
-11.19946193695068
 21
47.99980545043945
  0
LINE
  8
0
  6
CONTINUOUS
 62
     7
 10
1.7802734375
 20
43.5
 11
5.8603515625
 21
43.5
  0
LINE
  8
0
  6
CONTINUOUS
 62
     7
 10
3.440301418304443
 20
39.99973678588867
 11
4.090304374694824
 21
43.49970245361328
  0
LINE
  8
0
  6
CONTINUOUS
 62
     7
 10
3.440254211425781
 20
39.99962997436523
 11
4.090257167816162
 21
36.49966430664063
  0
LINE
  8
0
  6
CONTINUOUS
 62
     7
 10
1.130534648895264
 20
39.99970626831055
 11
1.78052294254303
 21
43.49967956542969
  0
LINE
  8
0
  6
CONTINUOUS
 62
     7
 10
1.7802734375
 20
36.5
 11
5.8603515625
 21
36.5
  0
LINE
  8
0
  6
CONTINUOUS
 62
     7
 10
1.130119204521179
 20
39.99985504150391
 11
1.780152082443237
 21
36.4996452331543
  0
LINE
  8
0
  6
CONTINUOUS
 62
     7
 10
5.950210571289063
 20
36.96973037719727
 11
5.860204219818115
 21
36.499755859375
  0
LINE
  8
0
  6
CONTINUOUS
 62
     7
 10
-0.000242398280533962
 20
44.61879348754883
 11
1.93816602230072
 21
43.49965286254883
  0
LINE
  8
0
  6
CONTINUOUS
 62
     7
 10
0.0008134606759995222
 20
35.38036346435547
 11
1.94799017906189
 21
36.49944686889648
  0
LINE
  8
0
  6
CONTINUOUS
 62
     7
 10
7.750423431396484
 20
43.24974060058594
 11
10.52031803131104
 21
42.49977111816406
  0
LINE
  8
0
  6
CONTINUOUS
 62
     7
 10
5.950283050537109
 20
43.01971817016602
 11
5.860244274139404
 21
43.49987411499023
  0
LINE
  8
0
  6
CONTINUOUS
 62
     7
 10
7.766130924224854
 20
36.75419616699219
 11
10.52000045776367
 21
37.49982833862305
  0
LINE
  8
0
  6
CENTER
 62
     7
 10
-22.25
 20
10.53271484375
 11
-22.25
 21
6.76605224609375
  0
LINE
  8
0
  6
CONTINUOUS
 62
     7
 10
-32.2177734375
 20
9.5
 11
-14.49951171875
 21
9.5
  0
LINE
  8
0
  6
DASHED
 62
     7
 10
-40.6025390625
 20
27
 11
-35.5
 21
27
  0
LINE
  8
0
  6
DASHED
 62
     7
 10
-35.5
 20
27
 11
-35.5
 21
12.33650207519531
  0
LINE
  8
0
  6
CONTINUOUS
 62
     7
 10
-46
 20
27
 11
-40.6025390625
 21
27
  0
LINE
  8
0
  6
CENTER
 62
     7
 10
-41
 20
26
 11
-41
 21
49
  0
LINE
  8
0
  6
CONTINUOUS
 62
     7
 10
14.5
 20
9.5
 11
32.48291015625
 21
9.5
  0
LINE
  8
0
  6
CONTINUOUS
 62
     7
 10
-3.999650716781616
 20
42.30981826782227
 11
-0.0002033270138781518
 21
44.61890029907227
  0
LINE
  8
0
  6
CONTINUOUS
 62
     7
 10
-3.999818325042725
 20
37.69034576416016
 11
0.0004749862127937377
 21
35.38077545166016
  0
LINE
  8
0
  6
CONTINUOUS
 62
     7
 10
-4
 20
42.309814453125
 11
-4
 21
37.6904296875
  0
LINE
  8
0
  6
CENTER
 62
     7
 10
22.25
 20
6.93212890625
 11
22.25
 21
10.53271484375
  0
LINE
  8
0
  6
CENTER
 62
     7
 10
0
 20
49
 11
0
 21
-1
  0
LINE
  8
0
  6
DASHED
 62
     7
 10
-7
 20
29
 11
-7
 21
17
  0
LINE
  8
0
  6
DASHED
 62
     7
 10
7
 20
29
 11
7
 21
17
  0
LINE
  8
0
  6
DASHED
 62
     7
 10
-4.5
 20
17
 11
-4.5
 21
0.5
  0
LINE
  8
0
  6
DASHED
 62
     7
 10
4.5
 20
17
 11
4.5
 21
0.5
  0
LINE
  8
0
  6
DASHED
 62
     7
 10
-7
 20
17
 11
7
 21
17
  0
LINE
  8
0
  6
DASHED
 62
     7
 10
-36
 20
48
 11
-36
 21
27
  0
LINE
  8
0
  6
DASHED
 62
     7
 10
-46
 20
48
 11
-46
 21
27
  0
LINE
  8
0
  6
DASHED
 62
     7
 10
-36.75
 20
48
 11
-36.75
 21
27
  0
LINE
  8
0
  6
DASHED
 62
     7
 10
-45.25
 20
48
 11
-45.25
 21
27
  0
LINE
  8
0
  6
CONTINUOUS
 62
     7
 10
35.43708038330078
 20
11.9787769317627
 11
37.64855194091797
 21
24.52065849304199
  0
LINE
  8
0
  6
CENTER
 62
     7
 10
-16
 20
40
 11
-6
 21
40
  0
LINE
  8
0
  6
CENTER
 62
     7
 10
-11
 20
45
 11
-11
 21
35
  0
LINE
  8
0
  6
CENTER
 62
     7
 10
11
 20
35
 11
11
 21
45
  0
LINE
  8
0
  6
CONTINUOUS
 62
     7
 10
201.400390625
 20
48
 11
278.599853515625
 21
48
  0
LINE
  8
0
  6
CONTINUOUS
 62
     7
 10
199.80029296875
 20
27
 11
280.199951171875
 21
27
  0
LINE
  8
0
  6
CONTINUOUS
 62
     7
 10
199.80029296875
 20
9.5
 11
280.199951171875
 21
9.5
  0
LINE
  8
0
  6
CONTINUOUS
 62
     7
 10
280.199951171875
 20
47
 11
280.199951171875
 21
9.5
  0
LINE
  8
0
  6
CONTINUOUS
 62
     7
 10
278.6002502441406
 20
47.99927139282227
 11
280.2002258300781
 21
46.39929962158203
  0
LINE
  8
0
  6
CENTER
 62
     7
 10
270
 20
6.93212890625
 11
270
 21
10.53271484375
  0
LINE
  8
0
  6
CONTINUOUS
 62
     7
 10
291.199951171875
 20
9.39990234375
 11
291.199951171875
 21
46
  0
LINE
  8
0
  6
CONTINUOUS
 62
     7
 10
292.699951171875
 20
9.5
 11
292.699951171875
 21
46
  0
LINE
  8
0
  6
CONTINUOUS
 62
     7
 10
291.199951171875
 20
46
 11
295.9999389648438
 21
46
  0
LINE
  8
0
  6
CONTINUOUS
 62
     7
 10
291.199951171875
 20
9.5
 11
295.9999389648438
 21
9.5
  0
LINE
  8
0
  6
CONTINUOUS
 62
     7
 10
280.199951171875
 20
47
 11
290.199951171875
 21
47
  0
LINE
  8
0
  6
CONTINUOUS
 62
     7
 10
280.199951171875
 20
9.39990234375
 11
291.199951171875
 21
9.39990234375
  0
LINE
  8
0
  6
CONTINUOUS
 62
     7
 10
291.2001953125
 20
45.99963760375977
 11
290.2003173828125
 21
46.9995231628418
  0
LINE
  8
0
  6
CONTINUOUS
 62
     7
 10
209.0002136230469
 20
13.83561992645264
 11
203.5001831054688
 21
26.99994850158691
  0
LINE
  8
0
  6
CONTINUOUS
 62
     7
 10
265.4999694824219
 20
26.99976921081543
 11
271.0000305175781
 21
13.83544445037842
  0
LINE
  8
0
  6
CONTINUOUS
 62
     7
 10
214.5004577636719
 20
26.99948692321777
 11
209.0005035400391
 21
13.83537864685059
  0
LINE
  8
0
  6
CONTINUOUS
 62
     7
 10
271.0002136230469
 20
13.83529567718506
 11
276.500244140625
 21
26.99960708618164
  0
LINE
  8
0
  6
CENTER
 62
     7
 10
210
 20
6.93212890625
 11
210
 21
10.53271484375
  0
LINE
  8
0
  6
CENTER
 62
     7
 10
173.3000946044922
 20
40.00001525878906
 11
189.8489227294922
 21
40.00001525878906
  0
LINE
  8
0
  6
CONTINUOUS
 62
     7
 10
181.5002899169922
 20
44.00001525878906
 11
184.0002899169922
 21
44.00001525878906
  0
LINE
  8
0
  6
CONTINUOUS
 62
     7
 10
182.5998992919922
 20
36.50001525878906
 11
177.4001922607422
 21
36.50001525878906
  0
LINE
  8
0
  6
CONTINUOUS
 62
     7
 10
182.5999298095703
 20
36.46022033691406
 11
182.5999298095703
 21
36.50001525878906
  0
LINE
  8
0
  6
CONTINUOUS
 62
     7
 10
184.1001892089844
 20
39.9997673034668
 11
182.6002044677734
 21
36.49979019165039
  0
LINE
  8
0
  6
CONTINUOUS
 62
     7
 10
183.2004241943359
 20
39.99981689453125
 11
181.6004180908203
 21
36.49980545043945
  0
LINE
  8
0
  6
CONTINUOUS
 62
     7
 10
177.4000396728516
 20
36.49975967407227
 11
177.0000305175781
 21
37.07978820800781
  0
LINE
  8
0
  6
CONTINUOUS
 62
     7
 10
177.3997192382813
 20
43.49995803833008
 11
176.9997100830078
 21
42.91992568969727
  0
LINE
  8
0
  6
CONTINUOUS
 62
     7
 10
182.5998992919922
 20
43.50001525878906
 11
177.4001922607422
 21
43.50001525878906
  0
LINE
  8
0
  6
CONTINUOUS
 62
     7
 10
-34
 20
43.999755859375
 11
-34
 21
11.5
  0
LINE
  8
0
  6
CONTINUOUS
 62
     7
 10
0
 20
46
 11
-32
 21
46
  0
LINE
  8
0
  6
CONTINUOUS
 62
     7
 10
-32.00030517578125
 20
45.99962997436523
 11
-34.00008773803711
 21
43.99984359741211
  0
LINE
  8
0
  6
CONTINUOUS
 62
     7
 10
-34.00058364868164
 20
11.49991226196289
 11
-32.0006217956543
 21
9.499953269958496
  0
LINE
  8
0
  6
CENTER
 62
     7
 10
41
 20
26
 11
41
 21
49
  0
LINE
  8
0
  6
CONTINUOUS
 62
     7
 10
100
 20
25.37579345703125
 11
184.0002899169922
 21
25.37579345703125
  0
LINE
  8
0
  6
CONTINUOUS
 62
     7
 10
100
 20
22.8798828125
 11
184.0002899169922
 21
22.8798828125
  0
LINE
  8
0
  6
CONTINUOUS
 62
     7
 10
100
 20
17.67958641052246
 11
184.0002899169922
 21
17.67958641052246
  0
LINE
  8
0
  6
CONTINUOUS
 62
     7
 10
100
 20
12.19987869262695
 11
184.0002899169922
 21
12.19987869262695
  0
LINE
  8
0
  6
CONTINUOUS
 62
     7
 10
100
 20
6.999929428100586
 11
380
 21
6.999929428100586
  0
LINE
  8
0
  6
CONTINUOUS
 62
     7
 10
100
 20
29
 11
100
 21
0
  0
LINE
  8
0
  6
CENTER
 62
     7
 10
120
 20
30
 11
120
 21
-1
  0
LINE
  8
0
  6
DASHED
 62
     7
 10
113
 20
29
 11
113
 21
17
  0
LINE
  8
0
  6
DASHED
 62
     7
 10
127
 20
29
 11
127
 21
17
  0
LINE
  8
0
  6
DASHED
 62
     7
 10
115.5
 20
17
 11
115.5
 21
0
  0
LINE
  8
0
  6
DASHED
 62
     7
 10
124.5
 20
17
 11
124.5
 21
0
  0
LINE
  8
0
  6
DASHED
 62
     7
 10
113
 20
17
 11
127
 21
17
  0
LINE
  8
0
  6
CENTER
 62
     7
 10
200
 20
10.5
 11
200
 21
-1
  0
LINE
  8
0
  6
CONTINUOUS
 62
     7
 10
199.80029296875
 20
34.267822265625
 11
280.199951171875
 21
34.267822265625
  0
LINE
  8
0
  6
CENTER
 62
     7
 10
209
 20
8.5
 11
209
 21
49
  0
LINE
  8
0
  6
DASHED
 62
     7
 10
214
 20
48
 11
214
 21
27
  0
LINE
  8
0
  6
DASHED
 62
     7
 10
204
 20
48
 11
204
 21
27
  0
LINE
  8
0
  6
DASHED
 62
     7
 10
213.25
 20
48
 11
213.25
 21
27
  0
LINE
  8
0
  6
DASHED
 62
     7
 10
204.75
 20
48
 11
204.75
 21
27
  0
LINE
  8
0
  6
CENTER
 62
     7
 10
271
 20
8.5
 11
271
 21
49
  0
LINE
  8
0
  6
CONTINUOUS
 62
     7
 10
380
 20
25.37579345703125
 11
295.9999389648438
 21
25.37579345703125
  0
LINE
  8
0
  6
CONTINUOUS
 62
     7
 10
380
 20
12.19987869262695
 11
295.9999389648438
 21
12.19987869262695
  0
LINE
  8
0
  6
CONTINUOUS
 62
     7
 10
380
 20
17.67958641052246
 11
295.9999389648438
 21
17.67958641052246
  0
LINE
  8
0
  6
CONTINUOUS
 62
     7
 10
380
 20
22.8798828125
 11
295.9999389648438
 21
22.8798828125
  0
LINE
  8
0
  6
CONTINUOUS
 62
     7
 10
380
 20
29
 11
380
 21
0
  0
LINE
  8
0
  6
CENTER
 62
     7
 10
360
 20
30
 11
360
 21
-1
  0
LINE
  8
0
  6
DASHED
 62
     7
 10
367
 20
29
 11
367
 21
17
  0
LINE
  8
0
  6
DASHED
 62
     7
 10
353
 20
29
 11
353
 21
17
  0
LINE
  8
0
  6
DASHED
 62
     7
 10
364.5
 20
17
 11
364.5
 21
0
  0
LINE
  8
0
  6
DASHED
 62
     7
 10
355.5
 20
17
 11
355.5
 21
0
  0
LINE
  8
0
  6
DASHED
 62
     7
 10
367
 20
17
 11
353
 21
17
  0
LINE
  8
0
  6
CENTER
 62
     7
 10
280
 20
10.5
 11
280
 21
-1
  0
LINE
  8
0
  6
CENTER
 62
     7
 10
99
 20
178
 11
381
 21
178
  0
LINE
  8
0
  6
CONTINUOUS
 62
     7
 10
100
 20
160.9997863769531
 11
184.0002899169922
 21
160.9997863769531
  0
LINE
  8
0
  6
CONTINUOUS
 62
     7
 10
100
 20
164.388671875
 11
184.0002899169922
 21
164.388671875
  0
LINE
  8
0
  6
CENTER
 62
     7
 10
120
 20
186
 11
120
 21
170
  0
LINE
  8
0
  6
CONTINUOUS
 62
     7
 10
199.80029296875
 20
128
 11
280.19970703125
 21
128
  0
LINE
  8
0
  6
CONTINUOUS
 62
     7
 10
199.80029296875
 20
166.8002166748047
 11
280.19970703125
 21
166.8002166748047
  0
LINE
  8
0
  6
CONTINUOUS
 62
     7
 10
199.80029296875
 20
148.1998291015625
 11
280.19970703125
 21
148.1998291015625
  0
LINE
  8
0
  6
CONTINUOUS
 62
     7
 10
184.0002899169922
 20
144
 11
199.80029296875
 21
144
  0
LINE
  8
0
  6
CENTER
 62
     7
 10
209
 20
142.5
 11
209
 21
131.5
  0
LINE
  8
0
  6
CENTER
 62
     7
 10
203.5
 20
137
 11
214.5
 21
137
  0
LINE
  8
0
  6
CONTINUOUS
 62
     7
 10
181.2003936767578
 20
182
 11
184.0002899169922
 21
182
  0
LINE
  8
0
  6
CONTINUOUS
 62
     7
 10
182.8204193115234
 20
174
 11
184.0002899169922
 21
174
  0
LINE
  8
0
  6
CONTINUOUS
 62
     7
 10
177.2003936767578
 20
178
 11
177.2003936767578
 21
176.327880859375
  0
LINE
  8
0
  6
CENTER
 62
     7
 10
176.7521514892578
 20
166.4778747558594
 11
181.6174468994141
 21
178.2237548828125
  0
LINE
  8
0
  6
CONTINUOUS
 62
     7
 10
174.9830780029297
 20
168.4784393310547
 11
179.4176940917969
 21
166.6415557861328
  0
LINE
  8
0
  6
CONTINUOUS
 62
     7
 10
175.1848297119141
 20
171.3173370361328
 11
181.2824249267578
 21
168.7916259765625
  0
LINE
  8
0
  6
CONTINUOUS
 62
     7
 10
174.9830780029297
 20
168.4784393310547
 11
175.1848297119141
 21
171.3173370361328
  0
LINE
  8
0
  6
CONTINUOUS
 62
     7
 10
179.4177093505859
 20
166.6415557861328
 11
181.2824554443359
 21
168.7916412353516
  0
LINE
  8
0
  6
CONTINUOUS
 62
     7
 10
175.9235687255859
 20
175.0381774902344
 11
176.3382263183594
 21
176.0392608642578
  0
LINE
  8
0
  6
CONTINUOUS
 62
     7
 10
183.3911437988281
 20
171.9450073242188
 11
183.8058013916016
 21
172.9460754394531
  0
LINE
  8
0
  6
CONTINUOUS
 62
     7
 10
177.1176605224609
 20
176.3620758056641
 11
176.3382110595703
 21
176.0392303466797
  0
LINE
  8
0
  6
CONTINUOUS
 62
     7
 10
177.5608520507813
 20
173.7106018066406
 11
178.4334259033203
 21
175.8171539306641
  0
LINE
  8
0
  6
CONTINUOUS
 62
     7
 10
181.2946319580078
 20
172.1640319824219
 11
182.1671905517578
 21
174.2705688476563
  0
LINE
  8
0
  6
CONTINUOUS
 62
     7
 10
177.1176605224609
 20
176.3621520996094
 11
183.4829711914063
 21
173.7255554199219
  0
LINE
  8
0
  6
CONTINUOUS
 62
     7
 10
183.8058013916016
 20
172.9460601806641
 11
183.4829406738281
 21
173.7255096435547
  0
LINE
  8
0
  6
CONTINUOUS
 62
     7
 10
176.3151092529297
 20
172.7394866943359
 11
181.4888153076172
 21
170.5964508056641
  0
LINE
  8
0
  6
CONTINUOUS
 62
     7
 10
176.1533508300781
 20
174.2935943603516
 11
182.7021789550781
 21
171.5810241699219
  0
LINE
  8
0
  6
CONTINUOUS
 62
     7
 10
380
 20
160.9997863769531
 11
296.0003051757813
 21
160.9997863769531
  0
LINE
  8
0
  6
CONTINUOUS
 62
     7
 10
380
 20
164.388671875
 11
296.0003051757813
 21
164.388671875
  0
LINE
  8
0
  6
CENTER
 62
     7
 10
271
 20
142.5
 11
271
 21
131.5
  0
LINE
  8
0
  6
CENTER
 62
     7
 10
276.5
 20
137
 11
265.5
 21
137
  0
LINE
  8
0
  6
CONTINUOUS
 62
     7
 10
100
 20
160.9997863769531
 11
100
 21
195.0002136230469
  0
LINE
  8
0
  6
CONTINUOUS
 62
     7
 10
100
 20
195.0002136230469
 11
184.0002899169922
 21
195.0002136230469
  0
LINE
  8
0
  6
CONTINUOUS
 62
     7
 10
100
 20
191.611328125
 11
184.0002899169922
 21
191.611328125
  0
LINE
  8
0
  6
CONTINUOUS
 62
     7
 10
199.80029296875
 20
228
 11
280.2002868652344
 21
228
  0
LINE
  8
0
  6
CONTINUOUS
 62
     7
 10
199.80029296875
 20
189.1997833251953
 11
280.19970703125
 21
189.1997833251953
  0
LINE
  8
0
  6
CONTINUOUS
 62
     7
 10
199.80029296875
 20
128
 11
199.80029296875
 21
228
  0
LINE
  8
0
  6
CONTINUOUS
 62
     7
 10
199.80029296875
 20
207.8001708984375
 11
280.19970703125
 21
207.8001708984375
  0
LINE
  8
0
  6
CONTINUOUS
 62
     7
 10
187.30029296875
 20
144
 11
187.30029296875
 21
212
  0
LINE
  8
0
  6
CONTINUOUS
 62
     7
 10
188.80029296875
 20
144
 11
188.80029296875
 21
212
  0
LINE
  8
0
  6
CONTINUOUS
 62
     7
 10
184.0002899169922
 20
212
 11
199.80029296875
 21
212
  0
LINE
  8
0
  6
CENTER
 62
     7
 10
209
 20
213.5
 11
209
 21
224.5
  0
LINE
  8
0
  6
CENTER
 62
     7
 10
203.5
 20
219
 11
214.5
 21
219
  0
LINE
  8
0
  6
CONTINUOUS
 62
     7
 10
380
 20
191.611328125
 11
296.0003051757813
 21
191.611328125
  0
LINE
  8
0
  6
CONTINUOUS
 62
     7
 10
380
 20
195.0002136230469
 11
296.0003051757813
 21
195.0002136230469
  0
LINE
  8
0
  6
CONTINUOUS
 62
     7
 10
380
 20
160.9997863769531
 11
380
 21
195.0002136230469
  0
LINE
  8
0
  6
CENTER
 62
     7
 10
271
 20
213.5
 11
271
 21
224.5
  0
LINE
  8
0
  6
CENTER
 62
     7
 10
276.5
 20
219
 11
265.5
 21
219
  0
LINE
  8
0
  6
CENTER
 62
     7
 10
360
 20
186
 11
360
 21
170
  0
LINE
  8
0
  6
CONTINUOUS
 62
     7
 10
5
 20
45.79999923706055
 11
5
 21
43.5
  0
LINE
  8
0
  6
CONTINUOUS
 62
     7
 10
-15.30029106140137
 20
16.22981643676758
 11
-20.49999618530273
 21
21.42952156066895
  0
LINE
  8
0
  6
CONTINUOUS
 62
     7
 10
-15.30029773712158
 20
13.64957046508789
 11
-19.44986343383789
 21
9.500003814697266
  0
LINE
  8
0
  6
CONTINUOUS
 62
     7
 10
-15.30029296875
 20
16.22981834411621
 11
-15.30029296875
 21
13.64956665039063
  0
LINE
  8
0
  6
CONTINUOUS
 62
     7
 10
-14.5598087310791
 20
32.50000381469727
 11
-20.5000057220459
 21
26.5598087310791
  0
LINE
  8
0
  6
CONTINUOUS
 62
     7
 10
-5
 20
45.79999923706055
 11
-5
 21
40
  0
LINE
  8
0
  6
CONTINUOUS
 62
     7
 10
-14.55979442596436
 20
32.5
 11
14.55979442596436
 21
32.5
  0
LINE
  8
0
  6
CONTINUOUS
 62
     7
 10
-20.5
 20
26.55980491638184
 11
-20.5
 21
21.42952537536621
  0
LINE
  8
0
  6
CONTINUOUS
 62
     7
 10
14.5598030090332
 20
32.5
 11
20.50000762939453
 21
26.55979728698731
  0
LINE
  8
0
  6
CONTINUOUS
 62
     7
 10
20.5
 20
26.55980491638184
 11
20.5
 21
21.42952537536621
  0
LINE
  8
0
  6
CONTINUOUS
 62
     7
 10
15.30029296875
 20
16.22981834411621
 11
15.30029296875
 21
13.64956665039063
  0
LINE
  8
0
  6
CONTINUOUS
 62
     7
 10
15.30029392242432
 20
16.22981834411621
 11
20.50000190734863
 21
21.42952537536621
  0
LINE
  8
0
  6
CONTINUOUS
 62
     7
 10
15.3002872467041
 20
13.64957523345947
 11
19.44986534118652
 21
9.499998092651367
  0
LINE
  8
0
  6
CONTINUOUS
 62
     7
 10
184.0002899169922
 20
46
 11
184.0002899169922
 21
9.5
  0
LINE
  8
0
  6
CONTINUOUS
 62
     7
 10
295.9999389648438
 20
9.5
 11
295.9999389648438
 21
46
  0
LINE
  8
0
  6
CONTINUOUS
 62
     7
 10
184.0002899169922
 20
144
 11
184.0002899169922
 21
212
  0
LINE
  8
0
  6
CONTINUOUS
 62
     7
 10
280.2002868652344
 20
128
 11
280.2002868652344
 21
228
  0
LINE
  8
0
  6
CONTINUOUS
 62
     7
 10
296.0003051757813
 20
144
 11
280.2002868652344
 21
144
  0
LINE
  8
0
  6
CONTINUOUS
 62
     7
 10
296.0003051757813
 20
144
 11
296.0003051757813
 21
212
  0
LINE
  8
0
  6
CONTINUOUS
 62
     7
 10
292.7002868652344
 20
144
 11
292.7002868652344
 21
212
  0
LINE
  8
0
  6
CONTINUOUS
 62
     7
 10
291.2002868652344
 20
144
 11
291.2002868652344
 21
212
  0
LINE
  8
0
  6
CONTINUOUS
 62
     7
 10
296.0003051757813
 20
212
 11
280.2002868652344
 21
212
  0
LINE
  8
0
  6
CONTINUOUS
 62
     7
 10
-24.43427658081055
 20
8.48779296875
 11
-24.43427658081055
 21
9.5
  0
LINE
  8
0
  6
CONTINUOUS
 62
     7
 10
-20.06523513793945
 20
8.48779296875
 11
-20.06523513793945
 21
9.5
  0
LINE
  8
0
  6
CONTINUOUS
 62
     7
 10
207.8157196044922
 20
8.48779296875
 11
207.8157196044922
 21
9.5
  0
LINE
  8
0
  6
CONTINUOUS
 62
     7
 10
212.1847686767578
 20
8.48779296875
 11
212.1847686767578
 21
9.5
  0
ARC
  8
0
  6
CONTINUOUS
 62
     7
 10
181.5002899169922
 20
40.000244140625
 40
3.982465744018556
 50
241.5040862782025
 51
269.9999087030627
  0
ARC
  8
0
  6
CONTINUOUS
 62
     7
 10
181.5002899169922
 20
40.000244140625
 40
3.999999999999998
 50
89.99998201391055
 51
118.4958044387709
  0
ARC
  8
0
  6
CONTINUOUS
 62
     7
 10
211.384765625
 20
8.48779296875
 40
0.7999999523162812
 50
285.4426932088939
 51
0
  0
ARC
  8
0
  6
CONTINUOUS
 62
     7
 10
208.61572265625
 20
8.48779296875
 40
0.7999999523162873
 50
180.0000050089564
 51
254.557270818926
  0
ARC
  8
0
  6
CONTINUOUS
 62
     7
 10
210
 20
13.5
 40
5.999999999999999
 50
254.557342763284
 51
285.4426932088946
  0
ARC
  8
0
  6
CONTINUOUS
 62
     7
 10
-16.90966796875
 20
19.0888671875
 40
3.299999237060548
 50
7.469515366893473
 51
82.53043249607138
  0
ARC
  8
0
  6
CONTINUOUS
 62
     7
 10
-16.90966796875
 20
28.911865234375
 40
3.299999237060548
 50
277.6916306142241
 51
352.308397617149
  0
ARC
  8
0
  6
CONTINUOUS
 62
     7
 10
16.91015625
 20
19.0888671875
 40
3.299999237060549
 50
97.46947689023656
 51
172.5304691514954
  0
ARC
  8
0
  6
CONTINUOUS
 62
     7
 10
16.91015625
 20
28.911865234375
 40
3.299999237060546
 50
187.6916486003134
 51
262.3084053579546
  0
ARC
  8
0
  6
CONTINUOUS
 62
     7
 10
6.6201171875
 20
35.919921875
 40
1.246148109436035
 50
80.76452806729958
 51
142.1250351177264
  0
ARC
  8
0
  6
CONTINUOUS
 62
     7
 10
7.6103515625
 20
37.7099609375
 40
0.9683421850204466
 50
215.3314570768741
 51
278.2972225067941
  0
ARC
  8
0
  6
CONTINUOUS
 62
     7
 10
50
 20
33.267822265625
 40
1
 50
119.9999760185477
 51
180.0000186693345
  0
ARC
  8
0
  6
CONTINUOUS
 62
     7
 10
49
 20
35
 40
0.999999999999999
 50
300.0000119907265
 51
0
  0
ARC
  8
0
  6
CONTINUOUS
 62
     7
 10
-50
 20
33.267822265625
 40
0.9999999999999968
 50
359.9999949509801
 51
59.99998800927352
  0
ARC
  8
0
  6
CONTINUOUS
 62
     7
 10
-49
 20
35
 40
0.9999999999999981
 50
179.9999640278211
 51
239.9999520370951
  0
ARC
  8
0
  6
CONTINUOUS
 62
     7
 10
32.48291015625
 20
12.5
 40
3
 50
269.9997994200359
 51
349.9999132059952
  0
ARC
  8
0
  6
CONTINUOUS
 62
     7
 10
46
 20
30
 40
2.999999999999999
 50
270.0000179860893
 51
0
  0
ARC
  8
0
  6
CONTINUOUS
 62
     7
 10
40.60302734375
 20
24
 40
2.999999999999999
 50
89.9999820139107
 51
169.9999660262757
  0
ARC
  8
0
  6
CONTINUOUS
 62
     7
 10
-46
 20
30
 40
3.000000000000001
 50
179.9999640278213
 51
270.0000006832453
  0
ARC
  8
0
  6
CONTINUOUS
 62
     7
 10
-23.63427734375
 20
8.48779296875
 40
0.7999999523162837
 50
180.0000050089564
 51
254.5573254604399
  0
ARC
  8
0
  6
CONTINUOUS
 62
     7
 10
-20.865234375
 20
8.48779296875
 40
0.7999999523162841
 50
285.4426932088946
 51
0
  0
ARC
  8
0
  6
CONTINUOUS
 62
     7
 10
-32.482421875
 20
12.5
 40
2.999999999999997
 50
190.0000886152377
 51
270.0002365521427
  0
ARC
  8
0
  6
CONTINUOUS
 62
     7
 10
-22.25
 20
13.5
 40
6.000000000000001
 50
254.557342763284
 51
285.4426932088946
  0
ARC
  8
0
  6
CONTINUOUS
 62
     7
 10
-40.6025390625
 20
24
 40
3.000000000000001
 50
9.999994586451063
 51
89.9999820139107
  0
ARC
  8
0
  6
CONTINUOUS
 62
     7
 10
0
 20
40
 40
3.998106002807619
 50
61.09402038976974
 51
298.9059076658729
  0
ARC
  8
0
  6
CONTINUOUS
 62
     7
 10
0
 20
40
 40
4.000000000000003
 50
240.0000239814524
 51
241.0449882829511
  0
ARC
  8
0
  6
CONTINUOUS
 62
     7
 10
7.6103515625
 20
42.289794921875
 40
0.9701610803604147
 50
81.70288677623263
 51
144.6685429231259
  0
ARC
  8
0
  6
CONTINUOUS
 62
     7
 10
6.6201171875
 20
44.079833984375
 40
1.254199028015138
 50
217.8749648822736
 51
279.2353626496737
  0
CIRCLE
  8
0
  6
CONTINUOUS
 62
     7
 10
120
 20
178
 40
4.5
  0
CIRCLE
  8
0
  6
CONTINUOUS
 62
     7
 10
120
 20
178
 40
7
  0
CIRCLE
  8
0
  6
CONTINUOUS
 62
     7
 10
209
 20
137
 40
4.25
  0
CIRCLE
  8
0
  6
CONTINUOUS
 62
     7
 10
209
 20
137
 40
5
  0
ARC
  8
0
  6
CONTINUOUS
 62
     7
 10
178.233642578125
 20
170.0544738769531
 40
3.299999237060546
 50
131.5803705110077
 51
157.4999548639651
  0
ARC
  8
0
  6
CONTINUOUS
 62
     7
 10
178.233642578125
 20
170.0544738769531
 40
3.299999237060545
 50
337.5000181569009
 51
3.419602296415186
  0
ARC
  8
0
  6
CONTINUOUS
 62
     7
 10
170.3172912597656
 20
172.9005737304688
 40
6.00000000000001
 50
2.43365082934552
 51
20.87173987704925
  0
ARC
  8
0
  6
CONTINUOUS
 62
     7
 10
185.8438262939453
 20
166.4692687988281
 40
6.000000000000011
 50
114.1278165022775
 51
132.5663219780772
  0
ARC
  8
0
  6
CONTINUOUS
 62
     7
 10
175.5125885009766
 20
173.1213684082031
 40
0.7999999523162822
 50
311.5798327472963
 51
2.433049772698627
  0
ARC
  8
0
  6
CONTINUOUS
 62
     7
 10
182.3263244628906
 20
170.2990264892578
 40
0.7999999523162747
 50
132.5669776762372
 51
183.4201402735692
  0
ARC
  8
0
  6
CONTINUOUS
 62
     7
 10
181.2003936767578
 20
178
 40
3.999999999999998
 50
89.99998201391055
 51
180.0000186693345
  0
ARC
  8
0
  6
CONTINUOUS
 62
     7
 10
11
 20
40
 40
4.499999999999998
 50
225.7077985016874
 51
134.2966957627864
  0
ARC
  8
0
  6
CONTINUOUS
 62
     7
 10
0
 20
40
 40
5
 50
179.999991348578
 51
315.5729899200514
  0
CIRCLE
  8
0
  6
CONTINUOUS
 62
     7
 10
-11
 20
40
 40
4.5
  0
CIRCLE
  8
0
  6
CONTINUOUS
 62
     7
 10
20
 20
39
 40
2.25
  0
CIRCLE
  8
0
  6
CONTINUOUS
 62
     7
 10
-20
 20
39
 40
2.25
  0
POLYLINE
  8
0
  6
CONTINUOUS
 62
     7
 66
     1
 10
0
 20
0
 70
     1
  0
VERTEX
  8
0
  6
CONTINUOUS
 62
     7
 10
177.1999664306641
 20
42.500244140625
 42
0.1103780760391568
  0
VERTEX
  8
0
  6
CONTINUOUS
 62
     7
 10
176.2878081932996
 20
42.29522714297746
 42
0.102506266383725
  0
VERTEX
  8
0
  6
CONTINUOUS
 62
     7
 10
175.5404735525829
 20
41.73121792380459
 42
0.09328995013842192
  0
VERTEX
  8
0
  6
CONTINUOUS
 62
     7
 10
175.0628684874138
 20
40.92432427296514
 42
0.08782039412035841
  0
VERTEX
  8
0
  6
CONTINUOUS
 62
     7
 10
174.8999786376953
 20
40.00022888183594
 42
0.08777445367429548
  0
VERTEX
  8
0
  6
CONTINUOUS
 62
     7
 10
175.0627104143496
 20
39.07661066309975
 42
0.09326040117880491
  0
VERTEX
  8
0
  6
CONTINUOUS
 62
     7
 10
175.5400154526213
 20
38.26980791031201
 42
0.1026287797598021
  0
VERTEX
  8
0
  6
CONTINUOUS
 62
     7
 10
176.2882253375035
 20
37.70507829265769
 42
0.1103319970233596
  0
VERTEX
  8
0
  6
CONTINUOUS
 62
     7
 10
177.2000274658203
 20
37.500244140625
 42
0.1103781896325249
  0
VERTEX
  8
0
  6
CONTINUOUS
 62
     7
 10
178.1121856277637
 20
37.70526141712892
 42
0.1025061713240477
  0
VERTEX
  8
0
  6
CONTINUOUS
 62
     7
 10
178.8595201054414
 20
38.26927087401465
 42
0.09328985679541922
  0
VERTEX
  8
0
  6
CONTINUOUS
 62
     7
 10
179.3371252788165
 20
39.07616448243069
 42
0.08782045711859883
  0
VERTEX
  8
0
  6
CONTINUOUS
 62
     7
 10
179.5000152587891
 20
40.00025939941406
 42
0.08777250441370951
  0
VERTEX
  8
0
  6
CONTINUOUS
 62
     7
 10
179.3372875860163
 20
40.92387862742253
 42
0.09326073550543905
  0
VERTEX
  8
0
  6
CONTINUOUS
 62
     7
 10
178.8599888308676
 20
41.73068513669898
 42
0.1026311034493131
  0
VERTEX
  8
0
  6
CONTINUOUS
 62
     7
 10
178.1117804561569
 20
42.29541625169315
 42
0.1103314199971864
  0
SEQEND
  8
0
  0
POLYLINE
  8
0
  6
CONTINUOUS
 62
     7
 66
     1
 10
0
 20
0
  0
VERTEX
  8
0
  6
CONTINUOUS
 62
     7
 10
178.3000946044922
 20
43.250244140625
 42
0.01434921703884331
  0
VERTEX
  8
0
  6
CONTINUOUS
 62
     7
 10
178.1412136816178
 20
43.24568315121519
 42
0.0142605608814301
  0
VERTEX
  8
0
  6
CONTINUOUS
 62
     7
 10
177.9836027550809
 20
43.23210781765633
 42
0.01417567850979623
  0
VERTEX
  8
0
  6
CONTINUOUS
 62
     7
 10
177.8275038238837
 20
43.2096651744511
 42
0.01415087113678538
  0
VERTEX
  8
0
  6
CONTINUOUS
 62
     7
 10
177.6725417837317
 20
43.17834193948219
 42
0.01410158364187514
  0
VERTEX
  8
0
  6
CONTINUOUS
 62
     7
 10
177.5192799043377
 20
43.13823439421469
 42
0.01402958033172182
  0
VERTEX
  8
0
  6
CONTINUOUS
 62
     7
 10
177.3682631717699
 20
43.08949035988587
 42
0.01393700040947241
  0
VERTEX
  8
0
  6
CONTINUOUS
 62
     7
 10
177.2200128087459
 20
43.03230498431945
 42
0.01382628081088751
  0
VERTEX
  8
0
  6
CONTINUOUS
 62
     7
 10
177.0750216547954
 20
42.96691575174501
 42
0.0137000715054291
  0
VERTEX
  8
0
  6
CONTINUOUS
 62
     7
 10
176.9337505236223
 20
42.89359693315303
 42
0.01356114887597159
  0
VERTEX
  8
0
  6
CONTINUOUS
 62
     7
 10
176.7966256016237
 20
42.81265371139813
 42
0.01332237748972252
  0
VERTEX
  8
0
  6
CONTINUOUS
 62
     7
 10
176.6649157111092
 20
42.72503539929921
 42
0.01328780636204216
  0
VERTEX
  8
0
  6
CONTINUOUS
 62
     7
 10
176.5368949201138
 20
42.62967231735524
 42
0.01315487495747298
  0
VERTEX
  8
0
  6
CONTINUOUS
 62
     7
 10
176.413842674724
 20
42.52746697377103
 42
0.01293834017174727
  0
VERTEX
  8
0
  6
CONTINUOUS
 62
     7
 10
176.2967983975924
 20
42.41945259984713
 42
0.01278034773701293
  0
VERTEX
  8
0
  6
CONTINUOUS
 62
     7
 10
176.1854619815903
 20
42.30556357770769
 42
0.01262533627630349
  0
VERTEX
  8
0
  6
CONTINUOUS
 62
     7
 10
176.0800525465749
 20
42.18616647807279
 42
0
  0
SEQEND
  8
0
  0
POLYLINE
  8
0
  6
CONTINUOUS
 62
     7
 66
     1
 10
0
 20
0
  0
VERTEX
  8
0
  6
CONTINUOUS
 62
     7
 10
176.0760260969461
 20
37.81913069045032
 42
0.06283202204798971
  0
VERTEX
  8
0
  6
CONTINUOUS
 62
     7
 10
176.6403248954339
 20
37.2929585969681
 42
0.06649701805978568
  0
VERTEX
  8
0
  6
CONTINUOUS
 62
     7
 10
177.3203252525518
 20
36.92845400184645
 42
0.06915554073475413
  0
VERTEX
  8
0
  6
CONTINUOUS
 62
     7
 10
178.0726798842158
 20
36.75959546478585
 42
0.06975299037259455
  0
VERTEX
  8
0
  6
CONTINUOUS
 62
     7
 10
178.8414347182612
 20
36.80359371918906
 42
0.06816348339795891
  0
VERTEX
  8
0
  6
CONTINUOUS
 62
     7
 10
179.5692780152923
 20
37.05541572083897
 42
0.06499581022999562
  0
VERTEX
  8
0
  6
CONTINUOUS
 62
     7
 10
180.2058435263362
 20
37.49024737381978
 42
0.06129079996747608
  0
VERTEX
  8
0
  6
CONTINUOUS
 62
     7
 10
180.7139009658881
 20
38.0703483746063
 42
0.05807953770357126
  0
VERTEX
  8
0
  6
CONTINUOUS
 62
     7
 10
181.0708982525258
 20
38.75434220737791
 42
0.05590537278398658
  0
VERTEX
  8
0
  6
CONTINUOUS
 62
     7
 10
181.2645572516075
 20
39.50148604379425
 42
0.05496382197528262
  0
VERTEX
  8
0
  6
CONTINUOUS
 62
     7
 10
181.2895723055178
 20
40.27220852037899
 42
0.05547382968946124
  0
VERTEX
  8
0
  6
CONTINUOUS
 62
     7
 10
181.1454935149362
 20
41.03009780796938
 42
0.05728038969504502
  0
VERTEX
  8
0
  6
CONTINUOUS
 62
     7
 10
180.8360841864652
 20
41.7365395802436
 42
0.06026827446511507
  0
VERTEX
  8
0
  6
CONTINUOUS
 62
     7
 10
180.3708455233681
 20
42.35184880816674
 42
0.06395241978134626
  0
VERTEX
  8
0
  6
CONTINUOUS
 62
     7
 10
179.768639334947
 20
42.83422759357811
 42
0.06744493795945787
  0
VERTEX
  8
0
  6
CONTINUOUS
 62
     7
 10
179.0619821974413
 20
43.14368978806409
 42
0.0694415798290441
  0
VERTEX
  8
0
  6
CONTINUOUS
 62
     7
 10
178.3000946044922
 20
43.250244140625
 42
0
  0
SEQEND
  8
0
  0
POLYLINE
  8
0
  6
CONTINUOUS
 62
     7
 66
     1
 10
0
 20
0
 70
     1
  0
VERTEX
  8
0
  6
CONTINUOUS
 62
     7
 10
10.52001953125
 20
42.5
 42
0.2551566137277048
  0
VERTEX
  8
0
  6
CONTINUOUS
 62
     7
 10
9.990205674314179
 20
42.07511349048475
 42
0.06319184808347887
  0
VERTEX
  8
0
  6
CONTINUOUS
 62
     7
 10
9.736104838058644
 20
41.41222741267583
 42
0.03518713516923939
  0
VERTEX
  8
0
  6
CONTINUOUS
 62
     7
 10
9.609371129528837
 20
40.7121768240095
 42
0.02798625856828019
  0
VERTEX
  8
0
  6
CONTINUOUS
 62
     7
 10
9.57000732421875
 20
40
 42
0.02790040059227221
  0
VERTEX
  8
0
  6
CONTINUOUS
 62
     7
 10
9.609142517151517
 20
39.28985101160738
 42
0.0351609289634917
  0
VERTEX
  8
0
  6
CONTINUOUS
 62
     7
 10
9.735640502921406
 20
38.58955968778344
 42
0.06315616204946971
  0
VERTEX
  8
0
  6
CONTINUOUS
 62
     7
 10
9.989678290079871
 20
37.92582004250461
 42
0.2552818022052672
  0
VERTEX
  8
0
  6
CONTINUOUS
 62
     7
 10
10.52001953125
 20
37.5
 42
0.2551566976104018
  0
VERTEX
  8
0
  6
CONTINUOUS
 62
     7
 10
11.04983378351935
 20
37.92488604549795
 42
0.06319199013698021
  0
VERTEX
  8
0
  6
CONTINUOUS
 62
     7
 10
11.30393474807534
 20
38.58777206812076
 42
0.03518721347880377
  0
VERTEX
  8
0
  6
CONTINUOUS
 62
     7
 10
11.43066830486306
 20
39.28782268439076
 42
0.0279863564129045
  0
VERTEX
  8
0
  6
CONTINUOUS
 62
     7
 10
11.47003173828125
 20
40
 42
0.02790041089262253
  0
VERTEX
  8
0
  6
CONTINUOUS
 62
     7
 10
11.43089708946414
 20
40.71014904258079
 42
0.03516100973359029
  0
VERTEX
  8
0
  6
CONTINUOUS
 62
     7
 10
11.30439951521788
 20
41.4104404396027
 42
0.06315635754977027
  0
VERTEX
  8
0
  6
CONTINUOUS
 62
     7
 10
11.05036177095656
 20
42.07418008907276
 42
0.2552819324672895
  0
SEQEND
  8
0
  0
POLYLINE
  8
0
  6
CONTINUOUS
 62
     7
 66
     1
 10
0
 20
0
  0
VERTEX
  8
0
  6
CONTINUOUS
 62
     7
 10
6.8203125
 20
42.84974670410156
 42
0.1885761701784905
  0
VERTEX
  8
0
  6
CONTINUOUS
 62
     7
 10
6.460583877310487
 20
42.69005806323207
 42
0.07574505642925533
  0
VERTEX
  8
0
  6
CONTINUOUS
 62
     7
 10
6.216352327588641
 20
42.37222139012496
 42
0.03933581420677284
  0
VERTEX
  8
0
  6
CONTINUOUS
 62
     7
 10
6.046493764742346
 20
42.00688813218066
 42
0.02577098992896914
  0
VERTEX
  8
0
  6
CONTINUOUS
 62
     7
 10
5.924342065359582
 20
41.62273828103204
 42
0.01950489401945826
  0
VERTEX
  8
0
  6
CONTINUOUS
 62
     7
 10
5.83685360257885
 20
41.22852763108812
 42
0.01621424382660814
  0
VERTEX
  8
0
  6
CONTINUOUS
 62
     7
 10
5.777495136864594
 20
40.82893800027306
 42
0.0144661215845553
  0
VERTEX
  8
0
  6
CONTINUOUS
 62
     7
 10
5.742628491260557
 20
40.42641481286322
 42
0.01369078631792149
  0
VERTEX
  8
0
  6
CONTINUOUS
 62
     7
 10
5.730380625954007
 20
40.02227221471939
 42
0.01360351970303537
  0
VERTEX
  8
0
  6
CONTINUOUS
 62
     7
 10
5.740096280351721
 20
39.61942857194675
 42
0.01431408262833078
  0
VERTEX
  8
0
  6
CONTINUOUS
 62
     7
 10
5.772243357841267
 20
39.21717855097194
 42
0.01598079838709445
  0
VERTEX
  8
0
  6
CONTINUOUS
 62
     7
 10
5.828749890320045
 20
38.81636149022875
 42
0.01902580324091339
  0
VERTEX
  8
0
  6
CONTINUOUS
 62
     7
 10
5.912805534023152
 20
38.42120845399381
 42
0.02487895685908593
  0
VERTEX
  8
0
  6
CONTINUOUS
 62
     7
 10
6.030813851448658
 20
38.03481180652415
 42
0.03729565644206527
  0
VERTEX
  8
0
  6
CONTINUOUS
 62
     7
 10
6.19488061868015
 20
37.66562646055293
 42
0.06998370022274167
  0
VERTEX
  8
0
  6
CONTINUOUS
 62
     7
 10
6.430458554449582
 20
37.33829245184302
 42
0.1738262186459758
  0
VERTEX
  8
0
  6
CONTINUOUS
 62
     7
 10
6.780222604905092
 20
37.15169278708324
 42
0
  0
SEQEND
  8
0
  0
TEXT
  8
0
  6
CONTINUOUS
 62
     7
 10
-11.28550004959106
 20
-31.79999995231628
 40
3.599999904632568
 41
0.8455426207593617
  1
ＨＳＲ３５Ｍ１Ａ
  0
ENDSEC
  0
EOF
