  0
SECTION
  2
HEADER
  0
ENDSEC
  0
SECTION
  2
TABLES
  0
TABLE
  2
LTYPE
 70
    22
  0
LTYPE
  2
CONTINUOUS
 70
    64
  3
Solid line
 72
    65
 73
     0
 40
0.000000
  0
LTYPE
  2
DASHED
 70
    64
  3
__ __ __ __ __ __ __ __ __ __ __ __ __ __ __
 72
    65
 73
     2
 40
3.500000
 49
2.000000
 49
-1.500000
  0
LTYPE
  2
CENTER
 70
    64
  3
____ _ ____ _ ____ _ ____ _ ____ _ ____ _ ____
 72
    65
 73
     4
 40
17.500000
 49
13.000000
 49
-1.500000
 49
1.500000
 49
-1.500000
  0
LTYPE
  2
PHANTOM
 70
    64
  3
_____ _ _ _____ _ _ _____ _ _ _____ _ _ ____  
 72
    65
 73
     6
 40
15.500000
 49
8.000000
 49
-1.500000
 49
1.500000
 49
-1.500000
 49
1.500000
 49
-1.500000
  0
LTYPE
  2
DOT
 70
    64
  3
. . . . . . . . . . . . . . . . . . . . . . . .
 72
    65
 73
     2
 40
0.25
 49
0.0
 49
-0.25
  0
ENDTAB
  0
TABLE
  2
LAYER
 70
     1
  0
LAYER
  2
0
 70
     0
 62
     7
  6
CONTINUOUS
  0
ENDTAB
  0
TABLE
  2
STYLE
 70
     1
  0
STYLE
  2
STANDARD
 70
     0
 40
0.000000
 41
1.000000
 50
0.000000
 71
     0
 42
0.200000
  3
txt
  0
ENDTAB
  0
TABLE
  2
VIEW
 70
     0
  0
ENDTAB
  0
ENDSEC
  0
SECTION
  2
BLOCKS
  0
ENDSEC
  0
SECTION
  2
ENTITIES
  0
LINE
  8
0
  6
CONTINUOUS
 62
     7
 10
247
 20
58
 11
249
 21
58
  0
LINE
  8
0
  6
CONTINUOUS
 62
     7
 10
245.5
 20
39.599853515625
 11
245.5
 21
13
  0
LINE
  8
0
  6
CONTINUOUS
 62
     7
 10
247
 20
58
 11
247
 21
13
  0
LINE
  8
0
  6
CONTINUOUS
 62
     7
 10
249
 20
11.5
 11
266
 21
11.5
  0
LINE
  8
0
  6
CONTINUOUS
 62
     7
 10
245.5
 20
13
 11
249
 21
13
  0
LINE
  8
0
  6
CONTINUOUS
 62
     7
 10
251
 20
59
 11
266
 21
59
  0
LINE
  8
0
  6
CONTINUOUS
 62
     7
 10
-17.828125
 20
40
 11
0.00048828125
 21
40
  0
LINE
  8
0
  6
CONTINUOUS
 62
     7
 10
-24.49864959716797
 20
33.32738494873047
 11
-17.82705879211426
 21
39.99898147583008
  0
LINE
  8
0
  6
CONTINUOUS
 62
     7
 10
-24.49951171875
 20
26.67156982421875
 11
-24.49951171875
 21
33.32839965820313
  0
LINE
  8
0
  6
CONTINUOUS
 62
     7
 10
-24.49849700927734
 20
26.67058753967285
 11
-17.99850082397461
 21
20.17059135437012
  0
LINE
  8
0
  6
CONTINUOUS
 62
     7
 10
-17.99951171875
 20
16.32839965820313
 11
-17.99951171875
 21
20.17156982421875
  0
LINE
  8
0
  6
CONTINUOUS
 62
     7
 10
-21.32639122009277
 20
12.99880504608154
 11
-17.99802207946777
 21
16.32718276977539
  0
LINE
  8
0
  6
CONTINUOUS
 62
     7
 10
0.0003034264082089067
 20
55.77346420288086
 11
-4.999825477600098
 21
52.88664245605469
  0
LINE
  8
0
  6
CONTINUOUS
 62
     7
 10
-4.998179912567139
 20
47.11238098144531
 11
0.001764014130458236
 21
44.22566223144531
  0
LINE
  8
0
  6
CONTINUOUS
 62
     7
 10
-5
 20
52.88674926757813
 11
-5
 21
47.11322021484375
  0
LINE
  8
0
  6
DASHED
 62
     7
 10
-42.0805549621582
 20
28.6807918548584
 11
-42.515625
 21
41.13962936401367
  0
LINE
  8
0
  6
CONTINUOUS
 62
     7
 10
251.0012817382813
 20
58.99868774414063
 11
249.0012817382813
 21
56.99869155883789
  0
LINE
  8
0
  6
CONTINUOUS
 62
     7
 10
245.5
 20
39.599853515625
 11
247
 21
39.599853515625
  0
LINE
  8
0
  6
CONTINUOUS
 62
     7
 10
381
 20
11.5
 11
381
 21
58
  0
LINE
  8
0
  6
CONTINUOUS
 62
     7
 10
364
 20
11.5
 11
381
 21
11.5
  0
LINE
  8
0
  6
CONTINUOUS
 62
     7
 10
381
 20
13
 11
384.5
 21
13
  0
LINE
  8
0
  6
CONTINUOUS
 62
     7
 10
381
 20
58
 11
383
 21
58
  0
LINE
  8
0
  6
CONTINUOUS
 62
     7
 10
364
 20
59
 11
379
 21
59
  0
LINE
  8
0
  6
CONTINUOUS
 62
     7
 10
364
 20
11.5
 11
364
 21
59
  0
LINE
  8
0
  6
CONTINUOUS
 62
     7
 10
384.5
 20
13
 11
384.5
 21
39.599853515625
  0
LINE
  8
0
  6
CONTINUOUS
 62
     7
 10
383
 20
39.599853515625
 11
384.5
 21
39.599853515625
  0
LINE
  8
0
  6
CONTINUOUS
 62
     7
 10
383
 20
13
 11
383
 21
58
  0
LINE
  8
0
  6
CONTINUOUS
 62
     7
 10
267.7998046875
 20
60
 11
362.199951171875
 21
60
  0
LINE
  8
0
  6
CONTINUOUS
 62
     7
 10
381.0009765625
 20
56.99901962280273
 11
379.0008239746094
 21
58.9991455078125
  0
LINE
  8
0
  6
CONTINUOUS
 62
     7
 10
284
 20
35
 11
346
 21
35
  0
LINE
  8
0
  6
CONTINUOUS
 62
     7
 10
281.9271545410156
 20
44.50570678710938
 11
277.001953125
 21
11.99951362609863
  0
LINE
  8
0
  6
CONTINUOUS
 62
     7
 10
-29.17483901977539
 20
9.999922752380371
 11
-22.74115562438965
 21
13
  0
LINE
  8
0
  6
CONTINUOUS
 62
     7
 10
41.99951171875
 20
56
 11
41.99951171875
 21
12.99879360198975
  0
LINE
  8
0
  6
CONTINUOUS
 62
     7
 10
-39.0003662109375
 20
59
 11
38.99951171875
 21
59
  0
LINE
  8
0
  6
CONTINUOUS
 62
     7
 10
39.00076293945313
 20
58.99959564208984
 11
42.00078201293945
 21
55.99956512451172
  0
LINE
  8
0
  6
CONTINUOUS
 62
     7
 10
41.89356231689453
 20
12.89284420013428
 11
39.00020980834961
 21
9.999503135681152
  0
LINE
  8
0
  6
CONTINUOUS
 62
     7
 10
29.99951171875
 20
10
 11
38.99951171875
 21
10
  0
LINE
  8
0
  6
CONTINUOUS
 62
     7
 10
41.49951171875
 20
56
 11
41.49951171875
 21
15
  0
LINE
  8
0
  6
CONTINUOUS
 62
     7
 10
22.74227523803711
 20
13
 11
29.17507362365723
 21
10.00033569335938
  0
LINE
  8
0
  6
CONTINUOUS
 62
     7
 10
29.17561149597168
 20
9.999612808227539
 11
29.34053039550781
 21
10.35328006744385
  0
LINE
  8
0
  6
CONTINUOUS
 62
     7
 10
-29.51284027099609
 20
10.72520065307617
 11
-29.17472457885742
 21
10.0001106262207
  0
LINE
  8
0
  6
CONTINUOUS
 62
     7
 10
-39.50014114379883
 20
58
 11
39.49951171875
 21
58
  0
LINE
  8
0
  6
CONTINUOUS
 62
     7
 10
18.49951171875
 20
13
 11
39.49951171875
 21
13
  0
LINE
  8
0
  6
CONTINUOUS
 62
     7
 10
41.50014114379883
 20
14.99954319000244
 11
39.5001335144043
 21
12.99954700469971
  0
LINE
  8
0
  6
CONTINUOUS
 62
     7
 10
39.5004997253418
 20
57.9996452331543
 11
41.50028610229492
 21
55.99985504150391
  0
LINE
  8
0
  6
CONTINUOUS
 62
     7
 10
30.0012149810791
 20
9.999361038208008
 11
23.56633186340332
 21
13
  0
LINE
  8
0
  6
CONTINUOUS
 62
     7
 10
-58.400390625
 20
60
 11
-35.80029296875
 21
60
  0
LINE
  8
0
  6
CONTINUOUS
 62
     7
 10
-35.00048828125
 20
59.20001220703125
 11
-15.00048828125
 21
59.20001220703125
  0
LINE
  8
0
  6
CONTINUOUS
 62
     7
 10
-35.79946136474609
 20
59.99976348876953
 11
-34.99947738647461
 21
59.19977951049805
  0
LINE
  8
0
  6
CONTINUOUS
 62
     7
 10
-14.99888038635254
 20
59.19855880737305
 11
-14.19886493682861
 21
59.99855041503906
  0
LINE
  8
0
  6
CONTINUOUS
 62
     7
 10
14.20066070556641
 20
59.99941253662109
 11
15.00063514709473
 21
59.19942092895508
  0
LINE
  8
0
  6
CONTINUOUS
 62
     7
 10
35.00068283081055
 20
59.19895935058594
 11
35.80068969726563
 21
59.99896621704102
  0
LINE
  8
0
  6
CONTINUOUS
 62
     7
 10
-14.2001953125
 20
60
 11
14.19970703125
 21
60
  0
LINE
  8
0
  6
CONTINUOUS
 62
     7
 10
35.7998046875
 20
60
 11
58.19970703125
 21
60
  0
LINE
  8
0
  6
CONTINUOUS
 62
     7
 10
14.99951171875
 20
59.20001220703125
 11
34.99951171875
 21
59.20001220703125
  0
LINE
  8
0
  6
CONTINUOUS
 62
     7
 10
-60.00048828125
 20
58.39999389648438
 11
-60.00048828125
 21
46
  0
LINE
  8
0
  6
CONTINUOUS
 62
     7
 10
59.99951171875
 20
58.19998168945313
 11
59.99951171875
 21
45.9998779296875
  0
LINE
  8
0
  6
CONTINUOUS
 62
     7
 10
-59.00048828125
 20
45
 11
-52.6748046875
 21
45
  0
LINE
  8
0
  6
CONTINUOUS
 62
     7
 10
-58.0380859375
 20
35
 11
-50.912109375
 21
35
  0
LINE
  8
0
  6
CONTINUOUS
 62
     7
 10
135
 20
38
 11
245.5
 21
38
  0
LINE
  8
0
  6
CONTINUOUS
 62
     7
 10
135
 20
0
 11
495
 21
0
  0
LINE
  8
0
  6
CONTINUOUS
 62
     7
 10
58.91477203369141
 20
44.9998779296875
 11
58.03985595703125
 21
34.99962997436523
  0
LINE
  8
0
  6
CONTINUOUS
 62
     7
 10
-58.9100227355957
 20
45
 11
-58.0351448059082
 21
35.00017547607422
  0
LINE
  8
0
  6
CONTINUOUS
 62
     7
 10
-43.50048828125
 20
12
 11
-40.99855041503906
 21
12
  0
LINE
  8
0
  6
DASHED
 62
     7
 10
-56
 20
60
 11
-56
 21
45
  0
LINE
  8
0
  6
DASHED
 62
     7
 10
-44.85009765625
 20
60
 11
-44.85009765625
 21
44.63674926757813
  0
LINE
  8
0
  6
DASHED
 62
     7
 10
-55.14990234375
 20
60
 11
-55.14990234375
 21
45
  0
LINE
  8
0
  6
CENTER
 62
     7
 10
355
 20
11
 11
355
 21
61
  0
LINE
  8
0
  6
CENTER
 62
     7
 10
275
 20
61
 11
275
 21
11
  0
LINE
  8
0
  6
DASHED
 62
     7
 10
281.00048828125
 20
60
 11
281.00048828125
 21
44.872802734375
  0
LINE
  8
0
  6
DASHED
 62
     7
 10
269.00048828125
 20
60
 11
269.00048828125
 21
45
  0
LINE
  8
0
  6
DASHED
 62
     7
 10
280.150390625
 20
60
 11
280.150390625
 21
45
  0
LINE
  8
0
  6
DASHED
 62
     7
 10
269.8505859375
 20
60
 11
269.8505859375
 21
45
  0
LINE
  8
0
  6
CONTINUOUS
 62
     7
 10
362.2009582519531
 20
59.99893951416016
 11
364.0011901855469
 21
58.19871520996094
  0
LINE
  8
0
  6
CONTINUOUS
 62
     7
 10
267.8013000488281
 20
59.99872970581055
 11
266.0013122558594
 21
58.19873046875
  0
LINE
  8
0
  6
CONTINUOUS
 62
     7
 10
350
 20
45
 11
364
 21
45
  0
LINE
  8
0
  6
CONTINUOUS
 62
     7
 10
346
 20
41
 11
346
 21
35
  0
LINE
  8
0
  6
CONTINUOUS
 62
     7
 10
284
 20
41
 11
284
 21
35
  0
LINE
  8
0
  6
CONTINUOUS
 62
     7
 10
266
 20
45
 11
280
 21
45
  0
LINE
  8
0
  6
CONTINUOUS
 62
     7
 10
242.86181640625
 20
55.853515625
 11
246.43798828125
 21
55.853515625
  0
LINE
  8
0
  6
CONTINUOUS
 62
     7
 10
242.30029296875
 20
45.19979858398438
 11
234.80029296875
 21
45.19979858398438
  0
LINE
  8
0
  6
CONTINUOUS
 62
     7
 10
234.80029296875
 20
54.79989624023438
 11
242.30029296875
 21
54.79989624023438
  0
LINE
  8
0
  6
CONTINUOUS
 62
     7
 10
242.2998046875
 20
54.8798828125
 11
242.2998046875
 21
50
  0
LINE
  8
0
  6
CONTINUOUS
 62
     7
 10
247
 20
54.7998046875
 11
247
 21
49.919921875
  0
LINE
  8
0
  6
CONTINUOUS
 62
     7
 10
242.2998046875
 20
52.966796875
 11
247
 21
52.966796875
  0
LINE
  8
0
  6
CONTINUOUS
 62
     7
 10
242.3016510009766
 20
54.87892532348633
 11
242.8636932373047
 21
55.85240936279297
  0
LINE
  8
0
  6
CONTINUOUS
 62
     7
 10
43.50090026855469
 20
11.99973201751709
 11
48.7368278503418
 21
41.69418716430664
  0
LINE
  8
0
  6
CONTINUOUS
 62
     7
 10
-43.4995231628418
 20
12.00005340576172
 11
-48.73546981811523
 21
41.69461059570313
  0
LINE
  8
0
  6
CONTINUOUS
 62
     7
 10
-31.07007598876953
 20
10.00076675415039
 11
-24.63820266723633
 21
13
  0
LINE
  8
0
  6
CONTINUOUS
 62
     7
 10
50.91162109375
 20
35
 11
58.037109375
 21
35
  0
LINE
  8
0
  6
CONTINUOUS
 62
     7
 10
41.00071334838867
 20
12
 11
43.49951171875
 21
12
  0
LINE
  8
0
  6
CONTINUOUS
 62
     7
 10
-58.39951324462891
 20
59.99940872192383
 11
-59.9995231628418
 21
58.39939880371094
  0
LINE
  8
0
  6
CONTINUOUS
 62
     7
 10
58.20089340209961
 20
59.99940872192383
 11
60.00041580200195
 21
58.19987106323242
  0
LINE
  8
0
  6
DASHED
 62
     7
 10
-41.49805450439453
 20
12.00007247924805
 11
-41.57040405273438
 21
14.0718994140625
  0
LINE
  8
0
  6
CONTINUOUS
 62
     7
 10
52.67529296875
 20
44.9998779296875
 11
58.99951171875
 21
44.9998779296875
  0
LINE
  8
0
  6
CENTER
 62
     7
 10
-6
 20
50
 11
13.30645751953125
 21
50
  0
LINE
  8
0
  6
CONTINUOUS
 62
     7
 10
2.61669921875
 20
53.5
 11
6.69677734375
 21
53.5
  0
LINE
  8
0
  6
CONTINUOUS
 62
     7
 10
2.61669921875
 20
46.5
 11
6.69677734375
 21
46.5
  0
LINE
  8
0
  6
CONTINUOUS
 62
     7
 10
1.967932343482971
 20
50.00001907348633
 11
2.617926120758057
 21
46.50001907348633
  0
LINE
  8
0
  6
CONTINUOUS
 62
     7
 10
1.968051433563232
 20
49.99959564208984
 11
2.61803412437439
 21
53.49953460693359
  0
LINE
  8
0
  6
CONTINUOUS
 62
     7
 10
4.278324127197266
 20
50.00019836425781
 11
4.928338050842285
 21
46.50016784667969
  0
LINE
  8
0
  6
CONTINUOUS
 62
     7
 10
4.278230667114258
 20
49.99960708618164
 11
4.928233623504639
 21
53.49957656860352
  0
LINE
  8
0
  6
CONTINUOUS
 62
     7
 10
6.788282871246338
 20
46.96956253051758
 11
6.698270320892334
 21
46.49956130981445
  0
LINE
  8
0
  6
CONTINUOUS
 62
     7
 10
6.789543151855469
 20
53.02056884765625
 11
6.699538230895996
 21
53.50054550170898
  0
LINE
  8
0
  6
CONTINUOUS
 62
     7
 10
8.604103088378906
 20
46.75422668457031
 11
11.35797309875488
 21
47.49985504150391
  0
LINE
  8
0
  6
CONTINUOUS
 62
     7
 10
8.588318824768066
 20
53.24948883056641
 11
11.35821342468262
 21
52.49951934814453
  0
LINE
  8
0
  6
CONTINUOUS
 62
     7
 10
3.939482688903809
 20
53.49911880493164
 11
0.001350385136902332
 21
55.77280044555664
  0
LINE
  8
0
  6
CONTINUOUS
 62
     7
 10
0.0002192111423937604
 20
44.2263069152832
 11
3.937955141067505
 21
46.49975967407227
  0
LINE
  8
0
  6
CONTINUOUS
 62
     7
 10
-0.00048828125
 20
40
 11
17.828125
 21
40
  0
LINE
  8
0
  6
CONTINUOUS
 62
     7
 10
17.8288688659668
 20
39.99961471557617
 11
24.50054550170898
 21
33.32793426513672
  0
LINE
  8
0
  6
CONTINUOUS
 62
     7
 10
24.49951171875
 20
33.32839965820313
 11
24.49951171875
 21
26.67156982421875
  0
LINE
  8
0
  6
CONTINUOUS
 62
     7
 10
18.0006103515625
 20
20.17070007324219
 11
24.50060653686523
 21
26.67069625854492
  0
LINE
  8
0
  6
CONTINUOUS
 62
     7
 10
17.99951171875
 20
20.17156982421875
 11
17.99951171875
 21
16.32839965820313
  0
LINE
  8
0
  6
CONTINUOUS
 62
     7
 10
-20.50048828125
 20
0
 11
-15.24865341186523
 21
0
  0
LINE
  8
0
  6
CONTINUOUS
 62
     7
 10
-17.00048828125
 20
38
 11
16.99951171875
 21
38
  0
LINE
  8
0
  6
CONTINUOUS
 62
     7
 10
22.49951171875
 20
32.49996948242188
 11
22.49951171875
 21
27.5
  0
LINE
  8
0
  6
CONTINUOUS
 62
     7
 10
-22.50048828125
 20
32.49996948242188
 11
-22.50048828125
 21
27.5
  0
LINE
  8
0
  6
CONTINUOUS
 62
     7
 10
15.99951171875
 20
21
 11
15.99951171875
 21
15.5
  0
LINE
  8
0
  6
CONTINUOUS
 62
     7
 10
-16.00048828125
 20
21
 11
-16.00048828125
 21
15.5
  0
LINE
  8
0
  6
CONTINUOUS
 62
     7
 10
-16.99934387207031
 20
37.99904632568359
 11
-17.8586483001709
 21
37.13973999023438
  0
LINE
  8
0
  6
CONTINUOUS
 62
     7
 10
-15.99933528900147
 20
15.49908542633057
 11
-22.49934387207031
 21
8.999057769775391
  0
LINE
  8
0
  6
CONTINUOUS
 62
     7
 10
16.00069427490234
 20
20.99912452697754
 11
17.8599796295166
 21
22.85840797424316
  0
LINE
  8
0
  6
CONTINUOUS
 62
     7
 10
22.50029754638672
 20
1.999445676803589
 11
20.50029563903809
 21
-0.0005562330479733646
  0
LINE
  8
0
  6
CONTINUOUS
 62
     7
 10
-22.49924278259277
 20
1.999620318412781
 11
-20.49945831298828
 21
-0.0001651102065807208
  0
LINE
  8
0
  6
CONTINUOUS
 62
     7
 10
16.00073432922363
 20
15.4995584487915
 11
22.50037574768066
 21
8.999897956848145
  0
LINE
  8
0
  6
CONTINUOUS
 62
     7
 10
17.0006160736084
 20
37.99952697753906
 11
17.85964012145996
 21
37.1405029296875
  0
LINE
  8
0
  6
CONTINUOUS
 62
     7
 10
-15.99951171875
 20
20.99929809570313
 11
-17.85877418518066
 21
22.85856056213379
  0
LINE
  8
0
  6
CONTINUOUS
 62
     7
 10
-22.50048828125
 20
8.999969482421875
 11
-22.50048828125
 21
2
  0
LINE
  8
0
  6
CONTINUOUS
 62
     7
 10
22.49951171875
 20
8.999969482421875
 11
22.49951171875
 21
2
  0
LINE
  8
0
  6
CONTINUOUS
 62
     7
 10
-21.9077205657959
 20
26.90750694274902
 11
-22.49950790405273
 21
27.49929428100586
  0
LINE
  8
0
  6
CONTINUOUS
 62
     7
 10
-21.90653610229492
 20
33.09185028076172
 11
-22.49933815002441
 21
32.49905014038086
  0
LINE
  8
0
  6
CONTINUOUS
 62
     7
 10
21.90754699707031
 20
33.09259033203125
 11
22.5003719329834
 21
32.4997673034668
  0
LINE
  8
0
  6
CONTINUOUS
 62
     7
 10
21.90890312194824
 20
26.90733337402344
 11
22.50069046020508
 21
27.49912071228027
  0
LINE
  8
0
  6
CONTINUOUS
 62
     7
 10
-14.25048828125
 20
1
 11
-9.25048828125
 21
1
  0
LINE
  8
0
  6
CONTINUOUS
 62
     7
 10
-14.24945163726807
 20
0.9992027282714844
 11
-15.24945163726807
 21
-0.000798787921667099
  0
LINE
  8
0
  6
CONTINUOUS
 62
     7
 10
9.250774383544922
 20
0.998833179473877
 11
8.250772476196289
 21
-0.001167689100839198
  0
LINE
  8
0
  6
CONTINUOUS
 62
     7
 10
14.25005149841309
 20
0.9998770356178284
 11
15.24994468688965
 21
-1.654261541261803E-005
  0
LINE
  8
0
  6
CONTINUOUS
 62
     7
 10
-9.249246597290039
 20
0.9996289014816284
 11
-8.24935245513916
 21
-0.0002640603925101459
  0
LINE
  8
0
  6
CONTINUOUS
 62
     7
 10
-8.25048828125
 20
0
 11
8.19970703125
 21
0
  0
LINE
  8
0
  6
CONTINUOUS
 62
     7
 10
9.24951171875
 20
1
 11
14.24951171875
 21
1
  0
LINE
  8
0
  6
CONTINUOUS
 62
     7
 10
15.24951171875
 20
0
 11
20.49951171875
 21
0
  0
LINE
  8
0
  6
DASHED
 62
     7
 10
9.99951171875
 20
38
 11
9.99951171875
 21
21
  0
LINE
  8
0
  6
DASHED
 62
     7
 10
-10.00048828125
 20
38
 11
-10.00048828125
 21
21
  0
LINE
  8
0
  6
DASHED
 62
     7
 10
-7.00048828125
 20
21
 11
-7.00048828125
 21
0
  0
LINE
  8
0
  6
DASHED
 62
     7
 10
6.99951171875
 20
21
 11
6.99951171875
 21
0
  0
LINE
  8
0
  6
DASHED
 62
     7
 10
-10.00048828125
 20
21
 11
9.99951171875
 21
21
  0
LINE
  8
0
  6
CENTER
 62
     7
 10
50
 20
61
 11
50
 21
30.27682495117188
  0
LINE
  8
0
  6
CENTER
 62
     7
 10
-50
 20
61
 11
-50
 21
31.9903564453125
  0
LINE
  8
0
  6
DASHED
 62
     7
 10
-44
 20
60
 11
-44
 21
44.11001586914063
  0
LINE
  8
0
  6
CONTINUOUS
 62
     7
 10
266
 20
59
 11
266
 21
11.5
  0
LINE
  8
0
  6
CONTINUOUS
 62
     7
 10
249
 20
58
 11
249
 21
11.5
  0
LINE
  8
0
  6
CONTINUOUS
 62
     7
 10
247.00048828125
 20
47.03305053710938
 11
242.30029296875
 21
47.03305053710938
  0
LINE
  8
0
  6
CONTINUOUS
 62
     7
 10
246.4384765625
 20
44.14633178710938
 11
242.8623046875
 21
44.14633178710938
  0
LINE
  8
0
  6
CONTINUOUS
 62
     7
 10
242.8622131347656
 20
44.14604949951172
 11
242.3002014160156
 21
45.11948013305664
  0
LINE
  8
0
  6
CONTINUOUS
 62
     7
 10
242.30029296875
 20
49.99984741210938
 11
242.30029296875
 21
45.11972045898438
  0
LINE
  8
0
  6
CONTINUOUS
 62
     7
 10
232.64990234375
 20
53.580078125
 11
237.224609375
 21
53.580078125
  0
LINE
  8
0
  6
CONTINUOUS
 62
     7
 10
247.00048828125
 20
45.04000854492188
 11
247.00048828125
 21
49.91989135742188
  0
LINE
  8
0
  6
CONTINUOUS
 62
     7
 10
236.3511962890625
 20
53.57899475097656
 11
238.1910552978516
 21
49.99926376342773
  0
LINE
  8
0
  6
CONTINUOUS
 62
     7
 10
232.2543029785156
 20
52.80622100830078
 11
232.6514892578125
 21
53.57899475097656
  0
LINE
  8
0
  6
CONTINUOUS
 62
     7
 10
237.2260589599609
 20
53.57887268066406
 11
239.066162109375
 21
49.99868011474609
  0
LINE
  8
0
  6
CONTINUOUS
 62
     7
 10
247.0015106201172
 20
45.11899185180664
 11
246.4394683837891
 21
44.1455078125
  0
LINE
  8
0
  6
CONTINUOUS
 62
     7
 10
246.4383239746094
 20
55.8530387878418
 11
247.0005798339844
 21
54.87918472290039
  0
LINE
  8
0
  6
CONTINUOUS
 62
     7
 10
239.0667114257813
 20
49.99888229370117
 11
237.2266998291016
 21
46.41884613037109
  0
LINE
  8
0
  6
CONTINUOUS
 62
     7
 10
238.1916351318359
 20
49.99892807006836
 11
236.3516387939453
 21
46.41891860961914
  0
LINE
  8
0
  6
CONTINUOUS
 62
     7
 10
232.6509552001953
 20
46.41882705688477
 11
232.2536468505859
 21
47.19184494018555
  0
LINE
  8
0
  6
CENTER
 62
     7
 10
228.32373046875
 20
50
 11
248.69921875
 21
50
  0
LINE
  8
0
  6
CONTINUOUS
 62
     7
 10
237.2255859375
 20
46.41976928710938
 11
232.650390625
 21
46.41976928710938
  0
LINE
  8
0
  6
CONTINUOUS
 62
     7
 10
-38.99805450439453
 20
9.999513626098633
 11
-41.99808883666992
 21
12.99953269958496
  0
LINE
  8
0
  6
CONTINUOUS
 62
     7
 10
-41.99951171875
 20
14.5
 11
-41.99951171875
 21
28.85147094726563
  0
LINE
  8
0
  6
CONTINUOUS
 62
     7
 10
-41.49951171875
 20
15
 11
-41.49951171875
 21
56.00062942504883
  0
LINE
  8
0
  6
CONTINUOUS
 62
     7
 10
-39.49798202514648
 20
12.99929904937744
 11
-41.49811935424805
 21
14.99942398071289
  0
LINE
  8
0
  6
CONTINUOUS
 62
     7
 10
-39.49951171875
 20
13
 11
-18.49951171875
 21
13
  0
LINE
  8
0
  6
CONTINUOUS
 62
     7
 10
-38.99951171875
 20
10
 11
-31.072265625
 21
10
  0
LINE
  8
0
  6
CONTINUOUS
 62
     7
 10
357.0005187988281
 20
11.99971294403076
 11
362.0005187988281
 21
44.99978256225586
  0
LINE
  8
0
  6
CONTINUOUS
 62
     7
 10
353.000244140625
 20
12.00000762939453
 11
348.0750427246094
 21
44.50636291503906
  0
LINE
  8
0
  6
CONTINUOUS
 62
     7
 10
273.0005798339844
 20
11.99997615814209
 11
268.0006103515625
 21
44.99966812133789
  0
LINE
  8
0
  6
CONTINUOUS
 62
     7
 10
266
 20
12
 11
364
 21
12
  0
LINE
  8
0
  6
CONTINUOUS
 62
     7
 10
-41.99951171875
 20
56.0008430480957
 11
-41.99951171875
 21
13.00095653533936
  0
LINE
  8
0
  6
CONTINUOUS
 62
     7
 10
-39.00076293945313
 20
58.99959564208984
 11
-41.99950790405273
 21
56.00083923339844
  0
LINE
  8
0
  6
CONTINUOUS
 62
     7
 10
-39.5004997253418
 20
57.9996452331543
 11
-41.50028610229492
 21
55.99985504150391
  0
LINE
  8
0
  6
DASHED
 62
     7
 10
-52.6748046875
 20
45
 11
-46.515625
 21
45
  0
LINE
  8
0
  6
CONTINUOUS
 62
     7
 10
135
 20
38
 11
135
 21
0
  0
LINE
  8
0
  6
CONTINUOUS
 62
     7
 10
135
 20
32.49996948242188
 11
245.5
 21
32.49996948242188
  0
LINE
  8
0
  6
CONTINUOUS
 62
     7
 10
135
 20
27.5
 11
245.5
 21
27.5
  0
LINE
  8
0
  6
CONTINUOUS
 62
     7
 10
135
 20
20.99912452697754
 11
245.5
 21
20.99912452697754
  0
LINE
  8
0
  6
CONTINUOUS
 62
     7
 10
135
 20
15.5
 11
245.5
 21
15.5
  0
LINE
  8
0
  6
CONTINUOUS
 62
     7
 10
135
 20
8.999969482421875
 11
495
 21
8.999969482421875
  0
LINE
  8
0
  6
CENTER
 62
     7
 10
157.5
 20
39
 11
157.5
 21
-1
  0
LINE
  8
0
  6
DASHED
 62
     7
 10
167.49951171875
 20
38
 11
167.49951171875
 21
21
  0
LINE
  8
0
  6
DASHED
 62
     7
 10
147.49951171875
 20
38
 11
147.49951171875
 21
21
  0
LINE
  8
0
  6
DASHED
 62
     7
 10
150.49951171875
 20
21
 11
150.49951171875
 21
0
  0
LINE
  8
0
  6
DASHED
 62
     7
 10
164.49951171875
 20
21
 11
164.49951171875
 21
0
  0
LINE
  8
0
  6
DASHED
 62
     7
 10
147.49951171875
 20
21
 11
167.49951171875
 21
21
  0
LINE
  8
0
  6
CONTINUOUS
 62
     7
 10
495
 20
38
 11
384.5
 21
38
  0
LINE
  8
0
  6
CONTINUOUS
 62
     7
 10
495
 20
15.5
 11
384.5
 21
15.5
  0
LINE
  8
0
  6
CONTINUOUS
 62
     7
 10
495
 20
27.5
 11
384.5
 21
27.5
  0
LINE
  8
0
  6
CONTINUOUS
 62
     7
 10
495
 20
38
 11
495
 21
0
  0
LINE
  8
0
  6
CONTINUOUS
 62
     7
 10
495
 20
32.49996948242188
 11
384.5
 21
32.49996948242188
  0
LINE
  8
0
  6
CONTINUOUS
 62
     7
 10
495
 20
20.99912452697754
 11
384.5
 21
20.99912452697754
  0
LINE
  8
0
  6
CENTER
 62
     7
 10
472.5
 20
39
 11
472.5
 21
-1
  0
LINE
  8
0
  6
CENTER
 62
     7
 10
262.5
 20
12.5
 11
262.5
 21
-1
  0
LINE
  8
0
  6
CENTER
 62
     7
 10
367.5
 20
12.5
 11
367.5
 21
-1
  0
LINE
  8
0
  6
CONTINUOUS
 62
     7
 10
266
 20
165
 11
364
 21
165
  0
LINE
  8
0
  6
CONTINUOUS
 62
     7
 10
266
 20
189.19970703125
 11
364
 21
189.19970703125
  0
LINE
  8
0
  6
CONTINUOUS
 62
     7
 10
266
 20
210.7998046875
 11
364
 21
210.7998046875
  0
LINE
  8
0
  6
CENTER
 62
     7
 10
134
 20
224.99951171875
 11
496
 21
224.99951171875
  0
LINE
  8
0
  6
CONTINUOUS
 62
     7
 10
249
 20
183
 11
266
 21
183
  0
LINE
  8
0
  6
CONTINUOUS
 62
     7
 10
247
 20
183.5
 11
249
 21
183.5
  0
LINE
  8
0
  6
CONTINUOUS
 62
     7
 10
245.5
 20
200.5
 11
247
 21
200.5
  0
LINE
  8
0
  6
CENTER
 62
     7
 10
275
 20
181.9990234375
 11
275
 21
168
  0
LINE
  8
0
  6
CENTER
 62
     7
 10
268.00048828125
 20
174.99951171875
 11
281.99951171875
 21
174.99951171875
  0
LINE
  8
0
  6
CONTINUOUS
 62
     7
 10
135
 20
208
 11
245.5
 21
208
  0
LINE
  8
0
  6
CONTINUOUS
 62
     7
 10
266
 20
284.9990234375
 11
364
 21
284.9990234375
  0
LINE
  8
0
  6
CONTINUOUS
 62
     7
 10
247
 20
183.5
 11
247
 21
266.4990234375
  0
LINE
  8
0
  6
CONTINUOUS
 62
     7
 10
266
 20
165
 11
266
 21
284.9990234375
  0
LINE
  8
0
  6
CONTINUOUS
 62
     7
 10
135
 20
202.5
 11
135
 21
247.4990234375
  0
LINE
  8
0
  6
CONTINUOUS
 62
     7
 10
249
 20
183
 11
249
 21
266.9990234375
  0
LINE
  8
0
  6
CONTINUOUS
 62
     7
 10
245.5
 20
200.5
 11
245.5
 21
219.99951171875
  0
LINE
  8
0
  6
CONTINUOUS
 62
     7
 10
266
 20
239.19921875
 11
364
 21
239.19921875
  0
LINE
  8
0
  6
CONTINUOUS
 62
     7
 10
266
 20
260.79931640625
 11
364
 21
260.79931640625
  0
LINE
  8
0
  6
CONTINUOUS
 62
     7
 10
135
 20
241.9990234375
 11
245.5
 21
241.9990234375
  0
LINE
  8
0
  6
CENTER
 62
     7
 10
275
 20
268
 11
275
 21
281.9990234375
  0
LINE
  8
0
  6
CENTER
 62
     7
 10
268.00048828125
 20
274.99951171875
 11
281.99951171875
 21
274.99951171875
  0
LINE
  8
0
  6
CONTINUOUS
 62
     7
 10
245.5
 20
249.4990234375
 11
247
 21
249.4990234375
  0
LINE
  8
0
  6
CONTINUOUS
 62
     7
 10
247
 20
266.4990234375
 11
249
 21
266.4990234375
  0
LINE
  8
0
  6
CONTINUOUS
 62
     7
 10
249
 20
266.9990234375
 11
266
 21
266.9990234375
  0
LINE
  8
0
  6
CONTINUOUS
 62
     7
 10
384.5
 20
200.5
 11
384.5
 21
249.4990234375
  0
LINE
  8
0
  6
CONTINUOUS
 62
     7
 10
383
 20
183.5
 11
383
 21
266.4990234375
  0
LINE
  8
0
  6
CONTINUOUS
 62
     7
 10
495
 20
208
 11
384.5
 21
208
  0
LINE
  8
0
  6
CENTER
 62
     7
 10
355
 20
181.9990234375
 11
355
 21
168
  0
LINE
  8
0
  6
CENTER
 62
     7
 10
361.99951171875
 20
174.99951171875
 11
348.00048828125
 21
174.99951171875
  0
LINE
  8
0
  6
CONTINUOUS
 62
     7
 10
384.5
 20
200.5
 11
383
 21
200.5
  0
LINE
  8
0
  6
CONTINUOUS
 62
     7
 10
383
 20
183.5
 11
381
 21
183.5
  0
LINE
  8
0
  6
CONTINUOUS
 62
     7
 10
381
 20
183
 11
364
 21
183
  0
LINE
  8
0
  6
CONTINUOUS
 62
     7
 10
381
 20
183
 11
381
 21
266.9990234375
  0
LINE
  8
0
  6
CONTINUOUS
 62
     7
 10
364
 20
165
 11
364
 21
284.9990234375
  0
LINE
  8
0
  6
CONTINUOUS
 62
     7
 10
495
 20
241.9990234375
 11
384.5
 21
241.9990234375
  0
LINE
  8
0
  6
CONTINUOUS
 62
     7
 10
384.5
 20
249.4990234375
 11
383
 21
249.4990234375
  0
LINE
  8
0
  6
CONTINUOUS
 62
     7
 10
383
 20
266.4990234375
 11
381
 21
266.4990234375
  0
LINE
  8
0
  6
CONTINUOUS
 62
     7
 10
381
 20
266.9990234375
 11
364
 21
266.9990234375
  0
LINE
  8
0
  6
CENTER
 62
     7
 10
355
 20
268
 11
355
 21
281.9990234375
  0
LINE
  8
0
  6
CENTER
 62
     7
 10
361.99951171875
 20
274.99951171875
 11
348.00048828125
 21
274.99951171875
  0
LINE
  8
0
  6
CENTER
 62
     7
 10
157.5
 20
235.9990234375
 11
157.5
 21
214
  0
LINE
  8
0
  6
CENTER
 62
     7
 10
262.5
 20
235.9990234375
 11
262.5
 21
214
  0
LINE
  8
0
  6
CENTER
 62
     7
 10
367.5
 20
235.9990234375
 11
367.5
 21
214
  0
LINE
  8
0
  6
CENTER
 62
     7
 10
472.5
 20
235.9990234375
 11
472.5
 21
214
  0
LINE
  8
0
  6
CENTER
 62
     7
 10
231.9628448486328
 20
211.9108734130859
 11
237.5417785644531
 21
225.3795928955078
  0
LINE
  8
0
  6
CONTINUOUS
 62
     7
 10
230.3830261230469
 20
214.3683471679688
 11
234.8176422119141
 21
212.5314636230469
  0
LINE
  8
0
  6
CONTINUOUS
 62
     7
 10
230.5847778320313
 20
217.2072143554688
 11
236.682373046875
 21
214.6815185546875
  0
LINE
  8
0
  6
CONTINUOUS
 62
     7
 10
230.3830413818359
 20
214.3683471679688
 11
230.5848083496094
 21
217.2072448730469
  0
LINE
  8
0
  6
CONTINUOUS
 62
     7
 10
234.8176879882813
 20
212.5314788818359
 11
236.6824188232422
 21
214.6815338134766
  0
LINE
  8
0
  6
CONTINUOUS
 62
     7
 10
231.3235015869141
 20
220.9281158447266
 11
231.7381744384766
 21
221.9291839599609
  0
LINE
  8
0
  6
CONTINUOUS
 62
     7
 10
238.7911071777344
 20
217.8349304199219
 11
239.2057647705078
 21
218.8359832763672
  0
LINE
  8
0
  6
CONTINUOUS
 62
     7
 10
232.5176391601563
 20
222.2519683837891
 11
231.7381896972656
 21
221.9291076660156
  0
LINE
  8
0
  6
CONTINUOUS
 62
     7
 10
232.9608001708984
 20
219.6005096435547
 11
233.8333587646484
 21
221.7070465087891
  0
LINE
  8
0
  6
CONTINUOUS
 62
     7
 10
236.694580078125
 20
218.0539245605469
 11
237.567138671875
 21
220.1604461669922
  0
LINE
  8
0
  6
CONTINUOUS
 62
     7
 10
231.8787384033203
 20
222.5166778564453
 11
238.8829040527344
 21
219.6154632568359
  0
LINE
  8
0
  6
CONTINUOUS
 62
     7
 10
239.2057647705078
 20
218.8359375
 11
238.8829040527344
 21
219.6153869628906
  0
LINE
  8
0
  6
CONTINUOUS
 62
     7
 10
231.7150726318359
 20
218.6294097900391
 11
236.8887939453125
 21
216.4863739013672
  0
LINE
  8
0
  6
CONTINUOUS
 62
     7
 10
242.2999877929688
 20
229.99951171875
 11
242.2999877929688
 21
219.99951171875
  0
LINE
  8
0
  6
CONTINUOUS
 62
     7
 10
231.8000030517578
 20
226.7994995117188
 11
231.8000030517578
 21
223.1448059082031
  0
LINE
  8
0
  6
CONTINUOUS
 62
     7
 10
242.2999877929688
 20
229.99951171875
 11
247
 21
229.99951171875
  0
LINE
  8
0
  6
CONTINUOUS
 62
     7
 10
234.8000030517578
 20
229.7994995117188
 11
242.2999877929688
 21
229.7994995117188
  0
LINE
  8
0
  6
CONTINUOUS
 62
     7
 10
237.4728698730469
 20
220.1995086669922
 11
242.2999877929688
 21
220.1995086669922
  0
LINE
  8
0
  6
CONTINUOUS
 62
     7
 10
242.2999877929688
 20
219.99951171875
 11
247
 21
219.99951171875
  0
LINE
  8
0
  6
CONTINUOUS
 62
     7
 10
245.5
 20
229.99951171875
 11
245.5
 21
249.4990234375
  0
LINE
  8
0
  6
CONTINUOUS
 62
     7
 10
231.5532989501953
 20
220.1835327148438
 11
238.1020965576172
 21
217.4709320068359
  0
LINE
  8
0
  6
CONTINUOUS
 62
     7
 10
135
 20
247.49951171875
 11
245.5
 21
247.49951171875
  0
LINE
  8
0
  6
CONTINUOUS
 62
     7
 10
135
 20
202.49951171875
 11
245.5
 21
202.49951171875
  0
LINE
  8
0
  6
CONTINUOUS
 62
     7
 10
495
 20
247.49951171875
 11
384.5
 21
247.49951171875
  0
LINE
  8
0
  6
CONTINUOUS
 62
     7
 10
495
 20
202.5
 11
495
 21
247.4990234375
  0
LINE
  8
0
  6
CONTINUOUS
 62
     7
 10
495
 20
202.49951171875
 11
384.5
 21
202.49951171875
  0
LINE
  8
0
  6
CENTER
 62
     7
 10
-0.00048828125
 20
61
 11
-0.00048828125
 21
-1
  0
LINE
  8
0
  6
CONTINUOUS
 62
     7
 10
266
 20
46
 11
364
 21
46
  0
LINE
  8
0
  6
CONTINUOUS
 62
     7
 10
21.32541465759277
 20
12.99880504608154
 11
17.99704551696777
 21
16.32718467712402
  0
LINE
  8
0
  6
CONTINUOUS
 62
     7
 10
-60.00048828125
 20
46
 11
-59.00048828125
 21
45
  0
LINE
  8
0
  6
CONTINUOUS
 62
     7
 10
59.99951171875
 20
45.9998779296875
 11
58.99951171875
 21
44.9998779296875
  0
ARC
  8
0
  6
CONTINUOUS
 62
     7
 10
-50.912109375
 20
31
 40
4.000000000000001
 50
9.999977510978138
 51
89.9999273723973
  0
ARC
  8
0
  6
CONTINUOUS
 62
     7
 10
52.6748046875
 20
41
 40
3.999999999999998
 50
90.00009129693737
 51
170.000020667789
  0
ARC
  8
0
  6
CONTINUOUS
 62
     7
 10
50.91162109375
 20
31
 40
3.999999999999998
 50
89.99998201391067
 51
169.9999660262757
  0
ARC
  8
0
  6
DASHED
 62
     7
 10
-46.515625
 20
41
 40
4.000000000000001
 50
1.999995929082482
 51
89.99998201391067
  0
ARC
  8
0
  6
CONTINUOUS
 62
     7
 10
8.44677734375
 20
47.70999145507813
 40
0.9683421850204466
 50
215.3314570768741
 51
278.297222506794
  0
ARC
  8
0
  6
CONTINUOUS
 62
     7
 10
7.45654296875
 20
45.92001342773438
 40
1.246148109436035
 50
80.76452806729958
 51
142.1250351177264
  0
ARC
  8
0
  6
CONTINUOUS
 62
     7
 10
7.45654296875
 20
54.08001708984375
 40
1.254199028015138
 50
217.8749648822736
 51
279.2353626496737
  0
ARC
  8
0
  6
CONTINUOUS
 62
     7
 10
8.44677734375
 20
52.29000854492188
 40
0.9701611995697048
 50
81.70288677623267
 51
144.668542923126
  0
ARC
  8
0
  6
CONTINUOUS
 62
     7
 10
0
 20
50
 40
4.79999923706055
 50
46.95109601507203
 51
313.1834072577874
  0
ARC
  8
0
  6
CONTINUOUS
 62
     7
 10
-21.98876953125
 20
37.22198486328125
 40
4.129999160766598
 50
271.1280373878953
 51
358.8720646948982
  0
ARC
  8
0
  6
CONTINUOUS
 62
     7
 10
-21.98876953125
 20
22.77899169921875
 40
4.129999160766602
 50
1.113842917296742
 51
88.88611476406494
  0
ARC
  8
0
  6
CONTINUOUS
 62
     7
 10
21.98828125
 20
37.22198486328125
 40
4.129999160766602
 50
181.1279460909578
 51
268.8720532257968
  0
ARC
  8
0
  6
CONTINUOUS
 62
     7
 10
21.98828125
 20
22.77899169921875
 40
4.129999160766603
 50
91.11379462224296
 51
178.886151419489
  0
ARC
  8
0
  6
CONTINUOUS
 62
     7
 10
-25.91312980651856
 20
13.17321300506592
 40
2.348390579223632
 50
244.6101831051576
 51
345.3810524212874
  0
ARC
  8
0
  6
CONTINUOUS
 62
     7
 10
25.90956497192383
 20
13.17487525939941
 40
2.348390579223634
 50
194.6039639649064
 51
295.3897982255077
  0
ARC
  8
0
  6
CONTINUOUS
 62
     7
 10
234.7998046875
 20
48.199951171875
 40
3.000000000000005
 50
195.642863058422
 51
270.000072627603
  0
ARC
  8
0
  6
CONTINUOUS
 62
     7
 10
234.7998046875
 20
51.800048828125
 40
2.999999999999999
 50
89.99998201391043
 51
165.8646416536699
  0
ARC
  8
0
  6
CONTINUOUS
 62
     7
 10
350
 20
41
 40
3.999999999999998
 50
89.99998201391097
 51
179.9999640278213
  0
ARC
  8
0
  6
CONTINUOUS
 62
     7
 10
280
 20
41
 40
4
 50
0
 51
89.99998201391097
  0
ARC
  8
0
  6
CONTINUOUS
 62
     7
 10
-52.6748046875
 20
41
 40
3.999999999999999
 50
9.999979218525386
 51
89.99990688182979
  0
CIRCLE
  8
0
  6
CONTINUOUS
 62
     7
 10
275
 20
174.99951171875
 40
5.1494140625
  0
CIRCLE
  8
0
  6
CONTINUOUS
 62
     7
 10
275
 20
174.99951171875
 40
5.99951171875
  0
CIRCLE
  8
0
  6
CONTINUOUS
 62
     7
 10
157.5
 20
224.99951171875
 40
6.99951171875
  0
CIRCLE
  8
0
  6
CONTINUOUS
 62
     7
 10
157.5
 20
224.99951171875
 40
9.99951171875
  0
ARC
  8
0
  6
CONTINUOUS
 62
     7
 10
233.6335906982422
 20
215.9444122314453
 40
3.299999237060546
 50
131.5803705110077
 51
157.4999548639651
  0
ARC
  8
0
  6
CONTINUOUS
 62
     7
 10
233.6335906982422
 20
215.9444122314453
 40
3.299999237060545
 50
337.5000181569009
 51
3.419602296415186
  0
ARC
  8
0
  6
CONTINUOUS
 62
     7
 10
225.7172393798828
 20
218.7904968261719
 40
6.00000000000001
 50
2.43365082934552
 51
20.87173987704925
  0
ARC
  8
0
  6
CONTINUOUS
 62
     7
 10
241.2437896728516
 20
212.3591918945313
 40
6.000000000000011
 50
114.1278165022775
 51
132.5663219780772
  0
ARC
  8
0
  6
CONTINUOUS
 62
     7
 10
230.9125366210938
 20
219.0113067626953
 40
0.7999999523162822
 50
311.5798327472963
 51
2.433049772698627
  0
ARC
  8
0
  6
CONTINUOUS
 62
     7
 10
237.7262878417969
 20
216.18896484375
 40
0.7999999523162747
 50
132.5669776762372
 51
183.4201402735692
  0
ARC
  8
0
  6
CONTINUOUS
 62
     7
 10
234.8000030517578
 20
226.7994995117188
 40
3.000000000000006
 50
89.99998201391043
 51
179.9999640278214
  0
ARC
  8
0
  6
CONTINUOUS
 62
     7
 10
234.8000030517578
 20
223.1995239257813
 40
3
 50
180.000090613692
 51
193.1569474081041
  0
POLYLINE
  8
0
  6
CONTINUOUS
 62
     7
 66
     1
 10
0
 20
0
  0
VERTEX
  8
0
  6
CONTINUOUS
 62
     7
 10
7.65673828125
 20
52.8499755859375
 42
0.1885790530620917
  0
VERTEX
  8
0
  6
CONTINUOUS
 62
     7
 10
7.297012469978895
 20
52.69028282126916
 42
0.07574286071083494
  0
VERTEX
  8
0
  6
CONTINUOUS
 62
     7
 10
7.052784042151951
 20
52.37244423238451
 42
0.03933462110625813
  0
VERTEX
  8
0
  6
CONTINUOUS
 62
     7
 10
6.8829265466841
 20
52.00711096490753
 42
0.02577034833717672
  0
VERTEX
  8
0
  6
CONTINUOUS
 62
     7
 10
6.760774539972444
 20
51.62296168191497
 42
0.01950453081809326
  0
VERTEX
  8
0
  6
CONTINUOUS
 62
     7
 10
6.673284950010975
 20
51.22875177003351
 42
0.01621404649323011
  0
VERTEX
  8
0
  6
CONTINUOUS
 62
     7
 10
6.61392486892113
 20
50.8291628770906
 42
0.01446604098187706
  0
VERTEX
  8
0
  6
CONTINUOUS
 62
     7
 10
6.579056345079696
 20
50.42664034642303
 42
0.01369080229126065
  0
VERTEX
  8
0
  6
CONTINUOUS
 62
     7
 10
6.566806515938317
 20
50.02249833670574
 42
0.01360437776980427
  0
VERTEX
  8
0
  6
CONTINUOUS
 62
     7
 10
6.576520741338085
 20
49.61965517260344
 42
0.01431478385453848
  0
VERTEX
  8
0
  6
CONTINUOUS
 62
     7
 10
6.60866762523204
 20
49.21740564109854
 42
0.01598133335626418
  0
VERTEX
  8
0
  6
CONTINUOUS
 62
     7
 10
6.665174924350094
 20
48.81658920383068
 42
0.01902614913514272
  0
VERTEX
  8
0
  6
CONTINUOUS
 62
     7
 10
6.749231990678661
 20
48.42143697947838
 42
0.02487902589733476
  0
VERTEX
  8
0
  6
CONTINUOUS
 62
     7
 10
6.867241990205246
 20
48.03504136403191
 42
0.03729518211693288
  0
VERTEX
  8
0
  6
CONTINUOUS
 62
     7
 10
7.031310048141035
 20
47.66585711814026
 42
0.06998195583866788
  0
VERTEX
  8
0
  6
CONTINUOUS
 62
     7
 10
7.266887708206286
 20
47.33852339800191
 42
0.1738262463575566
  0
VERTEX
  8
0
  6
CONTINUOUS
 62
     7
 10
7.616650115839598
 20
47.15192160149007
 42
0
  0
SEQEND
  8
0
  0
POLYLINE
  8
0
  6
CONTINUOUS
 62
     7
 66
     1
 10
0
 20
0
 70
     1
  0
VERTEX
  8
0
  6
CONTINUOUS
 62
     7
 10
232.60009765625
 20
52.5
 42
0.110370772420953
  0
VERTEX
  8
0
  6
CONTINUOUS
 62
     7
 10
231.6879422785491
 20
52.29496581396997
 42
0.1025026807527424
  0
VERTEX
  8
0
  6
CONTINUOUS
 62
     7
 10
230.9406052306661
 20
51.73095939113222
 42
0.09329151917971948
  0
VERTEX
  8
0
  6
CONTINUOUS
 62
     7
 10
230.4629941101996
 20
50.92406969327448
 42
0.08782585329616187
  0
VERTEX
  8
0
  6
CONTINUOUS
 62
     7
 10
230.3001098632813
 20
49.99996948242188
 42
0.08777281658713958
  0
VERTEX
  8
0
  6
CONTINUOUS
 62
     7
 10
230.4628082129894
 20
49.07634522977311
 42
0.09326597221226621
  0
VERTEX
  8
0
  6
CONTINUOUS
 62
     7
 10
230.940090133939
 20
48.26952965934301
 42
0.1026382713410044
  0
VERTEX
  8
0
  6
CONTINUOUS
 62
     7
 10
231.688300385534
 20
47.70480347368847
 42
0.1103351113878603
  0
VERTEX
  8
0
  6
CONTINUOUS
 62
     7
 10
232.60009765625
 20
47.50000000000001
 42
0.1103748893970776
  0
VERTEX
  8
0
  6
CONTINUOUS
 62
     7
 10
233.5122562947003
 20
47.7050165496549
 42
0.1025062677357195
  0
VERTEX
  8
0
  6
CONTINUOUS
 62
     7
 10
234.2595945741375
 20
48.2690205121683
 42
0.09329191866580165
  0
VERTEX
  8
0
  6
CONTINUOUS
 62
     7
 10
234.7372013556404
 20
49.07591256611261
 42
0.08782460297149504
  0
VERTEX
  8
0
  6
CONTINUOUS
 62
     7
 10
234.9000854492188
 20
50.00003051757813
 42
0.08777107284864937
  0
VERTEX
  8
0
  6
CONTINUOUS
 62
     7
 10
234.7373668134703
 20
50.9236513475929
 42
0.09326229352395343
  0
VERTEX
  8
0
  6
CONTINUOUS
 62
     7
 10
234.2600760461648
 20
51.73046217158974
 42
0.1026354550275708
  0
VERTEX
  8
0
  6
CONTINUOUS
 62
     7
 10
233.5118669996533
 20
52.29519106047429
 42
0.11033366084015
  0
SEQEND
  8
0
  0
POLYLINE
  8
0
  6
CONTINUOUS
 62
     7
 66
     1
 10
0
 20
0
  0
VERTEX
  8
0
  6
CONTINUOUS
 62
     7
 10
231.60009765625
 20
47.760009765625
 42
0.06376029118692894
  0
VERTEX
  8
0
  6
CONTINUOUS
 62
     7
 10
232.1955078005269
 20
47.23070038091916
 42
0.07492494478780873
  0
VERTEX
  8
0
  6
CONTINUOUS
 62
     7
 10
232.9133005787867
 20
46.88423289373181
 42
0.06467264335482401
  0
VERTEX
  8
0
  6
CONTINUOUS
 62
     7
 10
233.69970703125
 20
46.75
 42
0
  0
SEQEND
  8
0
  0
POLYLINE
  8
0
  6
CONTINUOUS
 62
     7
 66
     1
 10
0
 20
0
  0
VERTEX
  8
0
  6
CONTINUOUS
 62
     7
 10
231.4756379931647
 20
47.81887471300345
 42
0.06283267329369985
  0
VERTEX
  8
0
  6
CONTINUOUS
 62
     7
 10
232.0399364964589
 20
47.29270334585704
 42
0.06649799646167194
  0
VERTEX
  8
0
  6
CONTINUOUS
 62
     7
 10
232.7199375400122
 20
46.92820165708287
 42
0.06915648590770325
  0
VERTEX
  8
0
  6
CONTINUOUS
 62
     7
 10
233.4722927047955
 20
46.75934906873729
 42
0.06974762858014413
  0
VERTEX
  8
0
  6
CONTINUOUS
 62
     7
 10
234.2410473517065
 20
46.80334455939578
 42
0.06816445913960809
  0
VERTEX
  8
0
  6
CONTINUOUS
 62
     7
 10
234.9688913398151
 20
47.05516173069817
 42
0.06499671845140256
  0
VERTEX
  8
0
  6
CONTINUOUS
 62
     7
 10
235.6054572291136
 20
47.48999143303036
 42
0.0612913073359721
  0
VERTEX
  8
0
  6
CONTINUOUS
 62
     7
 10
236.1135138871738
 20
48.07009213833725
 42
0.05807950063058468
  0
VERTEX
  8
0
  6
CONTINUOUS
 62
     7
 10
236.4705098308544
 20
48.75408583671585
 42
0.05590477853785251
  0
VERTEX
  8
0
  6
CONTINUOUS
 62
     7
 10
236.6641685049198
 20
49.50122903003001
 42
0.05496936152542711
  0
VERTEX
  8
0
  6
CONTINUOUS
 62
     7
 10
236.6891808986411
 20
50.2719506747404
 42
0.05547216802165974
  0
VERTEX
  8
0
  6
CONTINUOUS
 62
     7
 10
236.54509459639
 20
51.02983792045884
 42
0.05727847919467816
  0
VERTEX
  8
0
  6
CONTINUOUS
 62
     7
 10
236.2356835202953
 20
51.73627824144839
 42
0.06026661679233625
  0
VERTEX
  8
0
  6
CONTINUOUS
 62
     7
 10
235.770447905635
 20
52.35158909110005
 42
0.06395161668954166
  0
VERTEX
  8
0
  6
CONTINUOUS
 62
     7
 10
235.1682466920413
 20
52.83397326341307
 42
0.0674455326418326
  0
VERTEX
  8
0
  6
CONTINUOUS
 62
     7
 10
234.461593212906
 20
53.14344227744402
 42
0.06944367498441893
  0
VERTEX
  8
0
  6
CONTINUOUS
 62
     7
 10
233.69970703125
 20
53.25
 42
0
  0
SEQEND
  8
0
  0
POLYLINE
  8
0
  6
CONTINUOUS
 62
     7
 66
     1
 10
0
 20
0
  0
VERTEX
  8
0
  6
CONTINUOUS
 62
     7
 10
231.6180423858298
 20
52.26086161930515
 42
-0.06330010770496208
  0
VERTEX
  8
0
  6
CONTINUOUS
 62
     7
 10
232.2107419470206
 20
52.7796387223787
 42
-0.07404596770285817
  0
VERTEX
  8
0
  6
CONTINUOUS
 62
     7
 10
232.9220866237345
 20
53.11848867594964
 42
-0.06385083221893084
  0
VERTEX
  8
0
  6
CONTINUOUS
 62
     7
 10
233.69970703125
 20
53.25
 42
0
  0
SEQEND
  8
0
  0
POLYLINE
  8
0
  6
CONTINUOUS
 62
     7
 66
     1
 10
0
 20
0
 70
     1
  0
VERTEX
  8
0
  6
CONTINUOUS
 62
     7
 10
11.3564453125
 20
52.5
 42
0.2551559077435501
  0
VERTEX
  8
0
  6
CONTINUOUS
 62
     7
 10
10.8266451763349
 20
52.07510298380165
 42
0.06318716643625265
  0
VERTEX
  8
0
  6
CONTINUOUS
 62
     7
 10
10.57254947669282
 20
51.41221863911371
 42
0.03518424448721587
  0
VERTEX
  8
0
  6
CONTINUOUS
 62
     7
 10
10.44581035999841
 20
50.71217274319396
 42
0.02798380700959435
  0
VERTEX
  8
0
  6
CONTINUOUS
 62
     7
 10
10.40643310546875
 20
50
 42
0.0278979110938743
  0
VERTEX
  8
0
  6
CONTINUOUS
 62
     7
 10
10.44558162895817
 20
49.28985550033519
 42
0.03515802421045342
  0
VERTEX
  8
0
  6
CONTINUOUS
 62
     7
 10
10.57208489539487
 20
48.58956885119711
 42
0.06315148120716103
  0
VERTEX
  8
0
  6
CONTINUOUS
 62
     7
 10
10.8261174067305
 20
47.92583087443368
 42
0.2552811699320491
  0
VERTEX
  8
0
  6
CONTINUOUS
 62
     7
 10
11.3564453125
 20
47.5
 42
0.2551624777527273
  0
VERTEX
  8
0
  6
CONTINUOUS
 62
     7
 10
11.88626090591535
 20
47.92487664408349
 42
0.06319287416773656
  0
VERTEX
  8
0
  6
CONTINUOUS
 62
     7
 10
12.1403606675907
 20
48.58775901249323
 42
0.03518694087392844
  0
VERTEX
  8
0
  6
CONTINUOUS
 62
     7
 10
12.26709313366664
 20
49.28780599171067
 42
0.02798630487670735
  0
VERTEX
  8
0
  6
CONTINUOUS
 62
     7
 10
12.30645751953125
 20
50
 42
0.02789629000261812
  0
VERTEX
  8
0
  6
CONTINUOUS
 62
     7
 10
12.26729386119263
 20
50.71014361286589
 42
0.03515570588153446
  0
VERTEX
  8
0
  6
CONTINUOUS
 62
     7
 10
12.14078106462554
 20
51.41042862185717
 42
0.06314735579096452
  0
VERTEX
  8
0
  6
CONTINUOUS
 62
     7
 10
11.88674766419969
 20
52.07416657057743
 42
0.2552751861923431
  0
SEQEND
  8
0
  0
TEXT
  8
0
  6
CONTINUOUS
 62
     7
 10
-11.28550004959106
 20
-31.79999995231628
 40
3.599999904632568
 41
1.008382419577613
  1
HSR45A
  0
ENDSEC
  0
EOF
