  0
SECTION
  2
HEADER
  0
ENDSEC
  0
SECTION
  2
TABLES
  0
TABLE
  2
LTYPE
 70
    22
  0
LTYPE
  2
CONTINUOUS
 70
    64
  3
Solid line
 72
    65
 73
     0
 40
0.000000
  0
LTYPE
  2
DASHED
 70
    64
  3
__ __ __ __ __ __ __ __ __ __ __ __ __ __ __
 72
    65
 73
     2
 40
3.500000
 49
2.000000
 49
-1.500000
  0
LTYPE
  2
CENTER
 70
    64
  3
____ _ ____ _ ____ _ ____ _ ____ _ ____ _ ____
 72
    65
 73
     4
 40
17.500000
 49
13.000000
 49
-1.500000
 49
1.500000
 49
-1.500000
  0
LTYPE
  2
PHANTOM
 70
    64
  3
_____ _ _ _____ _ _ _____ _ _ _____ _ _ ____  
 72
    65
 73
     6
 40
15.500000
 49
8.000000
 49
-1.500000
 49
1.500000
 49
-1.500000
 49
1.500000
 49
-1.500000
  0
LTYPE
  2
DOT
 70
    64
  3
. . . . . . . . . . . . . . . . . . . . . . . .
 72
    65
 73
     2
 40
0.25
 49
0.0
 49
-0.25
  0
ENDTAB
  0
TABLE
  2
LAYER
 70
     1
  0
LAYER
  2
0
 70
     0
 62
     7
  6
CONTINUOUS
  0
ENDTAB
  0
TABLE
  2
STYLE
 70
     1
  0
STYLE
  2
STANDARD
 70
     0
 40
0.000000
 41
1.000000
 50
0.000000
 71
     0
 42
0.200000
  3
txt
  0
ENDTAB
  0
TABLE
  2
VIEW
 70
     0
  0
ENDTAB
  0
ENDSEC
  0
SECTION
  2
BLOCKS
  0
ENDSEC
  0
SECTION
  2
ENTITIES
  0
LINE
  8
0
  6
CONTINUOUS
 62
     7
 10
247
 20
58
 11
249
 21
58
  0
LINE
  8
0
  6
CONTINUOUS
 62
     7
 10
245.5
 20
39.599853515625
 11
245.5
 21
13
  0
LINE
  8
0
  6
CONTINUOUS
 62
     7
 10
247
 20
58
 11
247
 21
13
  0
LINE
  8
0
  6
CONTINUOUS
 62
     7
 10
249
 20
11.5
 11
266
 21
11.5
  0
LINE
  8
0
  6
CONTINUOUS
 62
     7
 10
245.5
 20
13
 11
249
 21
13
  0
LINE
  8
0
  6
CONTINUOUS
 62
     7
 10
251.0012817382813
 20
58.99868774414063
 11
249.0012817382813
 21
56.99869155883789
  0
LINE
  8
0
  6
CONTINUOUS
 62
     7
 10
245.5
 20
39.599853515625
 11
247
 21
39.599853515625
  0
LINE
  8
0
  6
CONTINUOUS
 62
     7
 10
381
 20
11.5
 11
381
 21
58
  0
LINE
  8
0
  6
CONTINUOUS
 62
     7
 10
364
 20
11.5
 11
381
 21
11.5
  0
LINE
  8
0
  6
CONTINUOUS
 62
     7
 10
381
 20
13
 11
384.5
 21
13
  0
LINE
  8
0
  6
CONTINUOUS
 62
     7
 10
381
 20
58
 11
383
 21
58
  0
LINE
  8
0
  6
CONTINUOUS
 62
     7
 10
384.5
 20
13
 11
384.5
 21
39.599853515625
  0
LINE
  8
0
  6
CONTINUOUS
 62
     7
 10
383
 20
39.599853515625
 11
384.5
 21
39.599853515625
  0
LINE
  8
0
  6
CONTINUOUS
 62
     7
 10
383
 20
13
 11
383
 21
58
  0
LINE
  8
0
  6
CONTINUOUS
 62
     7
 10
381.0009765625
 20
56.99901962280273
 11
379.0008239746094
 21
58.9991455078125
  0
LINE
  8
0
  6
CONTINUOUS
 62
     7
 10
135
 20
38
 11
245.5
 21
38
  0
LINE
  8
0
  6
CONTINUOUS
 62
     7
 10
135
 20
0
 11
495
 21
0
  0
LINE
  8
0
  6
CONTINUOUS
 62
     7
 10
242.86181640625
 20
55.853515625
 11
246.43798828125
 21
55.853515625
  0
LINE
  8
0
  6
CONTINUOUS
 62
     7
 10
242.30029296875
 20
45.19979858398438
 11
234.80029296875
 21
45.19979858398438
  0
LINE
  8
0
  6
CONTINUOUS
 62
     7
 10
234.80029296875
 20
54.79989624023438
 11
242.30029296875
 21
54.79989624023438
  0
LINE
  8
0
  6
CONTINUOUS
 62
     7
 10
242.2998046875
 20
54.8798828125
 11
242.2998046875
 21
50
  0
LINE
  8
0
  6
CONTINUOUS
 62
     7
 10
247
 20
54.7998046875
 11
247
 21
49.919921875
  0
LINE
  8
0
  6
CONTINUOUS
 62
     7
 10
242.2998046875
 20
52.966796875
 11
247
 21
52.966796875
  0
LINE
  8
0
  6
CONTINUOUS
 62
     7
 10
242.3016510009766
 20
54.87892532348633
 11
242.8636932373047
 21
55.85240936279297
  0
LINE
  8
0
  6
CONTINUOUS
 62
     7
 10
249
 20
58
 11
249
 21
11.5
  0
LINE
  8
0
  6
CONTINUOUS
 62
     7
 10
247.00048828125
 20
47.03305053710938
 11
242.30029296875
 21
47.03305053710938
  0
LINE
  8
0
  6
CONTINUOUS
 62
     7
 10
246.4384765625
 20
44.14633178710938
 11
242.8623046875
 21
44.14633178710938
  0
LINE
  8
0
  6
CONTINUOUS
 62
     7
 10
242.8622131347656
 20
44.14604949951172
 11
242.3002014160156
 21
45.11948013305664
  0
LINE
  8
0
  6
CONTINUOUS
 62
     7
 10
242.30029296875
 20
49.99984741210938
 11
242.30029296875
 21
45.11972045898438
  0
LINE
  8
0
  6
CONTINUOUS
 62
     7
 10
232.64990234375
 20
53.580078125
 11
237.224609375
 21
53.580078125
  0
LINE
  8
0
  6
CONTINUOUS
 62
     7
 10
247.00048828125
 20
45.04000854492188
 11
247.00048828125
 21
49.91989135742188
  0
LINE
  8
0
  6
CONTINUOUS
 62
     7
 10
236.3511962890625
 20
53.57899475097656
 11
238.1910552978516
 21
49.99926376342773
  0
LINE
  8
0
  6
CONTINUOUS
 62
     7
 10
232.2543029785156
 20
52.80622100830078
 11
232.6514892578125
 21
53.57899475097656
  0
LINE
  8
0
  6
CONTINUOUS
 62
     7
 10
237.2260589599609
 20
53.57887268066406
 11
239.066162109375
 21
49.99868011474609
  0
LINE
  8
0
  6
CONTINUOUS
 62
     7
 10
247.0015106201172
 20
45.11899185180664
 11
246.4394683837891
 21
44.1455078125
  0
LINE
  8
0
  6
CONTINUOUS
 62
     7
 10
246.4383239746094
 20
55.8530387878418
 11
247.0005798339844
 21
54.87918472290039
  0
LINE
  8
0
  6
CONTINUOUS
 62
     7
 10
239.0667114257813
 20
49.99888229370117
 11
237.2266998291016
 21
46.41884613037109
  0
LINE
  8
0
  6
CONTINUOUS
 62
     7
 10
238.1916351318359
 20
49.99892807006836
 11
236.3516387939453
 21
46.41891860961914
  0
LINE
  8
0
  6
CONTINUOUS
 62
     7
 10
232.6509552001953
 20
46.41882705688477
 11
232.2536468505859
 21
47.19184494018555
  0
LINE
  8
0
  6
CENTER
 62
     7
 10
228.32373046875
 20
50
 11
248.69921875
 21
50
  0
LINE
  8
0
  6
CONTINUOUS
 62
     7
 10
237.2255859375
 20
46.41976928710938
 11
232.650390625
 21
46.41976928710938
  0
LINE
  8
0
  6
CONTINUOUS
 62
     7
 10
135
 20
38
 11
135
 21
0
  0
LINE
  8
0
  6
CONTINUOUS
 62
     7
 10
135
 20
32.49996948242188
 11
245.5
 21
32.49996948242188
  0
LINE
  8
0
  6
CONTINUOUS
 62
     7
 10
135
 20
27.5
 11
245.5
 21
27.5
  0
LINE
  8
0
  6
CONTINUOUS
 62
     7
 10
135
 20
20.99912452697754
 11
245.5
 21
20.99912452697754
  0
LINE
  8
0
  6
CONTINUOUS
 62
     7
 10
135
 20
15.5
 11
245.5
 21
15.5
  0
LINE
  8
0
  6
CONTINUOUS
 62
     7
 10
135
 20
8.999969482421875
 11
495
 21
8.999969482421875
  0
LINE
  8
0
  6
CENTER
 62
     7
 10
157.5
 20
39
 11
157.5
 21
-1
  0
LINE
  8
0
  6
DASHED
 62
     7
 10
167.49951171875
 20
38
 11
167.49951171875
 21
21
  0
LINE
  8
0
  6
DASHED
 62
     7
 10
147.49951171875
 20
38
 11
147.49951171875
 21
21
  0
LINE
  8
0
  6
DASHED
 62
     7
 10
150.49951171875
 20
21
 11
150.49951171875
 21
0
  0
LINE
  8
0
  6
DASHED
 62
     7
 10
164.49951171875
 20
21
 11
164.49951171875
 21
0
  0
LINE
  8
0
  6
DASHED
 62
     7
 10
147.49951171875
 20
21
 11
167.49951171875
 21
21
  0
LINE
  8
0
  6
CONTINUOUS
 62
     7
 10
495
 20
38
 11
384.5
 21
38
  0
LINE
  8
0
  6
CONTINUOUS
 62
     7
 10
495
 20
15.5
 11
384.5
 21
15.5
  0
LINE
  8
0
  6
CONTINUOUS
 62
     7
 10
495
 20
27.5
 11
384.5
 21
27.5
  0
LINE
  8
0
  6
CONTINUOUS
 62
     7
 10
495
 20
38
 11
495
 21
0
  0
LINE
  8
0
  6
CONTINUOUS
 62
     7
 10
495
 20
32.49996948242188
 11
384.5
 21
32.49996948242188
  0
LINE
  8
0
  6
CONTINUOUS
 62
     7
 10
495
 20
20.99912452697754
 11
384.5
 21
20.99912452697754
  0
LINE
  8
0
  6
CENTER
 62
     7
 10
472.5
 20
39
 11
472.5
 21
-1
  0
LINE
  8
0
  6
CENTER
 62
     7
 10
262.5
 20
12.5
 11
262.5
 21
-1
  0
LINE
  8
0
  6
CENTER
 62
     7
 10
367.5
 20
12.5
 11
367.5
 21
-1
  0
LINE
  8
0
  6
CONTINUOUS
 62
     7
 10
-17.828125
 20
40
 11
17.82861328125
 21
40
  0
LINE
  8
0
  6
CONTINUOUS
 62
     7
 10
-24.49858474731445
 20
33.32744979858398
 11
-17.82699394226074
 21
39.99904632568359
  0
LINE
  8
0
  6
CONTINUOUS
 62
     7
 10
-24.49951171875
 20
26.67156982421875
 11
-24.49951171875
 21
33.32839965820313
  0
LINE
  8
0
  6
CONTINUOUS
 62
     7
 10
-24.49847412109375
 20
26.67061042785645
 11
-17.99847793579102
 21
20.17061424255371
  0
LINE
  8
0
  6
CONTINUOUS
 62
     7
 10
-17.99951171875
 20
16.32839965820313
 11
-17.99951171875
 21
20.17156982421875
  0
LINE
  8
0
  6
CONTINUOUS
 62
     7
 10
-21.32602310180664
 20
12.99848175048828
 11
-17.99765586853027
 21
16.32686042785645
  0
LINE
  8
0
  6
CONTINUOUS
 62
     7
 10
0.0003797203535214067
 20
55.7733039855957
 11
-4.999775409698486
 21
52.8864631652832
  0
LINE
  8
0
  6
CONTINUOUS
 62
     7
 10
-4.998331069946289
 20
47.11245727539063
 11
0.001613069442100823
 21
44.22573852539063
  0
LINE
  8
0
  6
CONTINUOUS
 62
     7
 10
-5
 20
52.88671875
 11
-5
 21
47.11318969726563
  0
LINE
  8
0
  6
CONTINUOUS
 62
     7
 10
41.99951171875
 20
55.99996948242188
 11
41.99951171875
 21
14.5
  0
LINE
  8
0
  6
CONTINUOUS
 62
     7
 10
39.0023193359375
 20
58.99847412109375
 11
42.00229263305664
 21
55.99848937988281
  0
LINE
  8
0
  6
CONTINUOUS
 62
     7
 10
42.00246429443359
 20
12.99742794036865
 11
39.0024299621582
 21
9.997409820556641
  0
LINE
  8
0
  6
CONTINUOUS
 62
     7
 10
29.99951171875
 20
10
 11
38.99951171875
 21
10
  0
LINE
  8
0
  6
CONTINUOUS
 62
     7
 10
41.49951171875
 20
55.99996948242188
 11
41.49951171875
 21
15
  0
LINE
  8
0
  6
CONTINUOUS
 62
     7
 10
18.49951171875
 20
13
 11
39.49951171875
 21
13
  0
LINE
  8
0
  6
CONTINUOUS
 62
     7
 10
41.50165176391602
 20
14.99794578552246
 11
39.50168609619141
 21
12.99799346923828
  0
LINE
  8
0
  6
CONTINUOUS
 62
     7
 10
39.50164413452148
 20
57.99897384643555
 11
41.50177383422852
 21
55.99884414672852
  0
LINE
  8
0
  6
CONTINUOUS
 62
     7
 10
30.08160591125488
 20
9.962094306945801
 11
23.56680488586426
 21
13
  0
LINE
  8
0
  6
CONTINUOUS
 62
     7
 10
-40.5
 20
10.5
 11
-39.50502395629883
 21
10.5
  0
LINE
  8
0
  6
CONTINUOUS
 62
     7
 10
39.49951171875
 20
10.5
 11
40.49951171875
 21
10.5
  0
LINE
  8
0
  6
CONTINUOUS
 62
     7
 10
17.82968902587891
 20
39.99853897094727
 11
24.50136566162109
 21
33.32685470581055
  0
LINE
  8
0
  6
CONTINUOUS
 62
     7
 10
24.49951171875
 20
33.32839965820313
 11
24.49951171875
 21
26.67156982421875
  0
LINE
  8
0
  6
CONTINUOUS
 62
     7
 10
20
 20
70
 11
41.39990234375
 21
70
  0
LINE
  8
0
  6
CONTINUOUS
 62
     7
 10
18.00175476074219
 20
20.16994476318359
 11
24.50175094604492
 21
26.66994094848633
  0
LINE
  8
0
  6
CONTINUOUS
 62
     7
 10
17.99951171875
 20
20.17156982421875
 11
17.99951171875
 21
16.32839965820313
  0
LINE
  8
0
  6
CONTINUOUS
 62
     7
 10
18.00226974487305
 20
16.32726860046387
 11
21.33063888549805
 21
12.99888896942139
  0
LINE
  8
0
  6
CONTINUOUS
 62
     7
 10
-20.50048828125
 20
0
 11
-15.24666786193848
 21
0
  0
LINE
  8
0
  6
CONTINUOUS
 62
     7
 10
-17
 20
38
 11
16.99951171875
 21
38
  0
LINE
  8
0
  6
CONTINUOUS
 62
     7
 10
22.49951171875
 20
32.49996948242188
 11
22.49951171875
 21
27.49996948242188
  0
LINE
  8
0
  6
CONTINUOUS
 62
     7
 10
-22.50048828125
 20
32.49996948242188
 11
-22.50048828125
 21
27.49996948242188
  0
LINE
  8
0
  6
CONTINUOUS
 62
     7
 10
15.99951171875
 20
21
 11
15.99951171875
 21
15.5
  0
LINE
  8
0
  6
CONTINUOUS
 62
     7
 10
-16.00048828125
 20
21
 11
-16.00048828125
 21
15.5
  0
LINE
  8
0
  6
CONTINUOUS
 62
     7
 10
-16.99809265136719
 20
37.99805450439453
 11
-17.85746192932129
 21
37.1386833190918
  0
LINE
  8
0
  6
CONTINUOUS
 62
     7
 10
-15.99739265441895
 20
15.49757480621338
 11
-22.50048828125
 21
8.994460105895996
  0
LINE
  8
0
  6
CONTINUOUS
 62
     7
 10
16.00181579589844
 20
20.99834823608398
 11
17.86108016967773
 21
22.85761070251465
  0
LINE
  8
0
  6
CONTINUOUS
 62
     7
 10
22.49951171875
 20
1.995034098625183
 11
20.50447654724121
 21
1.048011313287134E-007
  0
LINE
  8
0
  6
CONTINUOUS
 62
     7
 10
-22.49788475036621
 20
1.998994588851929
 11
-20.49783897399902
 21
-0.001049856655299664
  0
LINE
  8
0
  6
CONTINUOUS
 62
     7
 10
16.00261116027832
 20
15.49867343902588
 11
22.49951171875
 21
9.001753807067871
  0
LINE
  8
0
  6
CONTINUOUS
 62
     7
 10
17.00163078308106
 20
37.99847030639648
 11
17.86099815368652
 21
37.13909912109375
  0
LINE
  8
0
  6
CONTINUOUS
 62
     7
 10
-15.99815273284912
 20
20.9984130859375
 11
-17.8574161529541
 21
22.85767555236816
  0
LINE
  8
0
  6
CONTINUOUS
 62
     7
 10
-22.50048828125
 20
8.994461059570313
 11
-22.50048828125
 21
1.999969482421875
  0
LINE
  8
0
  6
CONTINUOUS
 62
     7
 10
22.49951171875
 20
9.001753807067871
 11
22.49951171875
 21
1.995034217834473
  0
LINE
  8
0
  6
CONTINUOUS
 62
     7
 10
-21.9063606262207
 20
26.9066219329834
 11
-22.49814796447754
 21
27.49840927124023
  0
LINE
  8
0
  6
CONTINUOUS
 62
     7
 10
-21.90537071228027
 20
33.09077072143555
 11
-22.49819374084473
 21
32.49794769287109
  0
LINE
  8
0
  6
CONTINUOUS
 62
     7
 10
21.90890693664551
 20
33.09119033813477
 11
22.50172996520996
 21
32.49836349487305
  0
LINE
  8
0
  6
CONTINUOUS
 62
     7
 10
21.91002464294434
 20
26.90655517578125
 11
22.50181198120117
 21
27.49834442138672
  0
LINE
  8
0
  6
CONTINUOUS
 62
     7
 10
-14.24666881561279
 20
1
 11
-9.25
 21
1
  0
LINE
  8
0
  6
CONTINUOUS
 62
     7
 10
-14.24666881561279
 20
0.9999998211860657
 11
-15.24666786193848
 21
3.175057372573065E-007
  0
LINE
  8
0
  6
CONTINUOUS
 62
     7
 10
9.253753662109375
 20
1.00000011920929
 11
8.253753662109375
 21
-5.347445153347508E-008
  0
LINE
  8
0
  6
CONTINUOUS
 62
     7
 10
14.2500581741333
 20
0.9999998211860657
 11
15.25005722045898
 21
3.160772621413344E-007
  0
LINE
  8
0
  6
CONTINUOUS
 62
     7
 10
-9.247799873352051
 20
0.9991757273674011
 11
-8.248623847961426
 21
-5.239357392383681E-008
  0
LINE
  8
0
  6
CONTINUOUS
 62
     7
 10
-8.248623847961426
 20
0
 11
8.253753662109375
 21
0
  0
LINE
  8
0
  6
CONTINUOUS
 62
     7
 10
9.253753662109375
 20
1
 11
14.2500581741333
 21
1
  0
LINE
  8
0
  6
CONTINUOUS
 62
     7
 10
15.25005722045898
 20
0
 11
20.50447654724121
 21
0
  0
LINE
  8
0
  6
DASHED
 62
     7
 10
9.99951171875
 20
38
 11
9.99951171875
 21
21
  0
LINE
  8
0
  6
DASHED
 62
     7
 10
-10.00048828125
 20
38
 11
-10.00048828125
 21
21
  0
LINE
  8
0
  6
DASHED
 62
     7
 10
-7.00048828125
 20
21
 11
-7.00048828125
 21
0
  0
LINE
  8
0
  6
DASHED
 62
     7
 10
6.99951171875
 20
21
 11
6.99951171875
 21
0
  0
LINE
  8
0
  6
DASHED
 62
     7
 10
-10.00048828125
 20
21
 11
9.99951171875
 21
21
  0
LINE
  8
0
  6
CONTINUOUS
 62
     7
 10
42.99951171875
 20
68.39999389648438
 11
42.99951171875
 21
55
  0
LINE
  8
0
  6
CONTINUOUS
 62
     7
 10
-43.00048828125
 20
68.39996337890625
 11
-43.00048828125
 21
55
  0
LINE
  8
0
  6
CONTINUOUS
 62
     7
 10
-41.400390625
 20
70
 11
-20
 21
70
  0
LINE
  8
0
  6
CONTINUOUS
 62
     7
 10
41.99951171875
 20
14.5
 11
41.99951171875
 21
11.99523067474365
  0
LINE
  8
0
  6
CONTINUOUS
 62
     7
 10
-19
 20
69
 11
-7
 21
69
  0
LINE
  8
0
  6
CONTINUOUS
 62
     7
 10
43.00164794921875
 20
68.39923095703125
 11
41.40167236328125
 21
69.99918365478516
  0
LINE
  8
0
  6
CONTINUOUS
 62
     7
 10
-41.39723587036133
 20
69.99729156494141
 11
-42.99719619750977
 21
68.39731597900391
  0
LINE
  8
0
  6
CONTINUOUS
 62
     7
 10
-42.00048828125
 20
12.00154113769531
 11
-40.49759674072266
 21
10.4986515045166
  0
LINE
  8
0
  6
CONTINUOUS
 62
     7
 10
42.00209045410156
 20
11.99781131744385
 11
40.50207901000977
 21
10.49779891967773
  0
LINE
  8
0
  6
CONTINUOUS
 62
     7
 10
7
 20
69
 11
19
 21
69
  0
LINE
  8
0
  6
CONTINUOUS
 62
     7
 10
19.00372123718262
 20
68.99663543701172
 11
20.00379180908203
 21
69.99669647216797
  0
LINE
  8
0
  6
CONTINUOUS
 62
     7
 10
-6.996518135070801
 20
68.99710845947266
 11
-5.996617317199707
 21
69.99699401855469
  0
LINE
  8
0
  6
CONTINUOUS
 62
     7
 10
7.002097606658936
 20
68.99845123291016
 11
6.002198696136475
 21
69.99834442138672
  0
LINE
  8
0
  6
CONTINUOUS
 62
     7
 10
-18.99775695800781
 20
68.99901580810547
 11
-19.99765205383301
 21
69.99890899658203
  0
LINE
  8
0
  6
CONTINUOUS
 62
     7
 10
-6
 20
70
 11
6
 21
70
  0
LINE
  8
0
  6
CENTER
 62
     7
 10
-30.0004997253418
 20
71
 11
-30.0004997253418
 21
46.73469543457031
  0
LINE
  8
0
  6
DASHED
 62
     7
 10
-25.0004997253418
 20
69.949951171875
 11
-25.0004997253418
 21
53
  0
LINE
  8
0
  6
DASHED
 62
     7
 10
-35.0004997253418
 20
70
 11
-35.0004997253418
 21
53
  0
LINE
  8
0
  6
DASHED
 62
     7
 10
-35.0004997253418
 20
53
 11
-25.0004997253418
 21
53
  0
LINE
  8
0
  6
DASHED
 62
     7
 10
-34.27050018310547
 20
50.19998168945313
 11
-25.73049926757813
 21
50.19998168945313
  0
LINE
  8
0
  6
DASHED
 62
     7
 10
-24.99742126464844
 20
52.99809265136719
 11
-25.73050117492676
 21
51.72835159301758
  0
LINE
  8
0
  6
DASHED
 62
     7
 10
-34.99893569946289
 20
52.99915313720703
 11
-34.27050018310547
 21
51.73746871948242
  0
LINE
  8
0
  6
CENTER
 62
     7
 10
29.9995002746582
 20
43.4132080078125
 11
29.9995002746582
 21
72.918701171875
  0
LINE
  8
0
  6
CONTINUOUS
 62
     7
 10
29.17661476135254
 20
9.999415397644043
 11
29.32395744323731
 21
10.31539249420166
  0
LINE
  8
0
  6
CONTINUOUS
 62
     7
 10
22.74202156066895
 20
13
 11
29.17553901672363
 21
10
  0
LINE
  8
0
  6
CENTER
 62
     7
 10
-6.8173828125
 20
49.99996948242188
 11
14.14697265625
 21
49.99996948242188
  0
LINE
  8
0
  6
CONTINUOUS
 62
     7
 10
2.61669921875
 20
53.49996948242188
 11
6.69677734375
 21
53.49996948242188
  0
LINE
  8
0
  6
CONTINUOUS
 62
     7
 10
2.61669921875
 20
46.49996948242188
 11
6.69677734375
 21
46.49996948242188
  0
LINE
  8
0
  6
CONTINUOUS
 62
     7
 10
1.967501163482666
 20
49.99997329711914
 11
2.617489337921143
 21
46.5
  0
LINE
  8
0
  6
CONTINUOUS
 62
     7
 10
1.967586040496826
 20
49.99973297119141
 11
2.617579221725464
 21
53.49972915649414
  0
LINE
  8
0
  6
CONTINUOUS
 62
     7
 10
4.27768087387085
 20
49.99995422363281
 11
4.927689075469971
 21
46.49995803833008
  0
LINE
  8
0
  6
CONTINUOUS
 62
     7
 10
4.277811527252197
 20
49.99966049194336
 11
4.927826404571533
 21
53.49969100952148
  0
LINE
  8
0
  6
CONTINUOUS
 62
     7
 10
6.787140846252441
 20
46.9697380065918
 11
6.697129249572754
 21
46.49973678588867
  0
LINE
  8
0
  6
CONTINUOUS
 62
     7
 10
6.788068294525147
 20
53.02003479003906
 11
6.698074340820313
 21
53.49995422363281
  0
LINE
  8
0
  6
CONTINUOUS
 62
     7
 10
8.603359222412109
 20
46.75383377075195
 11
11.35722827911377
 21
47.49946212768555
  0
LINE
  8
0
  6
CONTINUOUS
 62
     7
 10
8.586789131164551
 20
53.24988174438477
 11
11.35715484619141
 21
52.49978256225586
  0
LINE
  8
0
  6
CONTINUOUS
 62
     7
 10
3.938244104385376
 20
53.50002288818359
 11
0.0005347113474272192
 21
55.77346038818359
  0
LINE
  8
0
  6
CONTINUOUS
 62
     7
 10
0.0006953063420951366
 20
44.22580337524414
 11
3.938616037368774
 21
46.49936294555664
  0
LINE
  8
0
  6
CONTINUOUS
 62
     7
 10
251
 20
59
 11
266
 21
59
  0
LINE
  8
0
  6
CONTINUOUS
 62
     7
 10
364
 20
59
 11
379
 21
59
  0
LINE
  8
0
  6
CONTINUOUS
 62
     7
 10
266
 20
68.20001220703125
 11
266
 21
11.5
  0
LINE
  8
0
  6
CONTINUOUS
 62
     7
 10
364
 20
11.5
 11
364
 21
68.19998168945313
  0
LINE
  8
0
  6
CONTINUOUS
 62
     7
 10
266
 20
12
 11
364
 21
12
  0
LINE
  8
0
  6
CONTINUOUS
 62
     7
 10
267.80029296875
 20
70
 11
362.1999816894531
 21
70
  0
LINE
  8
0
  6
CONTINUOUS
 62
     7
 10
364.0000305175781
 20
68.19988250732422
 11
362.2001647949219
 21
69.999755859375
  0
LINE
  8
0
  6
CONTINUOUS
 62
     7
 10
267.8013305664063
 20
69.99874114990234
 11
266.0013122558594
 21
68.19876098632813
  0
LINE
  8
0
  6
CONTINUOUS
 62
     7
 10
-29.17462730407715
 20
9.999819755554199
 11
-22.74072265625
 21
13
  0
LINE
  8
0
  6
CONTINUOUS
 62
     7
 10
-29.3217830657959
 20
10.31640625
 11
-29.17429161071777
 21
10.0001106262207
  0
LINE
  8
0
  6
CONTINUOUS
 62
     7
 10
-39.49761199951172
 20
12.9994068145752
 11
-41.49775314331055
 21
14.99953174591065
  0
LINE
  8
0
  6
CONTINUOUS
 62
     7
 10
-39.49951171875
 20
13
 11
-18.49951171875
 21
13
  0
LINE
  8
0
  6
DASHED
 62
     7
 10
-25.73049926757813
 20
70
 11
-25.73049926757813
 21
50.19998168945313
  0
LINE
  8
0
  6
DASHED
 62
     7
 10
-34.27050018310547
 20
70
 11
-34.27050018310547
 21
50.19998168945313
  0
LINE
  8
0
  6
DASHED
 62
     7
 10
-34.27050018310547
 20
50.19998168945313
 11
-30.00049781799316
 21
47.73469543457031
  0
LINE
  8
0
  6
DASHED
 62
     7
 10
-25.73050117492676
 20
50.19998168945313
 11
-30.00050163269043
 21
47.73469543457031
  0
LINE
  8
0
  6
CONTINUOUS
 62
     7
 10
38.99951171875
 20
59
 11
-39.00177383422852
 21
59
  0
LINE
  8
0
  6
CONTINUOUS
 62
     7
 10
39.49951171875
 20
58
 11
-39.50159454345703
 21
58
  0
LINE
  8
0
  6
CONTINUOUS
 62
     7
 10
-42.00048828125
 20
12.99545383453369
 11
-39.00502014160156
 21
9.999999046325684
  0
LINE
  8
0
  6
CONTINUOUS
 62
     7
 10
-30.00031852722168
 20
10
 11
-38.99951171875
 21
10
  0
LINE
  8
0
  6
CONTINUOUS
 62
     7
 10
-30.07784271240234
 20
9.963849067687988
 11
-23.56680488586426
 21
13
  0
LINE
  8
0
  6
CENTER
 62
     7
 10
-0.00048828125
 20
71
 11
-0.00048828125
 21
-1
  0
LINE
  8
0
  6
CONTINUOUS
 62
     7
 10
-42.00048828125
 20
55.99996948242188
 11
-42.00048828125
 21
12.00154209136963
  0
LINE
  8
0
  6
CONTINUOUS
 62
     7
 10
-39.00177383422852
 20
59
 11
-42.00327301025391
 21
55.99848937988281
  0
LINE
  8
0
  6
CONTINUOUS
 62
     7
 10
-41.50048828125
 20
55.99996948242188
 11
-41.50048828125
 21
15
  0
LINE
  8
0
  6
CONTINUOUS
 62
     7
 10
-39.50159072875977
 20
58
 11
-41.50275039672852
 21
55.99884033203125
  0
LINE
  8
0
  6
CENTER
 62
     7
 10
284.9999694824219
 20
71
 11
284.9999694824219
 21
46.73469543457031
  0
LINE
  8
0
  6
DASHED
 62
     7
 10
280.72998046875
 20
70
 11
280.72998046875
 21
50.19998168945313
  0
LINE
  8
0
  6
DASHED
 62
     7
 10
289.2699584960938
 20
70
 11
289.2699584960938
 21
50.19998168945313
  0
LINE
  8
0
  6
DASHED
 62
     7
 10
289.9999694824219
 20
69.949951171875
 11
289.9999694824219
 21
53
  0
LINE
  8
0
  6
DASHED
 62
     7
 10
279.9999694824219
 20
70
 11
279.9999694824219
 21
53
  0
LINE
  8
0
  6
DASHED
 62
     7
 10
279.9999694824219
 20
53
 11
289.9999694824219
 21
53
  0
LINE
  8
0
  6
DASHED
 62
     7
 10
280.72998046875
 20
50.19998168945313
 11
289.2699584960938
 21
50.19998168945313
  0
LINE
  8
0
  6
DASHED
 62
     7
 10
289.2699890136719
 20
50.19999313354492
 11
284.9999694824219
 21
47.73470687866211
  0
LINE
  8
0
  6
DASHED
 62
     7
 10
290.0030517578125
 20
52.99808883666992
 11
289.2699584960938
 21
51.72834777832031
  0
LINE
  8
0
  6
DASHED
 62
     7
 10
280.7299499511719
 20
50.19998550415039
 11
284.9999694824219
 21
47.73469924926758
  0
LINE
  8
0
  6
DASHED
 62
     7
 10
280.0015258789063
 20
52.9991455078125
 11
280.7299499511719
 21
51.73746490478516
  0
LINE
  8
0
  6
CENTER
 62
     7
 10
344.9999694824219
 20
71
 11
344.9999694824219
 21
46.73469543457031
  0
LINE
  8
0
  6
CONTINUOUS
 62
     7
 10
-43.00048446655273
 20
54.99999618530273
 11
-42.00049209594727
 21
54
  0
LINE
  8
0
  6
CONTINUOUS
 62
     7
 10
42.99951171875
 20
55
 11
41.99951171875
 21
54
  0
LINE
  8
0
  6
CONTINUOUS
 62
     7
 10
266
 20
55
 11
364
 21
55
  0
LINE
  8
0
  6
CENTER
 62
     7
 10
495.9999389648438
 20
218
 11
134
 21
218
  0
LINE
  8
0
  6
CONTINUOUS
 62
     7
 10
266
 20
174.9978637695313
 11
363.9999389648438
 21
174.9978637695313
  0
LINE
  8
0
  6
CONTINUOUS
 62
     7
 10
266
 20
197.99951171875
 11
363.9999389648438
 21
197.99951171875
  0
LINE
  8
0
  6
CONTINUOUS
 62
     7
 10
266
 20
211.99951171875
 11
363.9999389648438
 21
211.99951171875
  0
LINE
  8
0
  6
CONTINUOUS
 62
     7
 10
249
 20
176
 11
266
 21
176
  0
LINE
  8
0
  6
CONTINUOUS
 62
     7
 10
247
 20
176.5
 11
249
 21
176.5
  0
LINE
  8
0
  6
CONTINUOUS
 62
     7
 10
245.5
 20
193.5
 11
247
 21
193.5
  0
LINE
  8
0
  6
CONTINUOUS
 62
     7
 10
135
 20
195.5
 11
245.5
 21
195.5
  0
LINE
  8
0
  6
CONTINUOUS
 62
     7
 10
135
 20
200.9994201660156
 11
245.5
 21
200.9994201660156
  0
LINE
  8
0
  6
CONTINUOUS
 62
     7
 10
135
 20
240.5
 11
135
 21
195.5
  0
LINE
  8
0
  6
CENTER
 62
     7
 10
157.5
 20
229
 11
157.5
 21
207
  0
LINE
  8
0
  6
CENTER
 62
     7
 10
290.9999694824219
 20
188.0000152587891
 11
278.9999694824219
 21
188.0000152587891
  0
LINE
  8
0
  6
CENTER
 62
     7
 10
284.9999694824219
 20
194.0000152587891
 11
284.9999694824219
 21
182.0000152587891
  0
LINE
  8
0
  6
CONTINUOUS
 62
     7
 10
266
 20
261.0021362304688
 11
363.9999389648438
 21
261.0021362304688
  0
LINE
  8
0
  6
CONTINUOUS
 62
     7
 10
249
 20
176
 11
249
 21
260
  0
LINE
  8
0
  6
CONTINUOUS
 62
     7
 10
245.5
 20
193.5
 11
245.5
 21
213
  0
LINE
  8
0
  6
CONTINUOUS
 62
     7
 10
247
 20
176.5
 11
247
 21
259.5
  0
LINE
  8
0
  6
CONTINUOUS
 62
     7
 10
266
 20
224.00048828125
 11
363.9999389648438
 21
224.00048828125
  0
LINE
  8
0
  6
CENTER
 62
     7
 10
284.9999694824219
 20
241.9999847412109
 11
284.9999694824219
 21
253.9999847412109
  0
LINE
  8
0
  6
CONTINUOUS
 62
     7
 10
245.5
 20
242.5
 11
247
 21
242.5
  0
LINE
  8
0
  6
CONTINUOUS
 62
     7
 10
135
 20
235.0005798339844
 11
245.5
 21
235.0005798339844
  0
LINE
  8
0
  6
CONTINUOUS
 62
     7
 10
266
 20
238.00048828125
 11
363.9999389648438
 21
238.00048828125
  0
LINE
  8
0
  6
CONTINUOUS
 62
     7
 10
135
 20
240.5
 11
245.5
 21
240.5
  0
LINE
  8
0
  6
CONTINUOUS
 62
     7
 10
247
 20
259.5
 11
249
 21
259.5
  0
LINE
  8
0
  6
CONTINUOUS
 62
     7
 10
249
 20
260
 11
266
 21
260
  0
LINE
  8
0
  6
CONTINUOUS
 62
     7
 10
266
 20
174.9978637695313
 11
266
 21
261.0021362304688
  0
LINE
  8
0
  6
CENTER
 62
     7
 10
290.9999694824219
 20
247.9999847412109
 11
278.9999694824219
 21
247.9999847412109
  0
LINE
  8
0
  6
CONTINUOUS
 62
     7
 10
382.9999389648438
 20
176.5
 11
382.9999389648438
 21
259.5
  0
LINE
  8
0
  6
CENTER
 62
     7
 10
338.9999694824219
 20
247.9999847412109
 11
350.9999694824219
 21
247.9999847412109
  0
LINE
  8
0
  6
CONTINUOUS
 62
     7
 10
363.9999389648438
 20
174.9978637695313
 11
363.9999389648438
 21
261.0021362304688
  0
LINE
  8
0
  6
CONTINUOUS
 62
     7
 10
380.9999389648438
 20
260
 11
363.9999389648438
 21
260
  0
LINE
  8
0
  6
CONTINUOUS
 62
     7
 10
382.9999389648438
 20
259.5
 11
380.9999389648438
 21
259.5
  0
LINE
  8
0
  6
CONTINUOUS
 62
     7
 10
494.9999389648438
 20
240.5
 11
384.4999389648438
 21
240.5
  0
LINE
  8
0
  6
CONTINUOUS
 62
     7
 10
494.9999389648438
 20
235.0005798339844
 11
384.4999389648438
 21
235.0005798339844
  0
LINE
  8
0
  6
CONTINUOUS
 62
     7
 10
384.4999389648438
 20
242.5
 11
382.9999389648438
 21
242.5
  0
LINE
  8
0
  6
CENTER
 62
     7
 10
344.9999694824219
 20
241.9999847412109
 11
344.9999694824219
 21
253.9999847412109
  0
LINE
  8
0
  6
CENTER
 62
     7
 10
344.9999694824219
 20
194.0000152587891
 11
344.9999694824219
 21
182.0000152587891
  0
LINE
  8
0
  6
CONTINUOUS
 62
     7
 10
384.4999389648438
 20
193.5
 11
382.9999389648438
 21
193.5
  0
LINE
  8
0
  6
CONTINUOUS
 62
     7
 10
494.9999389648438
 20
200.9994201660156
 11
384.4999389648438
 21
200.9994201660156
  0
LINE
  8
0
  6
CONTINUOUS
 62
     7
 10
380.9999389648438
 20
176
 11
380.9999389648438
 21
260
  0
LINE
  8
0
  6
CONTINUOUS
 62
     7
 10
494.9999389648438
 20
195.5
 11
384.4999389648438
 21
195.5
  0
LINE
  8
0
  6
CENTER
 62
     7
 10
472.4999389648438
 20
229
 11
472.4999389648438
 21
207
  0
LINE
  8
0
  6
CONTINUOUS
 62
     7
 10
494.9999389648438
 20
240.5
 11
494.9999389648438
 21
195.5
  0
LINE
  8
0
  6
CONTINUOUS
 62
     7
 10
384.4999389648438
 20
193.5
 11
384.4999389648438
 21
242.5
  0
LINE
  8
0
  6
CONTINUOUS
 62
     7
 10
382.9999389648438
 20
176.5
 11
380.9999389648438
 21
176.5
  0
LINE
  8
0
  6
CONTINUOUS
 62
     7
 10
380.9999389648438
 20
176
 11
363.9999389648438
 21
176
  0
LINE
  8
0
  6
CENTER
 62
     7
 10
338.9999694824219
 20
188.0000152587891
 11
350.9999694824219
 21
188.0000152587891
  0
LINE
  8
0
  6
CENTER
 62
     7
 10
231.9628601074219
 20
204.9113616943359
 11
237.5417785644531
 21
218.3800811767578
  0
LINE
  8
0
  6
CONTINUOUS
 62
     7
 10
230.3830413818359
 20
207.3688354492188
 11
234.8176422119141
 21
205.5319519042969
  0
LINE
  8
0
  6
CONTINUOUS
 62
     7
 10
230.5847930908203
 20
210.2077026367188
 11
236.682373046875
 21
207.6820068359375
  0
LINE
  8
0
  6
CONTINUOUS
 62
     7
 10
230.3830261230469
 20
207.3688354492188
 11
230.5847930908203
 21
210.2077178955078
  0
LINE
  8
0
  6
CONTINUOUS
 62
     7
 10
234.8176727294922
 20
205.5319366455078
 11
236.6824188232422
 21
207.6820220947266
  0
LINE
  8
0
  6
CONTINUOUS
 62
     7
 10
231.323486328125
 20
213.9286041259766
 11
231.7381591796875
 21
214.9296722412109
  0
LINE
  8
0
  6
CONTINUOUS
 62
     7
 10
238.7911071777344
 20
210.8354187011719
 11
239.2057647705078
 21
211.8364715576172
  0
LINE
  8
0
  6
CONTINUOUS
 62
     7
 10
232.5176239013672
 20
215.25244140625
 11
231.7381896972656
 21
214.9295959472656
  0
LINE
  8
0
  6
CONTINUOUS
 62
     7
 10
232.9608001708984
 20
212.6009826660156
 11
233.8333740234375
 21
214.7075347900391
  0
LINE
  8
0
  6
CONTINUOUS
 62
     7
 10
236.694580078125
 20
211.0544128417969
 11
237.567138671875
 21
213.1609344482422
  0
LINE
  8
0
  6
CONTINUOUS
 62
     7
 10
231.8787536621094
 20
215.5171661376953
 11
238.8829193115234
 21
212.6159515380859
  0
LINE
  8
0
  6
CONTINUOUS
 62
     7
 10
239.2057952880859
 20
211.8364410400391
 11
238.8829345703125
 21
212.6158905029297
  0
LINE
  8
0
  6
CONTINUOUS
 62
     7
 10
231.7150573730469
 20
211.6298980712891
 11
236.8887786865234
 21
209.4868469238281
  0
LINE
  8
0
  6
CONTINUOUS
 62
     7
 10
242.2999877929688
 20
223
 11
242.2999877929688
 21
213
  0
LINE
  8
0
  6
CONTINUOUS
 62
     7
 10
231.8000030517578
 20
219.7999877929688
 11
231.8000030517578
 21
216.1452941894531
  0
LINE
  8
0
  6
CONTINUOUS
 62
     7
 10
242.2999877929688
 20
223
 11
247
 21
223
  0
LINE
  8
0
  6
CONTINUOUS
 62
     7
 10
234.8000030517578
 20
222.7999877929688
 11
242.2999877929688
 21
222.7999877929688
  0
LINE
  8
0
  6
CONTINUOUS
 62
     7
 10
237.4728698730469
 20
213.1999969482422
 11
242.2999877929688
 21
213.1999969482422
  0
LINE
  8
0
  6
CONTINUOUS
 62
     7
 10
242.2999877929688
 20
213
 11
247
 21
213
  0
LINE
  8
0
  6
CONTINUOUS
 62
     7
 10
245.5
 20
223
 11
245.5
 21
242.5
  0
LINE
  8
0
  6
CONTINUOUS
 62
     7
 10
231.5532836914063
 20
213.1839904785156
 11
238.1020812988281
 21
210.4713897705078
  0
LINE
  8
0
  6
CENTER
 62
     7
 10
262.5
 20
229
 11
262.5
 21
207
  0
LINE
  8
0
  6
CENTER
 62
     7
 10
367.5
 20
229
 11
367.5
 21
207
  0
ARC
  8
0
  6
CONTINUOUS
 62
     7
 10
234.7998046875
 20
48.199951171875
 40
3.000000000000005
 50
195.642863058422
 51
270.000072627603
  0
ARC
  8
0
  6
CONTINUOUS
 62
     7
 10
234.7998046875
 20
51.800048828125
 40
2.999999999999999
 50
89.99998201391043
 51
165.8646416536699
  0
ARC
  8
0
  6
CONTINUOUS
 62
     7
 10
8.44677734375
 20
47.7099609375
 40
0.9683421850204466
 50
215.3314570768741
 51
278.297222506794
  0
ARC
  8
0
  6
CONTINUOUS
 62
     7
 10
-25.91288566589356
 20
13.17332744598389
 40
2.348390579223632
 50
244.6101831051576
 51
345.375253590682
  0
ARC
  8
0
  6
CONTINUOUS
 62
     7
 10
0
 20
49.99996948242188
 40
4.79999923706055
 50
46.95109601507203
 51
313.1834072577874
  0
ARC
  8
0
  6
CONTINUOUS
 62
     7
 10
-21.98876953125
 20
22.77899169921875
 40
4.129999160766602
 50
1.113842917296742
 51
88.88611476406494
  0
ARC
  8
0
  6
CONTINUOUS
 62
     7
 10
25.91129493713379
 20
13.17406845092773
 40
2.348390579223632
 50
194.6073517387347
 51
295.3898528670211
  0
ARC
  8
0
  6
CONTINUOUS
 62
     7
 10
21.98828125
 20
22.77899169921875
 40
4.129999160766603
 50
91.11379462224296
 51
178.886151419489
  0
ARC
  8
0
  6
CONTINUOUS
 62
     7
 10
21.98828125
 20
37.22198486328125
 40
4.129999160766602
 50
181.1279460909578
 51
268.8720532257968
  0
ARC
  8
0
  6
CONTINUOUS
 62
     7
 10
7.45703125
 20
54.0799560546875
 40
1.254199028015138
 50
217.8749648822736
 51
279.2353626496737
  0
ARC
  8
0
  6
CONTINUOUS
 62
     7
 10
-21.98876953125
 20
37.22198486328125
 40
4.129999160766598
 50
271.1280373878953
 51
358.8720646948982
  0
ARC
  8
0
  6
CONTINUOUS
 62
     7
 10
8.44677734375
 20
52.28994750976563
 40
0.9701610803604148
 50
81.70288677623258
 51
144.6685429231259
  0
ARC
  8
0
  6
CONTINUOUS
 62
     7
 10
7.45703125
 20
45.91995239257813
 40
1.246148109436035
 50
80.76452806729958
 51
142.1250351177264
  0
CIRCLE
  8
0
  6
CONTINUOUS
 62
     7
 10
284.9999694824219
 20
188.0000152587891
 40
4.269999980926514
  0
CIRCLE
  8
0
  6
CONTINUOUS
 62
     7
 10
284.9999694824219
 20
188.0000152587891
 40
5
  0
CIRCLE
  8
0
  6
CONTINUOUS
 62
     7
 10
157.5
 20
218
 40
7
  0
CIRCLE
  8
0
  6
CONTINUOUS
 62
     7
 10
157.5
 20
218
 40
10
  0
ARC
  8
0
  6
CONTINUOUS
 62
     7
 10
233.6335906982422
 20
208.9449005126953
 40
3.299999237060546
 50
131.5803705110077
 51
157.4999548639651
  0
ARC
  8
0
  6
CONTINUOUS
 62
     7
 10
233.6335906982422
 20
208.9449005126953
 40
3.299999237060545
 50
337.5000181569009
 51
3.419602296415186
  0
ARC
  8
0
  6
CONTINUOUS
 62
     7
 10
225.7172393798828
 20
211.7909851074219
 40
6.00000000000001
 50
2.43365082934552
 51
20.87173987704925
  0
ARC
  8
0
  6
CONTINUOUS
 62
     7
 10
241.2437896728516
 20
205.3596801757813
 40
6.000000000000011
 50
114.1278165022775
 51
132.5663219780772
  0
ARC
  8
0
  6
CONTINUOUS
 62
     7
 10
230.9125366210938
 20
212.0117950439453
 40
0.7999999523162822
 50
311.5798327472963
 51
2.433049772698627
  0
ARC
  8
0
  6
CONTINUOUS
 62
     7
 10
237.7262878417969
 20
209.189453125
 40
0.7999999523162747
 50
132.5669776762372
 51
183.4201402735692
  0
ARC
  8
0
  6
CONTINUOUS
 62
     7
 10
234.8000030517578
 20
219.7999877929688
 40
3.000000000000006
 50
89.99998201391043
 51
179.9999640278214
  0
ARC
  8
0
  6
CONTINUOUS
 62
     7
 10
234.8000030517578
 20
216.2000122070313
 40
3
 50
180.000090613692
 51
193.1569474081041
  0
POLYLINE
  8
0
  6
CONTINUOUS
 62
     7
 66
     1
 10
0
 20
0
 70
     1
  0
VERTEX
  8
0
  6
CONTINUOUS
 62
     7
 10
232.60009765625
 20
52.5
 42
0.110370772420953
  0
VERTEX
  8
0
  6
CONTINUOUS
 62
     7
 10
231.6879422785491
 20
52.29496581396997
 42
0.1025026807527424
  0
VERTEX
  8
0
  6
CONTINUOUS
 62
     7
 10
230.9406052306661
 20
51.73095939113222
 42
0.09329151917971948
  0
VERTEX
  8
0
  6
CONTINUOUS
 62
     7
 10
230.4629941101996
 20
50.92406969327448
 42
0.08782585329616187
  0
VERTEX
  8
0
  6
CONTINUOUS
 62
     7
 10
230.3001098632813
 20
49.99996948242188
 42
0.08777281658713958
  0
VERTEX
  8
0
  6
CONTINUOUS
 62
     7
 10
230.4628082129894
 20
49.07634522977311
 42
0.09326597221226621
  0
VERTEX
  8
0
  6
CONTINUOUS
 62
     7
 10
230.940090133939
 20
48.26952965934301
 42
0.1026382713410044
  0
VERTEX
  8
0
  6
CONTINUOUS
 62
     7
 10
231.688300385534
 20
47.70480347368847
 42
0.1103351113878603
  0
VERTEX
  8
0
  6
CONTINUOUS
 62
     7
 10
232.60009765625
 20
47.50000000000001
 42
0.1103748893970776
  0
VERTEX
  8
0
  6
CONTINUOUS
 62
     7
 10
233.5122562947003
 20
47.7050165496549
 42
0.1025062677357195
  0
VERTEX
  8
0
  6
CONTINUOUS
 62
     7
 10
234.2595945741375
 20
48.2690205121683
 42
0.09329191866580165
  0
VERTEX
  8
0
  6
CONTINUOUS
 62
     7
 10
234.7372013556404
 20
49.07591256611261
 42
0.08782460297149504
  0
VERTEX
  8
0
  6
CONTINUOUS
 62
     7
 10
234.9000854492188
 20
50.00003051757813
 42
0.08777107284864937
  0
VERTEX
  8
0
  6
CONTINUOUS
 62
     7
 10
234.7373668134703
 20
50.9236513475929
 42
0.09326229352395343
  0
VERTEX
  8
0
  6
CONTINUOUS
 62
     7
 10
234.2600760461648
 20
51.73046217158974
 42
0.1026354550275708
  0
VERTEX
  8
0
  6
CONTINUOUS
 62
     7
 10
233.5118669996533
 20
52.29519106047429
 42
0.11033366084015
  0
SEQEND
  8
0
  0
POLYLINE
  8
0
  6
CONTINUOUS
 62
     7
 66
     1
 10
0
 20
0
  0
VERTEX
  8
0
  6
CONTINUOUS
 62
     7
 10
231.60009765625
 20
47.760009765625
 42
0.06376029118692894
  0
VERTEX
  8
0
  6
CONTINUOUS
 62
     7
 10
232.1955078005269
 20
47.23070038091916
 42
0.07492494478780873
  0
VERTEX
  8
0
  6
CONTINUOUS
 62
     7
 10
232.9133005787867
 20
46.88423289373181
 42
0.06467264335482401
  0
VERTEX
  8
0
  6
CONTINUOUS
 62
     7
 10
233.69970703125
 20
46.75
 42
0
  0
SEQEND
  8
0
  0
POLYLINE
  8
0
  6
CONTINUOUS
 62
     7
 66
     1
 10
0
 20
0
  0
VERTEX
  8
0
  6
CONTINUOUS
 62
     7
 10
231.4756379931647
 20
47.81887471300345
 42
0.06283267329369985
  0
VERTEX
  8
0
  6
CONTINUOUS
 62
     7
 10
232.0399364964589
 20
47.29270334585704
 42
0.06649799646167194
  0
VERTEX
  8
0
  6
CONTINUOUS
 62
     7
 10
232.7199375400122
 20
46.92820165708287
 42
0.06915648590770325
  0
VERTEX
  8
0
  6
CONTINUOUS
 62
     7
 10
233.4722927047955
 20
46.75934906873729
 42
0.06974762858014413
  0
VERTEX
  8
0
  6
CONTINUOUS
 62
     7
 10
234.2410473517065
 20
46.80334455939578
 42
0.06816445913960809
  0
VERTEX
  8
0
  6
CONTINUOUS
 62
     7
 10
234.9688913398151
 20
47.05516173069817
 42
0.06499671845140256
  0
VERTEX
  8
0
  6
CONTINUOUS
 62
     7
 10
235.6054572291136
 20
47.48999143303036
 42
0.0612913073359721
  0
VERTEX
  8
0
  6
CONTINUOUS
 62
     7
 10
236.1135138871738
 20
48.07009213833725
 42
0.05807950063058468
  0
VERTEX
  8
0
  6
CONTINUOUS
 62
     7
 10
236.4705098308544
 20
48.75408583671585
 42
0.05590477853785251
  0
VERTEX
  8
0
  6
CONTINUOUS
 62
     7
 10
236.6641685049198
 20
49.50122903003001
 42
0.05496936152542711
  0
VERTEX
  8
0
  6
CONTINUOUS
 62
     7
 10
236.6891808986411
 20
50.2719506747404
 42
0.05547216802165974
  0
VERTEX
  8
0
  6
CONTINUOUS
 62
     7
 10
236.54509459639
 20
51.02983792045884
 42
0.05727847919467816
  0
VERTEX
  8
0
  6
CONTINUOUS
 62
     7
 10
236.2356835202953
 20
51.73627824144839
 42
0.06026661679233625
  0
VERTEX
  8
0
  6
CONTINUOUS
 62
     7
 10
235.770447905635
 20
52.35158909110005
 42
0.06395161668954166
  0
VERTEX
  8
0
  6
CONTINUOUS
 62
     7
 10
235.1682466920413
 20
52.83397326341307
 42
0.0674455326418326
  0
VERTEX
  8
0
  6
CONTINUOUS
 62
     7
 10
234.461593212906
 20
53.14344227744402
 42
0.06944367498441893
  0
VERTEX
  8
0
  6
CONTINUOUS
 62
     7
 10
233.69970703125
 20
53.25
 42
0
  0
SEQEND
  8
0
  0
POLYLINE
  8
0
  6
CONTINUOUS
 62
     7
 66
     1
 10
0
 20
0
  0
VERTEX
  8
0
  6
CONTINUOUS
 62
     7
 10
231.6180423858298
 20
52.26086161930515
 42
-0.06330010770496208
  0
VERTEX
  8
0
  6
CONTINUOUS
 62
     7
 10
232.2107419470206
 20
52.7796387223787
 42
-0.07404596770285817
  0
VERTEX
  8
0
  6
CONTINUOUS
 62
     7
 10
232.9220866237345
 20
53.11848867594964
 42
-0.06385083221893084
  0
VERTEX
  8
0
  6
CONTINUOUS
 62
     7
 10
233.69970703125
 20
53.25
 42
0
  0
SEQEND
  8
0
  0
POLYLINE
  8
0
  6
CONTINUOUS
 62
     7
 66
     1
 10
0
 20
0
  0
VERTEX
  8
0
  6
CONTINUOUS
 62
     7
 10
7.65673828125
 20
52.84994506835938
 42
0.1885790430091866
  0
VERTEX
  8
0
  6
CONTINUOUS
 62
     7
 10
7.297012495887717
 20
52.69025232737671
 42
0.0757428618477303
  0
VERTEX
  8
0
  6
CONTINUOUS
 62
     7
 10
7.052784077316045
 20
52.37241377600868
 42
0.03933462205641931
  0
VERTEX
  8
0
  6
CONTINUOUS
 62
     7
 10
6.882926584277837
 20
52.00708054642109
 42
0.02577034872998019
  0
VERTEX
  8
0
  6
CONTINUOUS
 62
     7
 10
6.760774576232311
 20
51.62293130119281
 42
0.01950453085206935
  0
VERTEX
  8
0
  6
CONTINUOUS
 62
     7
 10
6.673284981805007
 20
51.22872142643053
 42
0.01621404622660859
  0
VERTEX
  8
0
  6
CONTINUOUS
 62
     7
 10
6.613924893400358
 20
50.8291325699924
 42
0.01446604040912873
  0
VERTEX
  8
0
  6
CONTINUOUS
 62
     7
 10
6.579056359357565
 20
50.42661007540487
 42
0.01369080148239785
  0
VERTEX
  8
0
  6
CONTINUOUS
 62
     7
 10
6.566806516780013
 20
50.02246809753117
 42
0.01360437640479038
  0
VERTEX
  8
0
  6
CONTINUOUS
 62
     7
 10
6.576520725292659
 20
49.61962496661329
 42
0.01431478168229071
  0
VERTEX
  8
0
  6
CONTINUOUS
 62
     7
 10
6.608667587473996
 20
49.21737546925322
 42
0.0159813298961469
  0
VERTEX
  8
0
  6
CONTINUOUS
 62
     7
 10
6.665174858253466
 20
48.8165590649001
 42
0.01902614336651747
  0
VERTEX
  8
0
  6
CONTINUOUS
 62
     7
 10
6.749231887250904
 20
48.42140686842991
 42
0.02487901493449972
  0
VERTEX
  8
0
  6
CONTINUOUS
 62
     7
 10
6.867241834665116
 20
48.03501127372536
 42
0.03729515713552473
  0
VERTEX
  8
0
  6
CONTINUOUS
 62
     7
 10
7.031309813305772
 20
47.66582703076747
 42
0.06998188062374823
  0
VERTEX
  8
0
  6
CONTINUOUS
 62
     7
 10
7.266887336918327
 20
47.33849325225435
 42
0.1738260275028268
  0
VERTEX
  8
0
  6
CONTINUOUS
 62
     7
 10
7.616649561975463
 20
47.15189113720503
 42
0
  0
SEQEND
  8
0
  0
POLYLINE
  8
0
  6
CONTINUOUS
 62
     7
 66
     1
 10
0
 20
0
 70
     1
  0
VERTEX
  8
0
  6
CONTINUOUS
 62
     7
 10
11.35693359375
 20
52.49996948242188
 42
0.2551559077437531
  0
VERTEX
  8
0
  6
CONTINUOUS
 62
     7
 10
10.82713345758489
 20
52.07507246622352
 42
0.06318716643638575
  0
VERTEX
  8
0
  6
CONTINUOUS
 62
     7
 10
10.57303775794282
 20
51.41218812153558
 42
0.0351842444871315
  0
VERTEX
  8
0
  6
CONTINUOUS
 62
     7
 10
10.44629864124841
 20
50.71214222561584
 42
0.02798380700956824
  0
VERTEX
  8
0
  6
CONTINUOUS
 62
     7
 10
10.40692138671875
 20
49.99996948242187
 42
0.02789791109386619
  0
VERTEX
  8
0
  6
CONTINUOUS
 62
     7
 10
10.44606991020817
 20
49.28982498275707
 42
0.03515802421036538
  0
VERTEX
  8
0
  6
CONTINUOUS
 62
     7
 10
10.57257317664487
 20
48.58953833361898
 42
0.0631514812067631
  0
VERTEX
  8
0
  6
CONTINUOUS
 62
     7
 10
10.8266056879805
 20
47.92580035685556
 42
0.2552811699316397
  0
VERTEX
  8
0
  6
CONTINUOUS
 62
     7
 10
11.35693359375
 20
47.49996948242188
 42
0.2551624777515874
  0
VERTEX
  8
0
  6
CONTINUOUS
 62
     7
 10
11.88674918716535
 20
47.92484612650536
 42
0.0631928741678857
  0
VERTEX
  8
0
  6
CONTINUOUS
 62
     7
 10
12.1408489488407
 20
48.58772849491511
 42
0.03518694087415231
  0
VERTEX
  8
0
  6
CONTINUOUS
 62
     7
 10
12.26758141491663
 20
49.28777547413255
 42
0.02798630487677558
  0
VERTEX
  8
0
  6
CONTINUOUS
 62
     7
 10
12.30694580078125
 20
49.99996948242188
 42
0.02789629000271353
  0
VERTEX
  8
0
  6
CONTINUOUS
 62
     7
 10
12.26778214244263
 20
50.71011309528776
 42
0.03515570588166075
  0
VERTEX
  8
0
  6
CONTINUOUS
 62
     7
 10
12.14126934587553
 20
51.41039810427905
 42
0.06314735579106809
  0
VERTEX
  8
0
  6
CONTINUOUS
 62
     7
 10
11.88723594544969
 20
52.07413605299931
 42
0.2552751861930462
  0
SEQEND
  8
0
  0
TEXT
  8
0
  6
CONTINUOUS
 62
     7
 10
-11.28550004959106
 20
-31.79999995231628
 40
3.599999904632568
 41
1.008382419577613
  1
HSR45R
  0
ENDSEC
  0
EOF
