  0
SECTION
  2
HEADER
  0
ENDSEC
  0
SECTION
  2
TABLES
  0
TABLE
  2
LTYPE
 70
    22
  0
LTYPE
  2
CONTINUOUS
 70
    64
  3
Solid line
 72
    65
 73
     0
 40
0.000000
  0
LTYPE
  2
DASHED
 70
    64
  3
__ __ __ __ __ __ __ __ __ __ __ __ __ __ __
 72
    65
 73
     2
 40
3.500000
 49
2.000000
 49
-1.500000
  0
LTYPE
  2
CENTER
 70
    64
  3
____ _ ____ _ ____ _ ____ _ ____ _ ____ _ ____
 72
    65
 73
     4
 40
17.500000
 49
13.000000
 49
-1.500000
 49
1.500000
 49
-1.500000
  0
LTYPE
  2
PHANTOM
 70
    64
  3
_____ _ _ _____ _ _ _____ _ _ _____ _ _ ____  
 72
    65
 73
     6
 40
15.500000
 49
8.000000
 49
-1.500000
 49
1.500000
 49
-1.500000
 49
1.500000
 49
-1.500000
  0
LTYPE
  2
DOT
 70
    64
  3
. . . . . . . . . . . . . . . . . . . . . . . .
 72
    65
 73
     2
 40
0.25
 49
0.0
 49
-0.25
  0
ENDTAB
  0
TABLE
  2
LAYER
 70
     1
  0
LAYER
  2
0
 70
     0
 62
     7
  6
CONTINUOUS
  0
ENDTAB
  0
TABLE
  2
STYLE
 70
     1
  0
STYLE
  2
STANDARD
 70
     0
 40
0.000000
 41
1.000000
 50
0.000000
 71
     0
 42
0.200000
  3
txt
  0
ENDTAB
  0
TABLE
  2
VIEW
 70
     0
  0
ENDTAB
  0
ENDSEC
  0
SECTION
  2
BLOCKS
  0
ENDSEC
  0
SECTION
  2
ENTITIES
  0
LINE
  8
0
  6
CENTER
 62
     7
 10
-8.790283203125
 20
59
 11
17.720703125
 21
59
  0
LINE
  8
0
  6
CONTINUOUS
 62
     7
 10
35
 20
13.5
 11
45
 21
13.5
  0
LINE
  8
0
  6
CONTINUOUS
 62
     7
 10
49
 20
17.49811363220215
 11
45.00094985961914
 21
13.49907493591309
  0
LINE
  8
0
  6
CONTINUOUS
 62
     7
 10
35.00083923339844
 20
13.49968528747559
 11
27.4943962097168
 21
17
  0
LINE
  8
0
  6
CONTINUOUS
 62
     7
 10
-68.39990234375
 20
70
 11
-40.7998046875
 21
70
  0
LINE
  8
0
  6
CONTINUOUS
 62
     7
 10
-49.73764419555664
 20
13
 11
-35
 21
13
  0
LINE
  8
0
  6
CONTINUOUS
 62
     7
 10
35
 20
13
 11
49.73764419555664
 21
13
  0
LINE
  8
0
  6
CONTINUOUS
 62
     7
 10
49.73764419555664
 20
13
 11
56.08549118041992
 21
49.00046539306641
  0
LINE
  8
0
  6
CONTINUOUS
 62
     7
 10
-67.27490234375
 20
41
 11
-58.86767578125
 21
41
  0
LINE
  8
0
  6
CONTINUOUS
 62
     7
 10
-70
 20
68.39999389648438
 11
-70
 21
54.5
  0
LINE
  8
0
  6
CONTINUOUS
 62
     7
 10
70
 20
68.19998168945313
 11
70
 21
54.5
  0
LINE
  8
0
  6
CONTINUOUS
 62
     7
 10
-69.99913024902344
 20
68.39925384521484
 11
-68.39911651611328
 21
69.999267578125
  0
LINE
  8
0
  6
CONTINUOUS
 62
     7
 10
68.20069885253906
 20
69.99980926513672
 11
70.00057220458984
 21
68.19992828369141
  0
LINE
  8
0
  6
CONTINUOUS
 62
     7
 10
-68.32315826416016
 20
53
 11
-67.27330780029297
 21
41.00010681152344
  0
LINE
  8
0
  6
CONTINUOUS
 62
     7
 10
68.32725524902344
 20
53
 11
67.27736663818359
 21
40.99972152709961
  0
LINE
  8
0
  6
CONTINUOUS
 62
     7
 10
58.8681640625
 20
41
 11
67.275390625
 21
41
  0
LINE
  8
0
  6
CONTINUOUS
 62
     7
 10
-40
 20
69.19998168945313
 11
-17
 21
69.19998168945313
  0
LINE
  8
0
  6
CONTINUOUS
 62
     7
 10
35.00037002563477
 20
13
 11
26.42234802246094
 21
17
  0
LINE
  8
0
  6
CONTINUOUS
 62
     7
 10
17
 20
69.19998168945313
 11
40
 21
69.19998168945313
  0
LINE
  8
0
  6
CONTINUOUS
 62
     7
 10
-47.00054931640625
 20
67
 11
47
 21
67
  0
LINE
  8
0
  6
CONTINUOUS
 62
     7
 10
22
 20
17
 11
47
 21
17
  0
LINE
  8
0
  6
CONTINUOUS
 62
     7
 10
49
 20
64.99996948242188
 11
49
 21
17.49811363220215
  0
LINE
  8
0
  6
CONTINUOUS
 62
     7
 10
49.00083541870117
 20
64.99971771240234
 11
47.00070571899414
 21
66.99984741210938
  0
LINE
  8
0
  6
CONTINUOUS
 62
     7
 10
49.00109100341797
 20
18.99889373779297
 11
47.00106048583984
 21
16.99887657165527
  0
LINE
  8
0
  6
CONTINUOUS
 62
     7
 10
261
 20
67
 11
261
 21
17
  0
LINE
  8
0
  6
CONTINUOUS
 62
     7
 10
259.5
 20
45.5999755859375
 11
259.5
 21
17
  0
LINE
  8
0
  6
CONTINUOUS
 62
     7
 10
259.5
 20
45.5999755859375
 11
261
 21
45.5999755859375
  0
LINE
  8
0
  6
CONTINUOUS
 62
     7
 10
261
 20
67
 11
263
 21
67
  0
LINE
  8
0
  6
CONTINUOUS
 62
     7
 10
259.5
 20
17
 11
263
 21
17
  0
LINE
  8
0
  6
CONTINUOUS
 62
     7
 10
263
 20
15
 11
281.9500122070313
 21
15
  0
LINE
  8
0
  6
CONTINUOUS
 62
     7
 10
265.5
 20
68
 11
281.9500122070313
 21
68
  0
LINE
  8
0
  6
CONTINUOUS
 62
     7
 10
281.9500122070313
 20
68.19998168945313
 11
281.9500122070313
 21
14.5
  0
LINE
  8
0
  6
CONTINUOUS
 62
     7
 10
263.0004577636719
 20
65.49958801269531
 11
265.5004272460938
 21
67.99958801269531
  0
LINE
  8
0
  6
CONTINUOUS
 62
     7
 10
457
 20
15
 11
457
 21
67
  0
LINE
  8
0
  6
CONTINUOUS
 62
     7
 10
438.0499877929688
 20
15
 11
457
 21
15
  0
LINE
  8
0
  6
CONTINUOUS
 62
     7
 10
438.0499877929688
 20
68
 11
454.5
 21
68
  0
LINE
  8
0
  6
CONTINUOUS
 62
     7
 10
438.0499877929688
 20
14.5
 11
438.0499877929688
 21
68.19985961914063
  0
LINE
  8
0
  6
CONTINUOUS
 62
     7
 10
454.4999084472656
 20
67.99944305419922
 11
457
 21
65.49935150146484
  0
LINE
  8
0
  6
CONTINUOUS
 62
     7
 10
283.7503051757813
 20
70
 11
436.2499389648438
 21
70
  0
LINE
  8
0
  6
CONTINUOUS
 62
     7
 10
281.9500122070313
 20
14.5
 11
438.0499877929688
 21
14.5
  0
LINE
  8
0
  6
CONTINUOUS
 62
     7
 10
283.7503967285156
 20
69.99958801269531
 11
281.9503784179688
 21
68.1995849609375
  0
LINE
  8
0
  6
CONTINUOUS
 62
     7
 10
436.2505493164063
 20
69.99944305419922
 11
438.0507202148438
 21
68.19915008544922
  0
LINE
  8
0
  6
CONTINUOUS
 62
     7
 10
263
 20
67
 11
263
 21
15
  0
LINE
  8
0
  6
CONTINUOUS
 62
     7
 10
256.86181640625
 20
64.85346984863281
 11
260.4375
 21
64.85346984863281
  0
LINE
  8
0
  6
CONTINUOUS
 62
     7
 10
256.86181640625
 20
61.96672058105469
 11
260.4375
 21
61.96672058105469
  0
LINE
  8
0
  6
CONTINUOUS
 62
     7
 10
256.2998046875
 20
63.87998962402344
 11
256.2998046875
 21
58.99998474121094
  0
LINE
  8
0
  6
CONTINUOUS
 62
     7
 10
248.7997894287109
 20
63.79991149902344
 11
256.2998046875
 21
63.79991149902344
  0
LINE
  8
0
  6
CONTINUOUS
 62
     7
 10
256.2998046875
 20
54.19993591308594
 11
248.7997894287109
 21
54.19993591308594
  0
LINE
  8
0
  6
CONTINUOUS
 62
     7
 10
246.6498870849609
 20
62.58000183105469
 11
251.2245941162109
 21
62.58000183105469
  0
LINE
  8
0
  6
CONTINUOUS
 62
     7
 10
256.2997741699219
 20
63.87968444824219
 11
256.86181640625
 21
64.85317230224609
  0
LINE
  8
0
  6
CONTINUOUS
 62
     7
 10
256.2998046875
 20
58.99989318847656
 11
256.2998046875
 21
54.11991882324219
  0
LINE
  8
0
  6
CONTINUOUS
 62
     7
 10
256.8619384765625
 20
53.14595413208008
 11
256.2999267578125
 21
54.119384765625
  0
LINE
  8
0
  6
CONTINUOUS
 62
     7
 10
260.4375
 20
53.14643859863281
 11
256.86181640625
 21
53.14643859863281
  0
LINE
  8
0
  6
CONTINUOUS
 62
     7
 10
260.4375
 20
56.03318786621094
 11
256.86181640625
 21
56.03318786621094
  0
LINE
  8
0
  6
CONTINUOUS
 62
     7
 10
260.4379272460938
 20
64.85294342041016
 11
261.0001831054688
 21
63.87908935546875
  0
LINE
  8
0
  6
CONTINUOUS
 62
     7
 10
261.000244140625
 20
54.11949920654297
 11
260.4382019042969
 21
53.14601135253906
  0
LINE
  8
0
  6
CONTINUOUS
 62
     7
 10
251.2251892089844
 20
62.57955932617188
 11
253.0652770996094
 21
58.99935913085938
  0
LINE
  8
0
  6
CONTINUOUS
 62
     7
 10
246.2532196044922
 20
61.80662536621094
 11
246.650390625
 21
62.57939529418945
  0
LINE
  8
0
  6
CONTINUOUS
 62
     7
 10
250.3501892089844
 20
62.57947158813477
 11
252.1902923583984
 21
58.99927520751953
  0
LINE
  8
0
  6
CONTINUOUS
 62
     7
 10
252.1905822753906
 20
58.99938201904297
 11
250.3505859375
 21
55.41937637329102
  0
LINE
  8
0
  6
CONTINUOUS
 62
     7
 10
253.0656890869141
 20
58.999267578125
 11
251.2256774902344
 21
55.41923522949219
  0
LINE
  8
0
  6
CONTINUOUS
 62
     7
 10
251.2245941162109
 20
55.41990661621094
 11
246.6498870849609
 21
55.41990661621094
  0
LINE
  8
0
  6
CONTINUOUS
 62
     7
 10
246.6502990722656
 20
55.41955184936523
 11
246.2532196044922
 21
56.19213485717773
  0
LINE
  8
0
  6
CENTER
 62
     7
 10
242.3237152099609
 20
59.00004577636719
 11
262.69873046875
 21
59.00004577636719
  0
LINE
  8
0
  6
CENTER
 62
     7
 10
58
 20
71
 11
58
 21
36.29483032226563
  0
LINE
  8
0
  6
CENTER
 62
     7
 10
-58
 20
71
 11
-58
 21
34.69375610351563
  0
LINE
  8
0
  6
CONTINUOUS
 62
     7
 10
24.52946662902832
 20
17
 11
33.10749053955078
 21
13
  0
LINE
  8
0
  6
CONTINUOUS
 62
     7
 10
33.10817718505859
 20
12.99944496154785
 11
33.4462776184082
 21
13.72450828552246
  0
LINE
  8
0
  6
CONTINUOUS
 62
     7
 10
-47
 20
17
 11
-22
 21
17
  0
LINE
  8
0
  6
CONTINUOUS
 62
     7
 10
-46.99999237060547
 20
16.9994010925293
 11
-49.00012969970703
 21
18.99952507019043
  0
LINE
  8
0
  6
CONTINUOUS
 62
     7
 10
-45
 20
13.5
 11
-35
 21
13.5
  0
LINE
  8
0
  6
CONTINUOUS
 62
     7
 10
-44.99968719482422
 20
13.49974250793457
 11
-49
 21
17.50004196166992
  0
LINE
  8
0
  6
CONTINUOUS
 62
     7
 10
-27.49426460266113
 20
17
 11
-35.00042343139648
 21
13.49981784820557
  0
LINE
  8
0
  6
CONTINUOUS
 62
     7
 10
-26.42121505737305
 20
17
 11
-34.99923706054688
 21
13
  0
LINE
  8
0
  6
CONTINUOUS
 62
     7
 10
-0.000692217901814729
 20
64.77259826660156
 11
-4.99968433380127
 21
61.88642883300781
  0
LINE
  8
0
  6
CONTINUOUS
 62
     7
 10
-4.999790668487549
 20
56.11317825317383
 11
0.0001531445450382307
 21
53.22645950317383
  0
LINE
  8
0
  6
CONTINUOUS
 62
     7
 10
-28.49981689453125
 20
39.3274040222168
 11
-21.82823181152344
 21
45.99900817871094
  0
LINE
  8
0
  6
CONTINUOUS
 62
     7
 10
-28.5
 20
32.67156982421875
 11
-28.5
 21
39.32839965820313
  0
LINE
  8
0
  6
CONTINUOUS
 62
     7
 10
-28.49959182739258
 20
32.67123413085938
 11
-20.99970245361328
 21
25.17134666442871
  0
LINE
  8
0
  6
CONTINUOUS
 62
     7
 10
-21
 20
20.82839965820313
 11
-21
 21
25.17156982421875
  0
LINE
  8
0
  6
CONTINUOUS
 62
     7
 10
-24.82812881469727
 20
16.99902725219727
 11
-20.99980735778809
 21
20.82734680175781
  0
LINE
  8
0
  6
CONTINUOUS
 62
     7
 10
-33.10626220703125
 20
13
 11
-24.52824020385742
 21
17
  0
LINE
  8
0
  6
CONTINUOUS
 62
     7
 10
-33.44449615478516
 20
13.72533893585205
 11
-33.10639190673828
 21
13.00027656555176
  0
LINE
  8
0
  6
CONTINUOUS
 62
     7
 10
-5
 20
61.88674926757813
 11
-5
 21
56.1131591796875
  0
LINE
  8
0
  6
CONTINUOUS
 62
     7
 10
-16.19970703125
 20
70
 11
16.2001953125
 21
70
  0
LINE
  8
0
  6
CONTINUOUS
 62
     7
 10
40.80029296875
 20
70
 11
68.2001953125
 21
70
  0
LINE
  8
0
  6
CONTINUOUS
 62
     7
 10
-39.99921417236328
 20
69.19996643066406
 11
-40.7991943359375
 21
69.99995422363281
  0
LINE
  8
0
  6
CONTINUOUS
 62
     7
 10
-16.99848556518555
 20
69.19868469238281
 11
-16.1984748840332
 21
69.99868011474609
  0
LINE
  8
0
  6
CONTINUOUS
 62
     7
 10
17.00069808959961
 20
69.20002746582031
 11
16.20070838928223
 21
70
  0
LINE
  8
0
  6
CONTINUOUS
 62
     7
 10
40.00110244750977
 20
69.19891357421875
 11
40.80110549926758
 21
69.99891662597656
  0
LINE
  8
0
  6
CONTINUOUS
 62
     7
 10
2.61669921875
 20
62.5
 11
6.69677734375
 21
62.5
  0
LINE
  8
0
  6
CONTINUOUS
 62
     7
 10
2.61669921875
 20
55.5
 11
6.69677734375
 21
55.5
  0
LINE
  8
0
  6
CONTINUOUS
 62
     7
 10
1.967475414276123
 20
59.00005340576172
 11
2.617474794387817
 21
55.50002288818359
  0
LINE
  8
0
  6
CONTINUOUS
 62
     7
 10
1.968114256858826
 20
58.99958419799805
 11
2.618102550506592
 21
62.49955368041992
  0
LINE
  8
0
  6
CONTINUOUS
 62
     7
 10
4.278457164764404
 20
59.00025939941406
 11
4.928465843200684
 21
55.50026321411133
  0
LINE
  8
0
  6
CONTINUOUS
 62
     7
 10
4.27869462966919
 20
58.99948501586914
 11
4.928703308105469
 21
62.49948120117188
  0
LINE
  8
0
  6
CONTINUOUS
 62
     7
 10
6.788459777832031
 20
55.96954727172852
 11
6.698447704315186
 21
55.49954223632813
  0
LINE
  8
0
  6
CONTINUOUS
 62
     7
 10
6.788376808166504
 20
62.02025985717773
 11
6.698371887207031
 21
62.50023651123047
  0
LINE
  8
0
  6
CONTINUOUS
 62
     7
 10
8.60319995880127
 20
55.75432586669922
 11
11.35754108428955
 21
56.50008392333984
  0
LINE
  8
0
  6
CONTINUOUS
 62
     7
 10
8.587800025939941
 20
62.24961853027344
 11
11.35769462585449
 21
61.49964904785156
  0
LINE
  8
0
  6
CONTINUOUS
 62
     7
 10
3.938923358917236
 20
62.49953842163086
 11
0.001213899697177112
 21
64.77297210693359
  0
LINE
  8
0
  6
CONTINUOUS
 62
     7
 10
0.0004707124026026577
 20
53.2260856628418
 11
3.938232898712158
 21
55.49955368041992
  0
LINE
  8
0
  6
CONTINUOUS
 62
     7
 10
-21.828125
 20
46
 11
21.82861328125
 21
46
  0
LINE
  8
0
  6
CONTINUOUS
 62
     7
 10
21.82925605773926
 20
45.99977493286133
 11
28.50075531005859
 21
39.3282585144043
  0
LINE
  8
0
  6
CONTINUOUS
 62
     7
 10
28.5
 20
39.32839965820313
 11
28.5
 21
32.67156982421875
  0
LINE
  8
0
  6
CONTINUOUS
 62
     7
 10
21.00087738037109
 20
25.17075538635254
 11
28.50089645385742
 21
32.67077255249023
  0
LINE
  8
0
  6
CONTINUOUS
 62
     7
 10
21
 20
25.17156982421875
 11
21
 21
20.82839965820313
  0
LINE
  8
0
  6
CONTINUOUS
 62
     7
 10
21.00078773498535
 20
20.82841682434082
 11
24.82910919189453
 21
17.00009727478027
  0
LINE
  8
0
  6
CONTINUOUS
 62
     7
 10
-24.49951171875
 20
0
 11
-18.9979190826416
 21
0
  0
LINE
  8
0
  6
CONTINUOUS
 62
     7
 10
-20.99951171875
 20
44
 11
21
 21
44
  0
LINE
  8
0
  6
CONTINUOUS
 62
     7
 10
-26.5
 20
38.49996948242188
 11
-26.5
 21
33.49996948242188
  0
LINE
  8
0
  6
CONTINUOUS
 62
     7
 10
19
 20
26
 11
19
 21
20
  0
LINE
  8
0
  6
CONTINUOUS
 62
     7
 10
-19
 20
26
 11
-19
 21
20
  0
LINE
  8
0
  6
CONTINUOUS
 62
     7
 10
-20.99900627136231
 20
43.99903106689453
 11
-21.62771606445313
 21
43.37031936645508
  0
LINE
  8
0
  6
CONTINUOUS
 62
     7
 10
-18.99900817871094
 20
19.99911689758301
 11
-26.49900436401367
 21
12.49911880493164
  0
LINE
  8
0
  6
CONTINUOUS
 62
     7
 10
19.00085067749023
 20
25.99907112121582
 11
21.62967300415039
 21
28.62789154052734
  0
LINE
  8
0
  6
CONTINUOUS
 62
     7
 10
26.50082778930664
 20
1.999203324317932
 11
24.50082397460938
 21
-0.0007960919174365699
  0
LINE
  8
0
  6
CONTINUOUS
 62
     7
 10
-26.49898529052734
 20
1.999946475028992
 11
-24.49915313720703
 21
0.0001196771554532461
  0
LINE
  8
0
  6
CONTINUOUS
 62
     7
 10
19.00078582763672
 20
20.00007820129395
 11
26.50102043151856
 21
12.49984359741211
  0
LINE
  8
0
  6
CONTINUOUS
 62
     7
 10
21.00104331970215
 20
43.9996452331543
 11
21.62977409362793
 21
43.37091445922852
  0
LINE
  8
0
  6
CONTINUOUS
 62
     7
 10
-18.99913787841797
 20
26.00007247924805
 11
-21.62765693664551
 21
28.62859153747559
  0
LINE
  8
0
  6
CONTINUOUS
 62
     7
 10
-18
 20
1
 11
-10
 21
1
  0
LINE
  8
0
  6
CONTINUOUS
 62
     7
 10
-17.99883460998535
 20
0.9990852475166321
 11
-18.99883460998535
 21
-0.0009162299102172256
  0
LINE
  8
0
  6
CONTINUOUS
 62
     7
 10
-9.999246597290039
 20
1.000089168548584
 11
-8.999007225036621
 21
-0.0001488200650783256
  0
LINE
  8
0
  6
CONTINUOUS
 62
     7
 10
18.00071907043457
 20
1.000122427940369
 11
19.00095748901367
 21
-0.0001164521090686321
  0
LINE
  8
0
  6
CONTINUOUS
 62
     7
 10
10.00093841552734
 20
0.9993595480918884
 11
9.000936508178711
 21
-0.0006410961505025625
  0
LINE
  8
0
  6
CONTINUOUS
 62
     7
 10
-8.99951171875
 20
0
 11
9
 21
0
  0
LINE
  8
0
  6
CONTINUOUS
 62
     7
 10
10
 20
1
 11
18
 21
1
  0
LINE
  8
0
  6
CONTINUOUS
 62
     7
 10
19
 20
0
 11
24.5
 21
0
  0
LINE
  8
0
  6
CONTINUOUS
 62
     7
 10
26.5
 20
2
 11
26.5
 21
12.5
  0
LINE
  8
0
  6
CONTINUOUS
 62
     7
 10
26.5
 20
38.49996948242188
 11
26.5
 21
33.49996948242188
  0
LINE
  8
0
  6
CONTINUOUS
 62
     7
 10
-26.5
 20
12.5
 11
-26.5
 21
2
  0
LINE
  8
0
  6
CONTINUOUS
 62
     7
 10
26.22725677490234
 20
38.77341842651367
 11
26.50105285644531
 21
38.4996223449707
  0
LINE
  8
0
  6
CONTINUOUS
 62
     7
 10
26.22603988647461
 20
33.22425842285156
 11
26.5008716583252
 21
33.49909210205078
  0
LINE
  8
0
  6
CONTINUOUS
 62
     7
 10
-26.22419548034668
 20
33.22513198852539
 11
-26.4990291595459
 21
33.49996185302734
  0
LINE
  8
0
  6
CONTINUOUS
 62
     7
 10
-26.22526359558106
 20
38.77275848388672
 11
-26.49899482727051
 21
38.49902725219727
  0
LINE
  8
0
  6
CENTER
 62
     7
 10
0
 20
71
 11
0
 21
-1
  0
LINE
  8
0
  6
DASHED
 62
     7
 10
-11.5
 20
44
 11
-11.5
 21
24
  0
LINE
  8
0
  6
DASHED
 62
     7
 10
11.5
 20
44
 11
11.5
 21
24
  0
LINE
  8
0
  6
DASHED
 62
     7
 10
-8
 20
24
 11
-8
 21
0
  0
LINE
  8
0
  6
DASHED
 62
     7
 10
8
 20
24
 11
8
 21
0
  0
LINE
  8
0
  6
DASHED
 62
     7
 10
-11.5
 20
24
 11
11.5
 21
24
  0
LINE
  8
0
  6
CONTINUOUS
 62
     7
 10
459
 20
67
 11
459
 21
17
  0
LINE
  8
0
  6
CONTINUOUS
 62
     7
 10
460.5
 20
45.5999755859375
 11
460.5
 21
17
  0
LINE
  8
0
  6
CONTINUOUS
 62
     7
 10
460.5
 20
45.5999755859375
 11
459
 21
45.5999755859375
  0
LINE
  8
0
  6
CONTINUOUS
 62
     7
 10
459
 20
67
 11
457
 21
67
  0
LINE
  8
0
  6
CONTINUOUS
 62
     7
 10
460.5
 20
17
 11
457
 21
17
  0
LINE
  8
0
  6
CONTINUOUS
 62
     7
 10
-49.00083541870117
 20
64.99971771240234
 11
-47.00070571899414
 21
66.99984741210938
  0
LINE
  8
0
  6
CONTINUOUS
 62
     7
 10
150
 20
0
 11
570
 21
0
  0
LINE
  8
0
  6
CONTINUOUS
 62
     7
 10
150
 20
12.5
 11
570
 21
12.5
  0
LINE
  8
0
  6
CONTINUOUS
 62
     7
 10
150
 20
20.00007820129395
 11
259.5
 21
20.00007820129395
  0
LINE
  8
0
  6
CONTINUOUS
 62
     7
 10
150
 20
25.99907112121582
 11
259.5
 21
25.99907112121582
  0
LINE
  8
0
  6
CONTINUOUS
 62
     7
 10
150
 20
33.23698425292969
 11
259.5
 21
33.23698425292969
  0
LINE
  8
0
  6
CONTINUOUS
 62
     7
 10
150
 20
38.76197814941406
 11
259.5
 21
38.76197814941406
  0
LINE
  8
0
  6
CONTINUOUS
 62
     7
 10
150
 20
43.37091064453125
 11
259.5
 21
43.37091064453125
  0
LINE
  8
0
  6
CONTINUOUS
 62
     7
 10
150
 20
43.9996452331543
 11
259.5
 21
43.9996452331543
  0
LINE
  8
0
  6
CONTINUOUS
 62
     7
 10
150
 20
43.9996452331543
 11
150
 21
0
  0
LINE
  8
0
  6
CENTER
 62
     7
 10
180
 20
44.9996452331543
 11
180
 21
-1
  0
LINE
  8
0
  6
DASHED
 62
     7
 10
168.5
 20
44
 11
168.5
 21
24
  0
LINE
  8
0
  6
DASHED
 62
     7
 10
191.5
 20
44
 11
191.5
 21
24
  0
LINE
  8
0
  6
DASHED
 62
     7
 10
172
 20
24
 11
172
 21
0
  0
LINE
  8
0
  6
DASHED
 62
     7
 10
188
 20
24
 11
188
 21
0
  0
LINE
  8
0
  6
DASHED
 62
     7
 10
168.5
 20
24
 11
191.5
 21
24
  0
LINE
  8
0
  6
CENTER
 62
     7
 10
300
 20
16
 11
300
 21
-1
  0
LINE
  8
0
  6
CONTINUOUS
 62
     7
 10
570
 20
43.9996452331543
 11
570
 21
0
  0
LINE
  8
0
  6
CONTINUOUS
 62
     7
 10
570
 20
33.23698425292969
 11
460.5
 21
33.23698425292969
  0
LINE
  8
0
  6
CONTINUOUS
 62
     7
 10
570
 20
38.76197814941406
 11
460.5
 21
38.76197814941406
  0
LINE
  8
0
  6
CONTINUOUS
 62
     7
 10
570
 20
43.37091064453125
 11
460.5
 21
43.37091064453125
  0
LINE
  8
0
  6
CONTINUOUS
 62
     7
 10
570
 20
20.00007820129395
 11
460.5
 21
20.00007820129395
  0
LINE
  8
0
  6
CONTINUOUS
 62
     7
 10
570
 20
25.99907112121582
 11
460.5
 21
25.99907112121582
  0
LINE
  8
0
  6
CONTINUOUS
 62
     7
 10
570
 20
43.9996452331543
 11
460.5
 21
43.9996452331543
  0
LINE
  8
0
  6
CENTER
 62
     7
 10
420
 20
16
 11
420
 21
-1
  0
LINE
  8
0
  6
CENTER
 62
     7
 10
540
 20
44.9996452331543
 11
540
 21
-1
  0
LINE
  8
0
  6
CONTINUOUS
 62
     7
 10
281.9500122070313
 20
190
 11
438.0499877929688
 21
190
  0
LINE
  8
0
  6
CONTINUOUS
 62
     7
 10
281.9500122070313
 20
330
 11
438.0499877929688
 21
330
  0
LINE
  8
0
  6
CONTINUOUS
 62
     7
 10
281.9500122070313
 20
300.7998046875
 11
438.0499877929688
 21
300.7998046875
  0
LINE
  8
0
  6
CONTINUOUS
 62
     7
 10
281.9500122070313
 20
276.19970703125
 11
438.0499877929688
 21
276.19970703125
  0
LINE
  8
0
  6
CONTINUOUS
 62
     7
 10
281.9500122070313
 20
243.7998046875
 11
438.0499877929688
 21
243.7998046875
  0
LINE
  8
0
  6
CONTINUOUS
 62
     7
 10
281.9500122070313
 20
219.1988983154297
 11
438.0499877929688
 21
219.1988983154297
  0
LINE
  8
0
  6
CONTINUOUS
 62
     7
 10
281.9500122070313
 20
330
 11
281.9500122070313
 21
190
  0
LINE
  8
0
  6
CONTINUOUS
 62
     7
 10
438.0499877929688
 20
330
 11
438.0499877929688
 21
190
  0
LINE
  8
0
  6
CENTER
 62
     7
 10
149
 20
260
 11
571
 21
260
  0
LINE
  8
0
  6
CONTINUOUS
 62
     7
 10
263
 20
309
 11
263
 21
211
  0
LINE
  8
0
  6
CONTINUOUS
 62
     7
 10
261
 20
309
 11
261
 21
211
  0
LINE
  8
0
  6
CONTINUOUS
 62
     7
 10
259.5
 20
288.5
 11
259.5
 21
265
  0
LINE
  8
0
  6
CONTINUOUS
 62
     7
 10
261
 20
211
 11
281.9500122070313
 21
211
  0
LINE
  8
0
  6
CONTINUOUS
 62
     7
 10
261
 20
309
 11
281.9500122070313
 21
309
  0
LINE
  8
0
  6
CONTINUOUS
 62
     7
 10
259.5
 20
288.5
 11
261
 21
288.5
  0
LINE
  8
0
  6
CONTINUOUS
 62
     7
 10
259.5
 20
231.5
 11
261
 21
231.5
  0
LINE
  8
0
  6
CONTINUOUS
 62
     7
 10
150
 20
233.5
 11
259.5
 21
233.5
  0
LINE
  8
0
  6
CONTINUOUS
 62
     7
 10
150
 20
239
 11
259.5
 21
239
  0
LINE
  8
0
  6
CONTINUOUS
 62
     7
 10
150
 20
280.99951171875
 11
259.5
 21
280.99951171875
  0
LINE
  8
0
  6
CONTINUOUS
 62
     7
 10
150
 20
286.5
 11
259.5
 21
286.5
  0
LINE
  8
0
  6
CONTINUOUS
 62
     7
 10
150
 20
286.5
 11
150
 21
233.5
  0
LINE
  8
0
  6
CENTER
 62
     7
 10
180
 20
272.5
 11
180
 21
247.5
  0
LINE
  8
0
  6
CONTINUOUS
 62
     7
 10
570
 20
286.5
 11
460.5
 21
286.5
  0
LINE
  8
0
  6
CONTINUOUS
 62
     7
 10
570
 20
280.99951171875
 11
460.5
 21
280.99951171875
  0
LINE
  8
0
  6
CONTINUOUS
 62
     7
 10
570
 20
286.5
 11
570
 21
233.5
  0
LINE
  8
0
  6
CONTINUOUS
 62
     7
 10
570
 20
233.5
 11
460.5
 21
233.5
  0
LINE
  8
0
  6
CONTINUOUS
 62
     7
 10
570
 20
239
 11
460.5
 21
239
  0
LINE
  8
0
  6
CONTINUOUS
 62
     7
 10
570
 20
286.5
 11
460.5
 21
286.5
  0
LINE
  8
0
  6
CONTINUOUS
 62
     7
 10
570
 20
280.99951171875
 11
460.5
 21
280.99951171875
  0
LINE
  8
0
  6
CONTINUOUS
 62
     7
 10
570
 20
233.5
 11
460.5
 21
233.5
  0
LINE
  8
0
  6
CONTINUOUS
 62
     7
 10
570
 20
239
 11
460.5
 21
239
  0
LINE
  8
0
  6
CONTINUOUS
 62
     7
 10
460.5
 20
288.5
 11
460.5
 21
231.5
  0
LINE
  8
0
  6
CONTINUOUS
 62
     7
 10
459
 20
309
 11
459
 21
211
  0
LINE
  8
0
  6
CONTINUOUS
 62
     7
 10
457
 20
309
 11
457
 21
211
  0
LINE
  8
0
  6
CONTINUOUS
 62
     7
 10
460.5
 20
231.5
 11
459
 21
231.5
  0
LINE
  8
0
  6
CONTINUOUS
 62
     7
 10
460.5
 20
288.5
 11
459
 21
288.5
  0
LINE
  8
0
  6
CONTINUOUS
 62
     7
 10
459
 20
309
 11
438.0499877929688
 21
309
  0
LINE
  8
0
  6
CONTINUOUS
 62
     7
 10
459
 20
211
 11
438.0499877929688
 21
211
  0
LINE
  8
0
  6
CENTER
 62
     7
 10
245.9628448486328
 20
246.9113464355469
 11
251.5417633056641
 21
260.3800659179688
  0
LINE
  8
0
  6
CONTINUOUS
 62
     7
 10
244.3830261230469
 20
249.3688201904297
 11
248.817626953125
 21
247.5319366455078
  0
LINE
  8
0
  6
CONTINUOUS
 62
     7
 10
244.5847778320313
 20
252.2076873779297
 11
250.6823577880859
 21
249.6819915771484
  0
LINE
  8
0
  6
CONTINUOUS
 62
     7
 10
244.3830261230469
 20
249.3688354492188
 11
244.5847930908203
 21
252.2077178955078
  0
LINE
  8
0
  6
CONTINUOUS
 62
     7
 10
248.8176727294922
 20
247.5319519042969
 11
250.6824035644531
 21
249.6820068359375
  0
LINE
  8
0
  6
CONTINUOUS
 62
     7
 10
245.323486328125
 20
255.9285888671875
 11
245.7381439208984
 21
256.9296569824219
  0
LINE
  8
0
  6
CONTINUOUS
 62
     7
 10
252.7911071777344
 20
252.8354034423828
 11
253.2057647705078
 21
253.8364715576172
  0
LINE
  8
0
  6
CONTINUOUS
 62
     7
 10
246.5176239013672
 20
257.25244140625
 11
245.7381744384766
 21
256.9295959472656
  0
LINE
  8
0
  6
CONTINUOUS
 62
     7
 10
246.9608001708984
 20
254.6010131835938
 11
247.8333587646484
 21
256.7075500488281
  0
LINE
  8
0
  6
CONTINUOUS
 62
     7
 10
250.6945648193359
 20
253.0544281005859
 11
251.5671234130859
 21
255.1609497070313
  0
LINE
  8
0
  6
CONTINUOUS
 62
     7
 10
245.8787384033203
 20
257.5171508789063
 11
252.8828887939453
 21
254.6159362792969
  0
LINE
  8
0
  6
CONTINUOUS
 62
     7
 10
253.2057647705078
 20
253.83642578125
 11
252.8829040527344
 21
254.6158905029297
  0
LINE
  8
0
  6
CONTINUOUS
 62
     7
 10
245.7150573730469
 20
253.6298828125
 11
250.8887634277344
 21
251.4868469238281
  0
LINE
  8
0
  6
CONTINUOUS
 62
     7
 10
256.2999877929688
 20
265
 11
256.2999877929688
 21
255
  0
LINE
  8
0
  6
CONTINUOUS
 62
     7
 10
245.7999725341797
 20
261.7999877929688
 11
245.7999725341797
 21
258.1452941894531
  0
LINE
  8
0
  6
CONTINUOUS
 62
     7
 10
256.2999877929688
 20
265
 11
261
 21
265
  0
LINE
  8
0
  6
CONTINUOUS
 62
     7
 10
248.7999725341797
 20
264.7999877929688
 11
256.2999877929688
 21
264.7999877929688
  0
LINE
  8
0
  6
CONTINUOUS
 62
     7
 10
251.4728546142578
 20
255.1999969482422
 11
256.2999877929688
 21
255.1999969482422
  0
LINE
  8
0
  6
CONTINUOUS
 62
     7
 10
256.2999877929688
 20
255
 11
261
 21
255
  0
LINE
  8
0
  6
CONTINUOUS
 62
     7
 10
245.5532836914063
 20
255.1840057373047
 11
252.1020812988281
 21
252.4714050292969
  0
LINE
  8
0
  6
CONTINUOUS
 62
     7
 10
259.5
 20
255
 11
259.5
 21
231.5
  0
LINE
  8
0
  6
CENTER
 62
     7
 10
300
 20
272.5
 11
300
 21
247.5
  0
LINE
  8
0
  6
CENTER
 62
     7
 10
420
 20
272.5
 11
420
 21
247.5
  0
LINE
  8
0
  6
CENTER
 62
     7
 10
540
 20
272.5
 11
540
 21
247.5
  0
LINE
  8
0
  6
CENTER
 62
     7
 10
407.5
 20
12.97624969482422
 11
407.5
 21
71
  0
LINE
  8
0
  6
CENTER
 62
     7
 10
312.5
 20
71
 11
312.5
 21
13.12371063232422
  0
LINE
  8
0
  6
CONTINUOUS
 62
     7
 10
-49
 20
64.99996948242188
 11
-49
 21
17.50004196166992
  0
LINE
  8
0
  6
CONTINUOUS
 62
     7
 10
60.984375
 20
53
 11
68.5
 21
53
  0
LINE
  8
0
  6
DASHED
 62
     7
 10
-65
 20
70
 11
-65
 21
53
  0
LINE
  8
0
  6
DASHED
 62
     7
 10
-68.3232421875
 20
53
 11
-48
 21
53
  0
LINE
  8
0
  6
DASHED
 62
     7
 10
-51
 20
53
 11
-51
 21
70
  0
LINE
  8
0
  6
DASHED
 62
     7
 10
-48
 20
14.5
 11
-48
 21
53
  0
LINE
  8
0
  6
CONTINUOUS
 62
     7
 10
-60.984375
 20
53
 11
-68.5
 21
53
  0
LINE
  8
0
  6
CONTINUOUS
 62
     7
 10
-49.73764419555664
 20
13
 11
-56.08549118041992
 21
49.00046539306641
  0
LINE
  8
0
  6
CONTINUOUS
 62
     7
 10
322.5
 20
40.99999237060547
 11
397.5
 21
40.99999237060547
  0
LINE
  8
0
  6
CONTINUOUS
 62
     7
 10
322.5
 20
47.99999237060547
 11
322.5
 21
40.99999237060547
  0
LINE
  8
0
  6
CONTINUOUS
 62
     7
 10
397.5
 20
47.99999237060547
 11
397.5
 21
40.99999237060547
  0
LINE
  8
0
  6
CONTINUOUS
 62
     7
 10
281.9500122070313
 20
52.99999237060547
 11
317.5
 21
52.99999237060547
  0
LINE
  8
0
  6
CONTINUOUS
 62
     7
 10
402.5
 20
52.99999237060547
 11
438.0499877929688
 21
52.99999237060547
  0
LINE
  8
0
  6
CONTINUOUS
 62
     7
 10
405.7998657226563
 20
14.49973678588867
 11
398.0758361816406
 21
50.32893371582031
  0
LINE
  8
0
  6
CONTINUOUS
 62
     7
 10
417.5000610351563
 20
53.00018692016602
 11
409.2000122070313
 21
14.5001745223999
  0
LINE
  8
0
  6
CONTINUOUS
 62
     7
 10
314.199951171875
 20
14.50028896331787
 11
321.9241638183594
 21
50.32948684692383
  0
LINE
  8
0
  6
CONTINUOUS
 62
     7
 10
310.8001708984375
 20
14.50015258789063
 11
302.5002746582031
 21
52.99984741210938
  0
LINE
  8
0
  6
DASHED
 62
     7
 10
319.49951171875
 20
69.200439453125
 11
319.49951171875
 21
52.58300018310547
  0
LINE
  8
0
  6
DASHED
 62
     7
 10
305.49951171875
 20
70
 11
305.49951171875
 21
53.00048065185547
  0
LINE
  8
0
  6
CENTER
 62
     7
 10
312.5
 20
210
 11
312.5
 21
194
  0
LINE
  8
0
  6
CENTER
 62
     7
 10
304.5
 20
202
 11
320.5
 21
202
  0
LINE
  8
0
  6
CENTER
 62
     7
 10
312.5
 20
326
 11
312.5
 21
310
  0
LINE
  8
0
  6
CENTER
 62
     7
 10
304.5
 20
318
 11
320.5
 21
318
  0
LINE
  8
0
  6
CENTER
 62
     7
 10
407.5
 20
326
 11
407.5
 21
310
  0
LINE
  8
0
  6
CENTER
 62
     7
 10
399.5
 20
318
 11
415.5
 21
318
  0
LINE
  8
0
  6
CENTER
 62
     7
 10
407.5
 20
210
 11
407.5
 21
194
  0
LINE
  8
0
  6
CENTER
 62
     7
 10
399.5
 20
202
 11
415.5
 21
202
  0
LINE
  8
0
  6
CONTINUOUS
 62
     7
 10
281.9500122070313
 20
55
 11
438.0499877929688
 21
55
  0
LINE
  8
0
  6
CONTINUOUS
 62
     7
 10
-70
 20
54.5
 11
-68.5
 21
53
  0
LINE
  8
0
  6
CONTINUOUS
 62
     7
 10
70
 20
54.5
 11
68.5
 21
53
  0
ARC
  8
0
  6
CONTINUOUS
 62
     7
 10
-58.86767578125
 20
36
 40
5.000000000000003
 50
9.999974095883493
 51
89.99987273088392
  0
ARC
  8
0
  6
CONTINUOUS
 62
     7
 10
58.8681640625
 20
36
 40
5.000000000000003
 50
90.00009129693736
 51
170.000020667789
  0
ARC
  8
0
  6
CONTINUOUS
 62
     7
 10
8.44677734375
 20
56.70999145507813
 40
0.9683421850204466
 50
215.3314570768741
 51
278.297222506794
  0
ARC
  8
0
  6
CONTINUOUS
 62
     7
 10
7.45703125
 20
54.91998291015625
 40
1.246148109436035
 50
80.76452806729958
 51
142.1250351177264
  0
ARC
  8
0
  6
CONTINUOUS
 62
     7
 10
7.45703125
 20
63.07998657226563
 40
1.254199028015138
 50
217.8749648822736
 51
279.2353626496737
  0
ARC
  8
0
  6
CONTINUOUS
 62
     7
 10
8.44677734375
 20
61.28997802734375
 40
0.9701610803604148
 50
81.70288677623258
 51
144.6685429231259
  0
ARC
  8
0
  6
CONTINUOUS
 62
     7
 10
0
 20
59
 40
4.799999237060547
 50
46.81658568465235
 51
313.1834072577874
  0
ARC
  8
0
  6
CONTINUOUS
 62
     7
 10
26.5673828125
 20
43.71197509765625
 40
4.949998855590819
 50
183.9467378406655
 51
266.0531521930625
  0
ARC
  8
0
  6
CONTINUOUS
 62
     7
 10
26.5673828125
 20
28.2869873046875
 40
4.949998855590819
 50
93.95957927955047
 51
176.0403667621815
  0
ARC
  8
0
  6
CONTINUOUS
 62
     7
 10
-26.56689453125
 20
28.2869873046875
 40
4.949998855590822
 50
3.959607510923554
 51
86.04038474827084
  0
ARC
  8
0
  6
CONTINUOUS
 62
     7
 10
-26.56689453125
 20
43.71197509765625
 40
4.949998855590819
 50
273.9469384206296
 51
356.0532673956619
  0
ARC
  8
0
  6
CONTINUOUS
 62
     7
 10
29.48049926757813
 20
16.34563064575195
 40
2.499999999999999
 50
191.8576815034277
 51
298.1423098195095
  0
ARC
  8
0
  6
CONTINUOUS
 62
     7
 10
-29.48019981384277
 20
16.34577178955078
 40
2.5
 50
241.8577261526692
 51
348.1423203178051
  0
ARC
  8
0
  6
CONTINUOUS
 62
     7
 10
248.7997894287109
 20
60.79997253417969
 40
2.999999999999999
 50
89.99998201391043
 51
165.8646416536699
  0
ARC
  8
0
  6
CONTINUOUS
 62
     7
 10
248.7997894287109
 20
57.19999694824219
 40
3.000000000000005
 50
195.642863058422
 51
270.000072627603
  0
ARC
  8
0
  6
CONTINUOUS
 62
     7
 10
264.41064453125
 20
58.99998474121094
 40
8.111171722412118
 50
158.545684146651
 51
201.4542985505051
  0
ARC
  8
0
  6
CONTINUOUS
 62
     7
 10
264.61767578125
 20
65.28425598144531
 40
8.435743331909185
 50
189.5825728116531
 51
203.1582021644572
  0
ARC
  8
0
  6
CONTINUOUS
 62
     7
 10
264.61767578125
 20
52.71571350097656
 40
8.435743331909167
 50
156.8417978355428
 51
170.4174271883469
  0
ARC
  8
0
  6
CONTINUOUS
 62
     7
 10
252.6816253662109
 20
65.28425598144531
 40
8.43574333190919
 50
336.8417996567757
 51
350.4174290095797
  0
ARC
  8
0
  6
CONTINUOUS
 62
     7
 10
252.8886566162109
 20
58.99998474121094
 40
8.111171722412133
 50
338.5457030433568
 51
21.45431403211627
  0
ARC
  8
0
  6
CONTINUOUS
 62
     7
 10
252.6816253662109
 20
52.71571350097656
 40
8.435743331909196
 50
9.582570990420285
 51
23.15820034322427
  0
CIRCLE
  8
0
  6
CONTINUOUS
 62
     7
 10
180
 20
260
 40
11.5
  0
CIRCLE
  8
0
  6
CONTINUOUS
 62
     7
 10
180
 20
260
 40
8
  0
ARC
  8
0
  6
CONTINUOUS
 62
     7
 10
247.6335906982422
 20
250.9449005126953
 40
3.299999237060546
 50
131.5803705110077
 51
157.4999548639651
  0
ARC
  8
0
  6
CONTINUOUS
 62
     7
 10
247.6335906982422
 20
250.9449005126953
 40
3.299999237060545
 50
337.5000181569009
 51
3.419602296415186
  0
ARC
  8
0
  6
CONTINUOUS
 62
     7
 10
239.7172088623047
 20
253.7909851074219
 40
6.00000000000001
 50
2.43365082934552
 51
20.87173987704925
  0
ARC
  8
0
  6
CONTINUOUS
 62
     7
 10
255.2437591552734
 20
247.3596801757813
 40
6.000000000000011
 50
114.1278165022775
 51
132.5663219780772
  0
ARC
  8
0
  6
CONTINUOUS
 62
     7
 10
244.9125213623047
 20
254.0117950439453
 40
0.7999999523162822
 50
311.5798327472963
 51
2.433049772698627
  0
ARC
  8
0
  6
CONTINUOUS
 62
     7
 10
251.7262725830078
 20
251.189453125
 40
0.7999999523162747
 50
132.5669776762372
 51
183.4201402735692
  0
ARC
  8
0
  6
CONTINUOUS
 62
     7
 10
248.7999725341797
 20
261.7999877929688
 40
2.999999999999977
 50
89.99998201391043
 51
179.9999640278208
  0
ARC
  8
0
  6
CONTINUOUS
 62
     7
 10
248.7999725341797
 20
258.2000122070313
 40
3
 50
180.0000906136925
 51
193.1569474081041
  0
ARC
  8
0
  6
CONTINUOUS
 62
     7
 10
60.984375
 20
48
 40
5.000000000000003
 50
90.00009129693736
 51
170.000020667789
  0
ARC
  8
0
  6
CONTINUOUS
 62
     7
 10
-60.984375
 20
48
 40
4.999999999999998
 50
9.999979218525386
 51
89.99990688182977
  0
ARC
  8
0
  6
CONTINUOUS
 62
     7
 10
317.5
 20
47.99999237060547
 40
5
 50
0
 51
89.99998201391097
  0
ARC
  8
0
  6
CONTINUOUS
 62
     7
 10
402.5
 20
47.99999237060547
 40
4.999999999999997
 50
89.99998201391097
 51
179.9999640278213
  0
CIRCLE
  8
0
  6
CONTINUOUS
 62
     7
 10
312.5
 20
202
 40
7
  0
POLYLINE
  8
0
  6
CONTINUOUS
 62
     7
 66
     1
 10
0
 20
0
  0
VERTEX
  8
0
  6
CONTINUOUS
 62
     7
 10
7.65673828125
 20
61.84996032714844
 42
0.1885790396546959
  0
VERTEX
  8
0
  6
CONTINUOUS
 62
     7
 10
7.297012504523993
 20
61.69026759406101
 42
0.07574286222584342
  0
VERTEX
  8
0
  6
CONTINUOUS
 62
     7
 10
7.052784089037413
 20
61.37242905519852
 42
0.03933462237376865
  0
VERTEX
  8
0
  6
CONTINUOUS
 62
     7
 10
6.882926596809085
 20
61.00709583824072
 42
0.02577034886113039
  0
VERTEX
  8
0
  6
CONTINUOUS
 62
     7
 10
6.760774588318937
 20
60.62294660560053
 42
0.01950453086317758
  0
VERTEX
  8
0
  6
CONTINUOUS
 62
     7
 10
6.673284992403021
 20
60.22873674321132
 42
0.01621404613750498
  0
VERTEX
  8
0
  6
CONTINUOUS
 62
     7
 10
6.613924901560104
 20
59.82914789894146
 42
0.0144660402182681
  0
VERTEX
  8
0
  6
CONTINUOUS
 62
     7
 10
6.579056364116856
 20
59.42662541638062
 42
0.01369080121270189
  0
VERTEX
  8
0
  6
CONTINUOUS
 62
     7
 10
6.566806517060583
 20
59.02248344912145
 42
0.01360437594998718
  0
VERTEX
  8
0
  6
CONTINUOUS
 62
     7
 10
6.576520719944186
 20
58.61964032926503
 42
0.01431478095842511
  0
VERTEX
  8
0
  6
CONTINUOUS
 62
     7
 10
6.608667574887982
 20
58.21739084328658
 42
0.01598132874311169
  0
VERTEX
  8
0
  6
CONTINUOUS
 62
     7
 10
6.665174836221258
 20
57.81657444990504
 42
0.01902614144398053
  0
VERTEX
  8
0
  6
CONTINUOUS
 62
     7
 10
6.749231852774987
 20
57.42142226272888
 42
0.02487901128021134
  0
VERTEX
  8
0
  6
CONTINUOUS
 62
     7
 10
6.867241782818407
 20
57.03502667493831
 42
0.03729514880880949
  0
VERTEX
  8
0
  6
CONTINUOUS
 62
     7
 10
7.031309735027358
 20
56.66584243295835
 42
0.06998185555210283
  0
VERTEX
  8
0
  6
CONTINUOUS
 62
     7
 10
7.266887213155693
 20
56.33850863498701
 42
0.1738259545513362
  0
VERTEX
  8
0
  6
CONTINUOUS
 62
     7
 10
7.616649377354064
 20
56.15190641375861
 42
0
  0
SEQEND
  8
0
  0
POLYLINE
  8
0
  6
CONTINUOUS
 62
     7
 66
     1
 10
0
 20
0
 70
     1
  0
VERTEX
  8
0
  6
CONTINUOUS
 62
     7
 10
11.35693359375
 20
61.5
 42
0.2551560950829379
  0
VERTEX
  8
0
  6
CONTINUOUS
 62
     7
 10
10.82713237234835
 20
61.07510106492233
 42
0.06318711894741387
  0
VERTEX
  8
0
  6
CONTINUOUS
 62
     7
 10
10.57303664911591
 20
60.41221437682239
 42
0.03518425418708619
  0
VERTEX
  8
0
  6
CONTINUOUS
 62
     7
 10
10.44629790024772
 20
59.71216618260954
 42
0.02798352527923184
  0
VERTEX
  8
0
  6
CONTINUOUS
 62
     7
 10
10.40692138671875
 20
59
 42
0.02789800293225086
  0
VERTEX
  8
0
  6
CONTINUOUS
 62
     7
 10
10.44607015657593
 20
58.2898533123103
 42
0.03515819536260897
  0
VERTEX
  8
0
  6
CONTINUOUS
 62
     7
 10
10.57257428260071
 20
57.58956459205137
 42
0.06315211399601599
  0
VERTEX
  8
0
  6
CONTINUOUS
 62
     7
 10
10.82660893777611
 20
56.92582511997357
 42
0.255281620930295
  0
VERTEX
  8
0
  6
CONTINUOUS
 62
     7
 10
11.35693359375
 20
56.49999999999999
 42
0.255162665152895
  0
VERTEX
  8
0
  6
CONTINUOUS
 62
     7
 10
11.88675027243966
 20
56.92487856294041
 42
0.06319282667174969
  0
VERTEX
  8
0
  6
CONTINUOUS
 62
     7
 10
12.14085005765268
 20
57.58776327478847
 42
0.0351869505706561
  0
VERTEX
  8
0
  6
CONTINUOUS
 62
     7
 10
12.26758215582291
 20
58.28781255230702
 42
0.0279860231258215
  0
VERTEX
  8
0
  6
CONTINUOUS
 62
     7
 10
12.30694580078125
 20
59
 42
0.02790016064028333
  0
VERTEX
  8
0
  6
CONTINUOUS
 62
     7
 10
12.26781136272332
 20
59.71014743021556
 42
0.03516091891304997
  0
VERTEX
  8
0
  6
CONTINUOUS
 62
     7
 10
12.14131466747486
 20
60.41043738644574
 42
0.06315638642790641
  0
VERTEX
  8
0
  6
CONTINUOUS
 62
     7
 10
11.88727811329152
 20
61.07417578388439
 42
0.2552786734871513
  0
SEQEND
  8
0
  0
POLYLINE
  8
0
  6
CONTINUOUS
 62
     7
 66
     1
 10
0
 20
0
 70
     1
  0
VERTEX
  8
0
  6
CONTINUOUS
 62
     7
 10
246.5995941162109
 20
61.50004577636719
 42
0.1103711540621777
  0
VERTEX
  8
0
  6
CONTINUOUS
 62
     7
 10
245.6874357383088
 20
61.2950101814462
 42
0.1025029920455479
  0
VERTEX
  8
0
  6
CONTINUOUS
 62
     7
 10
244.9400973032006
 20
60.73100019797229
 42
0.09329178103818565
  0
VERTEX
  8
0
  6
CONTINUOUS
 62
     7
 10
244.4624871504431
 20
59.92410612569998
 42
0.08782489793759926
  0
VERTEX
  8
0
  6
CONTINUOUS
 62
     7
 10
244.2996063232422
 20
59.00001525878906
 42
0.08777313250767063
  0
VERTEX
  8
0
  6
CONTINUOUS
 62
     7
 10
244.4623058111138
 20
58.07638789423514
 42
0.09326634457862579
  0
VERTEX
  8
0
  6
CONTINUOUS
 62
     7
 10
244.9395909823401
 20
57.26957046194897
 42
0.1026387212412675
  0
VERTEX
  8
0
  6
CONTINUOUS
 62
     7
 10
245.6878058604611
 20
56.70484501915411
 42
0.110333975850459
  0
VERTEX
  8
0
  6
CONTINUOUS
 62
     7
 10
246.5995941162109
 20
56.50004577636719
 42
0.1103716539812198
  0
VERTEX
  8
0
  6
CONTINUOUS
 62
     7
 10
247.5117582467244
 20
56.70505588955597
 42
0.1025079093007075
  0
VERTEX
  8
0
  6
CONTINUOUS
 62
     7
 10
248.2591051272831
 20
57.26905363794581
 42
0.09329587471799043
  0
VERTEX
  8
0
  6
CONTINUOUS
 62
     7
 10
248.7367125074651
 20
58.07594865278593
 42
0.08782851166134167
  0
VERTEX
  8
0
  6
CONTINUOUS
 62
     7
 10
248.8995819091797
 20
59.00007629394531
 42
0.08777776612741531
  0
VERTEX
  8
0
  6
CONTINUOUS
 62
     7
 10
248.7368966659004
 20
59.92370551443403
 42
0.09326974934352429
  0
VERTEX
  8
0
  6
CONTINUOUS
 62
     7
 10
248.259610723585
 20
60.73052189446059
 42
0.1026381178443584
  0
VERTEX
  8
0
  6
CONTINUOUS
 62
     7
 10
247.5113918515845
 20
61.29524152767823
 42
0.1103293829199799
  0
SEQEND
  8
0
  0
POLYLINE
  8
0
  6
CONTINUOUS
 62
     7
 66
     1
 10
0
 20
0
  0
VERTEX
  8
0
  6
CONTINUOUS
 62
     7
 10
245.5995941162109
 20
56.76005554199219
 42
0.06388892119052607
  0
VERTEX
  8
0
  6
CONTINUOUS
 62
     7
 10
246.1960553643108
 20
56.23022568349869
 42
0.07487799168458943
  0
VERTEX
  8
0
  6
CONTINUOUS
 62
     7
 10
246.9141177589968
 20
55.88397251097819
 42
0.06457805785986358
  0
VERTEX
  8
0
  6
CONTINUOUS
 62
     7
 10
247.6996917724609
 20
55.75004577636719
 42
0
  0
SEQEND
  8
0
  0
POLYLINE
  8
0
  6
CONTINUOUS
 62
     7
 66
     1
 10
0
 20
0
  0
VERTEX
  8
0
  6
CONTINUOUS
 62
     7
 10
245.4756239266204
 20
56.81891906258116
 42
0.06283295070198011
  0
VERTEX
  8
0
  6
CONTINUOUS
 62
     7
 10
246.0399253450275
 20
56.29274616694869
 42
0.06649830109406731
  0
VERTEX
  8
0
  6
CONTINUOUS
 62
     7
 10
246.7199300174345
 20
55.92824453760538
 42
0.06915679481560848
  0
VERTEX
  8
0
  6
CONTINUOUS
 62
     7
 10
247.4722888578784
 20
55.75939390536728
 42
0.06974585012080779
  0
VERTEX
  8
0
  6
CONTINUOUS
 62
     7
 10
248.241046927489
 20
55.8033912944284
 42
0.06816362109282119
  0
VERTEX
  8
0
  6
CONTINUOUS
 62
     7
 10
248.9688951740923
 20
56.05520700334577
 42
0.06499731740594027
  0
VERTEX
  8
0
  6
CONTINUOUS
 62
     7
 10
249.6054654342501
 20
56.4900359530974
 42
0.0612928919716001
  0
VERTEX
  8
0
  6
CONTINUOUS
 62
     7
 10
250.1135238502289
 20
57.0701392438953
 42
0.05808148465294455
  0
VERTEX
  8
0
  6
CONTINUOUS
 62
     7
 10
250.4705159211585
 20
57.7541384372287
 42
0.05590667030792006
  0
VERTEX
  8
0
  6
CONTINUOUS
 62
     7
 10
250.66416372536
 20
58.50128761152062
 42
0.05495119056923096
  0
VERTEX
  8
0
  6
CONTINUOUS
 62
     7
 10
250.6891741224519
 20
59.27201327388335
 42
0.05547558449177275
  0
VERTEX
  8
0
  6
CONTINUOUS
 62
     7
 10
250.5451046207504
 20
60.02990674093072
 42
0.05728237675881836
  0
VERTEX
  8
0
  6
CONTINUOUS
 62
     7
 10
250.2356980639229
 20
60.73635235363226
 42
0.06027004491747782
  0
VERTEX
  8
0
  6
CONTINUOUS
 62
     7
 10
249.7704565739231
 20
61.35166234209603
 42
0.06395339173499734
  0
VERTEX
  8
0
  6
CONTINUOUS
 62
     7
 10
249.1682447759328
 20
61.83403776113189
 42
0.06744453135650254
  0
VERTEX
  8
0
  6
CONTINUOUS
 62
     7
 10
248.4615826209638
 20
62.1434944056019
 42
0.06943959782719467
  0
VERTEX
  8
0
  6
CONTINUOUS
 62
     7
 10
247.6996917724609
 20
62.25004577636719
 42
0
  0
SEQEND
  8
0
  0
POLYLINE
  8
0
  6
CONTINUOUS
 62
     7
 66
     1
 10
0
 20
0
  0
VERTEX
  8
0
  6
CONTINUOUS
 62
     7
 10
245.6180318421699
 20
61.26091351804724
 42
-0.06326885143469073
  0
VERTEX
  8
0
  6
CONTINUOUS
 62
     7
 10
246.2106225207138
 20
61.77985371571702
 42
-0.07418120702674379
  0
VERTEX
  8
0
  6
CONTINUOUS
 62
     7
 10
246.9219763154115
 20
62.11861959694839
 42
-0.0637731995461446
  0
VERTEX
  8
0
  6
CONTINUOUS
 62
     7
 10
247.6996917724609
 20
62.25004577636719
 42
0
  0
SEQEND
  8
0
  0
TEXT
  8
0
  6
CONTINUOUS
 62
     7
 10
-11.28550004959106
 20
-31.79999995231628
 40
3.599999904632568
 41
1.007125066575079
  1
HSR55LB
  0
ENDSEC
  0
EOF
