  0
SECTION
  2
HEADER
  0
ENDSEC
  0
SECTION
  2
TABLES
  0
TABLE
  2
LTYPE
 70
    22
  0
LTYPE
  2
CONTINUOUS
 70
    64
  3
Solid line
 72
    65
 73
     0
 40
0.000000
  0
LTYPE
  2
DASHED
 70
    64
  3
__ __ __ __ __ __ __ __ __ __ __ __ __ __ __
 72
    65
 73
     2
 40
3.500000
 49
2.000000
 49
-1.500000
  0
LTYPE
  2
CENTER
 70
    64
  3
____ _ ____ _ ____ _ ____ _ ____ _ ____ _ ____
 72
    65
 73
     4
 40
17.500000
 49
13.000000
 49
-1.500000
 49
1.500000
 49
-1.500000
  0
LTYPE
  2
PHANTOM
 70
    64
  3
_____ _ _ _____ _ _ _____ _ _ _____ _ _ ____  
 72
    65
 73
     6
 40
15.500000
 49
8.000000
 49
-1.500000
 49
1.500000
 49
-1.500000
 49
1.500000
 49
-1.500000
  0
LTYPE
  2
DOT
 70
    64
  3
. . . . . . . . . . . . . . . . . . . . . . . .
 72
    65
 73
     2
 40
0.25
 49
0.0
 49
-0.25
  0
ENDTAB
  0
TABLE
  2
LAYER
 70
     1
  0
LAYER
  2
0
 70
     0
 62
     7
  6
CONTINUOUS
  0
ENDTAB
  0
TABLE
  2
STYLE
 70
     1
  0
STYLE
  2
STANDARD
 70
     0
 40
0.000000
 41
1.000000
 50
0.000000
 71
     0
 42
0.200000
  3
txt
  0
ENDTAB
  0
TABLE
  2
VIEW
 70
     0
  0
ENDTAB
  0
ENDSEC
  0
SECTION
  2
BLOCKS
  0
ENDSEC
  0
SECTION
  2
ENTITIES
  0
LINE
  8
0
  6
CONTINUOUS
 62
     7
 10
49.99984741210938
 20
10.70000076293945
 11
49.99984741210938
 21
5.550000667572022
  0
LINE
  8
0
  6
CONTINUOUS
 62
     7
 10
46.99984741210938
 20
2.100000858306885
 11
67.99984741210938
 21
2.100000858306885
  0
LINE
  8
0
  6
CONTINUOUS
 62
     7
 10
64.99984741210938
 20
10.70000076293945
 11
64.99984741210938
 21
2.100000858306885
  0
LINE
  8
0
  6
CENTER
 62
     7
 10
62.49984741210938
 20
11.41707611083984
 11
62.49984741210938
 21
6.918609142303467
  0
LINE
  8
0
  6
CENTER
 62
     7
 10
52.49984741210938
 20
11.45064735412598
 11
52.49984741210938
 21
6.985750675201416
  0
LINE
  8
0
  6
DASHED
 62
     7
 10
51.49984741210938
 20
11
 11
51.49984741210938
 21
8.600000381469727
  0
LINE
  8
0
  6
DASHED
 62
     7
 10
53.49984741210938
 20
11
 11
53.49984741210938
 21
8.600000381469727
  0
LINE
  8
0
  6
DASHED
 62
     7
 10
51.71484756469727
 20
11
 11
51.71484756469727
 21
7.700000286102295
  0
LINE
  8
0
  6
DASHED
 62
     7
 10
53.28484725952148
 20
11
 11
53.28484725952148
 21
7.700000286102295
  0
LINE
  8
0
  6
DASHED
 62
     7
 10
51.49984741210938
 20
8.600000381469727
 11
53.49984741210938
 21
8.600000381469727
  0
LINE
  8
0
  6
DASHED
 62
     7
 10
51.71484756469727
 20
7.700000286102295
 11
53.28484725952148
 21
7.700000286102295
  0
LINE
  8
0
  6
DASHED
 62
     7
 10
53.28484725952148
 20
8.38499927520752
 11
53.49984741210938
 21
8.600000381469727
  0
LINE
  8
0
  6
DASHED
 62
     7
 10
52.49984741210938
 20
7.246780872344971
 11
53.28484725952148
 21
7.700001239776611
  0
LINE
  8
0
  6
DASHED
 62
     7
 10
52.49984741210938
 20
7.24677848815918
 11
51.71484756469727
 21
7.69999885559082
  0
LINE
  8
0
  6
DASHED
 62
     7
 10
51.71484756469727
 20
8.385000228881836
 11
51.49984741210938
 21
8.600000381469727
  0
LINE
  8
0
  6
CONTINUOUS
 62
     7
 10
49.99984741210938
 20
10.70000076293945
 11
50.29984664916992
 21
11
  0
LINE
  8
0
  6
CONTINUOUS
 62
     7
 10
64.69985198974609
 20
11.00000381469727
 11
64.99984741210938
 21
10.70000457763672
  0
LINE
  8
0
  6
CONTINUOUS
 62
     7
 10
50.29984664916992
 20
11
 11
64.69984436035156
 21
11
  0
LINE
  8
0
  6
CONTINUOUS
 62
     7
 10
30
 20
0
 11
85
 21
0
  0
LINE
  8
0
  6
CENTER
 62
     7
 10
87.01061248779297
 20
60
 11
27.96969032287598
 21
60
  0
LINE
  8
0
  6
CONTINUOUS
 62
     7
 10
30
 20
6.000000476837158
 11
45.49984741210938
 21
6.000000476837158
  0
LINE
  8
0
  6
CONTINUOUS
 62
     7
 10
30
 20
5.360000133514404
 11
45.49984741210938
 21
5.360000133514404
  0
LINE
  8
0
  6
CONTINUOUS
 62
     7
 10
30
 20
4.643820285797119
 11
45.49984741210938
 21
4.643820285797119
  0
LINE
  8
0
  6
CONTINUOUS
 62
     7
 10
30
 20
3.443819522857666
 11
45.49984741210938
 21
3.443819522857666
  0
LINE
  8
0
  6
CONTINUOUS
 62
     7
 10
30
 20
2.688290119171143
 11
45.49984741210938
 21
2.688290119171143
  0
LINE
  8
0
  6
CONTINUOUS
 62
     7
 10
30
 20
1.995469570159912
 11
85
 21
1.995469570159912
  0
LINE
  8
0
  6
CONTINUOUS
 62
     7
 10
69.49984741210938
 20
6.000000476837158
 11
85
 21
6.000000476837158
  0
LINE
  8
0
  6
CONTINUOUS
 62
     7
 10
69.49984741210938
 20
5.360000133514404
 11
85
 21
5.360000133514404
  0
LINE
  8
0
  6
CONTINUOUS
 62
     7
 10
69.49984741210938
 20
4.643820285797119
 11
85
 21
4.643820285797119
  0
LINE
  8
0
  6
CONTINUOUS
 62
     7
 10
69.49984741210938
 20
3.443819522857666
 11
85
 21
3.443819522857666
  0
LINE
  8
0
  6
CONTINUOUS
 62
     7
 10
69.49984741210938
 20
2.688290119171143
 11
85
 21
2.688290119171143
  0
LINE
  8
0
  6
CONTINUOUS
 62
     7
 10
46.99984741210938
 20
10.10000038146973
 11
46.99984741210938
 21
2.100000858306885
  0
LINE
  8
0
  6
CONTINUOUS
 62
     7
 10
49.99984741210938
 20
10.10000038146973
 11
49.99984741210938
 21
2.100000858306885
  0
LINE
  8
0
  6
CONTINUOUS
 62
     7
 10
46.99984741210938
 20
10.10000038146973
 11
49.99984741210938
 21
10.10000038146973
  0
LINE
  8
0
  6
CONTINUOUS
 62
     7
 10
45.49984741210938
 20
10
 11
45.49984741210938
 21
2.200000286102295
  0
LINE
  8
0
  6
CONTINUOUS
 62
     7
 10
46.49984741210938
 20
10
 11
46.49984741210938
 21
2.200000286102295
  0
LINE
  8
0
  6
CONTINUOUS
 62
     7
 10
45.49984741210938
 20
10
 11
46.99984741210938
 21
10
  0
LINE
  8
0
  6
CONTINUOUS
 62
     7
 10
45.49984741210938
 20
2.200000286102295
 11
46.99984741210938
 21
2.200000286102295
  0
LINE
  8
0
  6
CONTINUOUS
 62
     7
 10
45.49984741210938
 20
7.000000476837158
 11
46.49984741210938
 21
7.000000476837158
  0
LINE
  8
0
  6
CONTINUOUS
 62
     7
 10
67.99984741210938
 20
10.10000038146973
 11
64.99984741210938
 21
10.10000038146973
  0
LINE
  8
0
  6
CONTINUOUS
 62
     7
 10
69.49984741210938
 20
10
 11
67.99984741210938
 21
10
  0
LINE
  8
0
  6
CONTINUOUS
 62
     7
 10
68.49984741210938
 20
10
 11
68.49984741210938
 21
2.200000286102295
  0
LINE
  8
0
  6
CONTINUOUS
 62
     7
 10
69.49984741210938
 20
10
 11
69.49984741210938
 21
2.200000286102295
  0
LINE
  8
0
  6
CONTINUOUS
 62
     7
 10
67.99984741210938
 20
10.10000038146973
 11
67.99984741210938
 21
2.100000858306885
  0
LINE
  8
0
  6
CONTINUOUS
 62
     7
 10
69.49984741210938
 20
2.200000286102295
 11
67.99984741210938
 21
2.200000286102295
  0
LINE
  8
0
  6
CONTINUOUS
 62
     7
 10
-7.499999046325684
 20
2.100000858306885
 11
-4.423202514648438
 21
2.100000858306885
  0
LINE
  8
0
  6
CONTINUOUS
 62
     7
 10
8
 20
10.40000152587891
 11
8
 21
5.950000286102295
  0
LINE
  8
0
  6
CONTINUOUS
 62
     7
 10
-7.999999046325684
 20
10.50000095367432
 11
-7.499999523162842
 21
11
  0
LINE
  8
0
  6
CONTINUOUS
 62
     7
 10
7.400000095367432
 20
11
 11
8
 21
10.40000057220459
  0
LINE
  8
0
  6
CONTINUOUS
 62
     7
 10
-7.999999046325684
 20
2.600000381469727
 11
-7.5
 21
2.100001335144043
  0
LINE
  8
0
  6
CONTINUOUS
 62
     7
 10
7.500000476837158
 20
2.100000619888306
 11
8.000000953674316
 21
2.600000858306885
  0
LINE
  8
0
  6
CENTER
 62
     7
 10
-4.999999046325684
 20
11.39407730102539
 11
-4.999999046325684
 21
6.956290721893311
  0
LINE
  8
0
  6
CENTER
 62
     7
 10
5
 20
11.45221328735352
 11
5
 21
6.975669384002686
  0
LINE
  8
0
  6
CONTINUOUS
 62
     7
 10
8
 20
4.050000667572022
 11
8
 21
2.600000858306885
  0
LINE
  8
0
  6
CONTINUOUS
 62
     7
 10
4.423205375671387
 20
2.100000858306885
 11
7.500000476837158
 21
2.100000858306885
  0
LINE
  8
0
  6
CONTINUOUS
 62
     7
 10
-2.999999046325684
 20
10.60000038146973
 11
3
 21
10.60000038146973
  0
LINE
  8
0
  6
CONTINUOUS
 62
     7
 10
-3.399999856948853
 20
11
 11
-2.999999761581421
 21
10.60000038146973
  0
LINE
  8
0
  6
CONTINUOUS
 62
     7
 10
3.000000476837158
 20
10.59999942779541
 11
3.400001049041748
 21
11
  0
LINE
  8
0
  6
CENTER
 62
     7
 10
77.5
 20
7.000000476837158
 11
77.5
 21
-1
  0
LINE
  8
0
  6
CONTINUOUS
 62
     7
 10
-7.999999046325684
 20
10.50000190734863
 11
-7.999999046325684
 21
5.726394176483154
  0
LINE
  8
0
  6
CONTINUOUS
 62
     7
 10
-7.500000953674316
 20
11
 11
-3.40000057220459
 21
11
  0
LINE
  8
0
  6
CONTINUOUS
 62
     7
 10
3.40000057220459
 20
11
 11
7.399999618530273
 21
11
  0
LINE
  8
0
  6
CONTINUOUS
 62
     7
 10
-7.999999046325684
 20
4.273607730865479
 11
-7.999999046325684
 21
2.600000858306885
  0
LINE
  8
0
  6
CONTINUOUS
 62
     7
 10
-3.999999284744263
 20
0.2999997437000275
 11
-3.700000047683716
 21
5.184062388252642E-007
  0
LINE
  8
0
  6
CONTINUOUS
 62
     7
 10
3.700000047683716
 20
1.559433400188937E-007
 11
4.000000476837158
 21
0.3000006079673767
  0
LINE
  8
0
  6
CONTINUOUS
 62
     7
 10
4.000000476837158
 20
1.995469689369202
 11
2.800000190734863
 21
2.688290119171143
  0
LINE
  8
0
  6
CONTINUOUS
 62
     7
 10
-3.999999284744263
 20
1.99547016620636
 11
-2.799999713897705
 21
2.688290119171143
  0
LINE
  8
0
  6
CONTINUOUS
 62
     7
 10
-3.699999809265137
 20
0
 11
3.700000762939453
 21
0
  0
LINE
  8
0
  6
CONTINUOUS
 62
     7
 10
-3.999999046325684
 20
1.995469570159912
 11
-3.999999046325684
 21
0.3000001907348633
  0
LINE
  8
0
  6
CONTINUOUS
 62
     7
 10
4
 20
1.995469570159912
 11
4
 21
0.3000001907348633
  0
LINE
  8
0
  6
CONTINUOUS
 62
     7
 10
2.800000190734863
 20
3.447159290313721
 11
2.800000190734863
 21
2.688291072845459
  0
LINE
  8
0
  6
CENTER
 62
     7
 10
0
 20
11.19210433959961
 11
0
 21
0.916132926940918
  0
LINE
  8
0
  6
CONTINUOUS
 62
     7
 10
-7.800000190734863
 20
9.59999942779541
 11
-7.800000190734863
 21
2.700000286102295
  0
LINE
  8
0
  6
CONTINUOUS
 62
     7
 10
7.800000190734863
 20
9.600000381469727
 11
7.800000190734863
 21
2.700000286102295
  0
LINE
  8
0
  6
CONTINUOUS
 62
     7
 10
-7.300000190734863
 20
10.10000038146973
 11
7.300000190734863
 21
10.10000038146973
  0
LINE
  8
0
  6
CONTINUOUS
 62
     7
 10
-7.799999713897705
 20
9.600000381469727
 11
-7.300000190734863
 21
10.10000038146973
  0
LINE
  8
0
  6
CONTINUOUS
 62
     7
 10
7.300000667572022
 20
10.10000038146973
 11
7.799999713897705
 21
9.600001335144043
  0
LINE
  8
0
  6
CONTINUOUS
 62
     7
 10
-7.800000667572022
 20
2.700001239776611
 11
-7.200000286102295
 21
2.100001096725464
  0
LINE
  8
0
  6
CONTINUOUS
 62
     7
 10
7.200000286102295
 20
2.100000858306885
 11
7.800000190734863
 21
2.700000762939453
  0
LINE
  8
0
  6
CONTINUOUS
 62
     7
 10
-5.15000057220459
 20
10.10000038146973
 11
-5.15000057220459
 21
8.600000381469727
  0
LINE
  8
0
  6
CONTINUOUS
 62
     7
 10
-7.800000190734863
 20
7.350000858306885
 11
-6.40000057220459
 21
7.350000858306885
  0
LINE
  8
0
  6
CONTINUOUS
 62
     7
 10
5.149999618530273
 20
10.10000038146973
 11
5.149999618530273
 21
8.600000381469727
  0
LINE
  8
0
  6
CONTINUOUS
 62
     7
 10
7.800000190734863
 20
7.350000858306885
 11
6.399999618530273
 21
7.350000858306885
  0
LINE
  8
0
  6
CONTINUOUS
 62
     7
 10
-4.423202514648438
 20
2.100000858306885
 11
-2.800000429153442
 21
3.03715705871582
  0
LINE
  8
0
  6
CONTINUOUS
 62
     7
 10
-3.34999942779541
 20
6.000000476837158
 11
3.350000381469727
 21
6.000000476837158
  0
LINE
  8
0
  6
CONTINUOUS
 62
     7
 10
-4.000000476837158
 20
5.350000858306885
 11
-3.889792442321777
 21
5.460208892822266
  0
LINE
  8
0
  6
CONTINUOUS
 62
     7
 10
-3.999999046325684
 20
5.350000858306885
 11
-3.999999046325684
 21
4.647158145904541
  0
LINE
  8
0
  6
CONTINUOUS
 62
     7
 10
-4.000000476837158
 20
4.647158622741699
 11
-3.893273830413818
 21
4.540431976318359
  0
LINE
  8
0
  6
CONTINUOUS
 62
     7
 10
-3.409568309783936
 20
4.056726455688477
 11
-2.800000667572022
 21
3.447158813476563
  0
LINE
  8
0
  6
CONTINUOUS
 62
     7
 10
-3.410208225250244
 20
5.939793109893799
 11
-3.350000381469727
 21
6.000000953674316
  0
LINE
  8
0
  6
CONTINUOUS
 62
     7
 10
3.410208225250244
 20
5.939792156219482
 11
3.349999666213989
 21
6.000000953674316
  0
LINE
  8
0
  6
CONTINUOUS
 62
     7
 10
3.999999761581421
 20
5.350000858306885
 11
3.889791488647461
 21
5.460208892822266
  0
LINE
  8
0
  6
CONTINUOUS
 62
     7
 10
4
 20
5.350000858306885
 11
4
 21
4.647158145904541
  0
LINE
  8
0
  6
CONTINUOUS
 62
     7
 10
3.999999761581421
 20
4.647158622741699
 11
3.893273115158081
 21
4.540431976318359
  0
LINE
  8
0
  6
CONTINUOUS
 62
     7
 10
3.409568309783936
 20
4.056726932525635
 11
2.800000190734863
 21
3.447158813476563
  0
LINE
  8
0
  6
CONTINUOUS
 62
     7
 10
4.423205375671387
 20
2.100000858306885
 11
2.800000667572022
 21
3.037158489227295
  0
LINE
  8
0
  6
CONTINUOUS
 62
     7
 10
49.99984741210938
 20
68
 11
49.99984741210938
 21
52
  0
LINE
  8
0
  6
CONTINUOUS
 62
     7
 10
64.99984741210938
 20
68
 11
64.99984741210938
 21
52
  0
LINE
  8
0
  6
CONTINUOUS
 62
     7
 10
49.99984741210938
 20
52
 11
64.99984741210938
 21
52
  0
LINE
  8
0
  6
CONTINUOUS
 62
     7
 10
49.99984741210938
 20
68
 11
64.99984741210938
 21
68
  0
LINE
  8
0
  6
CONTINUOUS
 62
     7
 10
49.99984741210938
 20
63.40000152587891
 11
64.99984741210938
 21
63.40000152587891
  0
LINE
  8
0
  6
CONTINUOUS
 62
     7
 10
49.99984741210938
 20
56.59999847412109
 11
64.99984741210938
 21
56.59999847412109
  0
LINE
  8
0
  6
CONTINUOUS
 62
     7
 10
46.99984741210938
 20
67.90000152587891
 11
46.99984741210938
 21
52.10000228881836
  0
LINE
  8
0
  6
CONTINUOUS
 62
     7
 10
46.99984741210938
 20
67.90000152587891
 11
49.99984741210938
 21
67.90000152587891
  0
LINE
  8
0
  6
CONTINUOUS
 62
     7
 10
46.99984741210938
 20
52.10000228881836
 11
49.99984741210938
 21
52.10000228881836
  0
LINE
  8
0
  6
CONTINUOUS
 62
     7
 10
45.49984741210938
 20
67.80000305175781
 11
46.99984741210938
 21
67.80000305175781
  0
LINE
  8
0
  6
CONTINUOUS
 62
     7
 10
45.49984741210938
 20
67.80000305175781
 11
45.49984741210938
 21
52.20000076293945
  0
LINE
  8
0
  6
CONTINUOUS
 62
     7
 10
45.49984741210938
 20
52.20000076293945
 11
46.99984741210938
 21
52.20000076293945
  0
LINE
  8
0
  6
CONTINUOUS
 62
     7
 10
67.99984741210938
 20
67.90000152587891
 11
64.99984741210938
 21
67.90000152587891
  0
LINE
  8
0
  6
CONTINUOUS
 62
     7
 10
67.99984741210938
 20
67.90000152587891
 11
67.99984741210938
 21
52.10000228881836
  0
LINE
  8
0
  6
CONTINUOUS
 62
     7
 10
69.49984741210938
 20
67.80000305175781
 11
67.99984741210938
 21
67.80000305175781
  0
LINE
  8
0
  6
CONTINUOUS
 62
     7
 10
69.49984741210938
 20
67.80000305175781
 11
69.49984741210938
 21
52.20000076293945
  0
LINE
  8
0
  6
CONTINUOUS
 62
     7
 10
69.49984741210938
 20
52.20000076293945
 11
67.99984741210938
 21
52.20000076293945
  0
LINE
  8
0
  6
CONTINUOUS
 62
     7
 10
67.99984741210938
 20
52.10000228881836
 11
64.99984741210938
 21
52.10000228881836
  0
LINE
  8
0
  6
CONTINUOUS
 62
     7
 10
30
 20
56
 11
45.49984741210938
 21
56
  0
LINE
  8
0
  6
CONTINUOUS
 62
     7
 10
30
 20
56.65213394165039
 11
45.49984741210938
 21
56.65213394165039
  0
LINE
  8
0
  6
CONTINUOUS
 62
     7
 10
30
 20
63.34786987304688
 11
45.49984741210938
 21
63.34786987304688
  0
LINE
  8
0
  6
CONTINUOUS
 62
     7
 10
30
 20
64
 11
45.49984741210938
 21
64
  0
LINE
  8
0
  6
CONTINUOUS
 62
     7
 10
69.49984741210938
 20
64
 11
85
 21
64
  0
LINE
  8
0
  6
CONTINUOUS
 62
     7
 10
69.49984741210938
 20
63.34786987304688
 11
85
 21
63.34786987304688
  0
LINE
  8
0
  6
CONTINUOUS
 62
     7
 10
69.49984741210938
 20
56.65213394165039
 11
85
 21
56.65213394165039
  0
LINE
  8
0
  6
CONTINUOUS
 62
     7
 10
69.49984741210938
 20
56
 11
85
 21
56
  0
LINE
  8
0
  6
CENTER
 62
     7
 10
53.99984741210938
 20
65
 11
50.99984741210938
 21
65
  0
LINE
  8
0
  6
CENTER
 62
     7
 10
52.49984741210938
 20
66.5
 11
52.49984741210938
 21
63.50000381469727
  0
LINE
  8
0
  6
CENTER
 62
     7
 10
63.99984741210938
 20
65
 11
60.99984741210938
 21
65
  0
LINE
  8
0
  6
CENTER
 62
     7
 10
62.49984741210938
 20
66.5
 11
62.49984741210938
 21
63.50000381469727
  0
LINE
  8
0
  6
CENTER
 62
     7
 10
63.99984741210938
 20
55
 11
60.99984741210938
 21
55
  0
LINE
  8
0
  6
CENTER
 62
     7
 10
62.49984741210938
 20
56.5
 11
62.49984741210938
 21
53.5
  0
LINE
  8
0
  6
CENTER
 62
     7
 10
53.99984741210938
 20
55
 11
50.99984741210938
 21
55
  0
LINE
  8
0
  6
CENTER
 62
     7
 10
52.49984741210938
 20
56.5
 11
52.49984741210938
 21
53.5
  0
LINE
  8
0
  6
CENTER
 62
     7
 10
77.5
 20
62.5
 11
77.5
 21
57.5
  0
LINE
  8
0
  6
CENTER
 62
     7
 10
57.5
 20
62.5
 11
57.5
 21
57.5
  0
LINE
  8
0
  6
CENTER
 62
     7
 10
37.5
 20
62.5
 11
37.5
 21
57.5
  0
LINE
  8
0
  6
CENTER
 62
     7
 10
0
 20
11.17352867126465
 11
0
 21
-1
  0
LINE
  8
0
  6
DASHED
 62
     7
 10
2.100000381469727
 20
6.000000476837158
 11
2.100000381469727
 21
3.700000286102295
  0
LINE
  8
0
  6
DASHED
 62
     7
 10
-2.09999942779541
 20
6.000000476837158
 11
-2.09999942779541
 21
3.700000286102295
  0
LINE
  8
0
  6
DASHED
 62
     7
 10
-1.199999809265137
 20
3.700000286102295
 11
-1.199999809265137
 21
0
  0
LINE
  8
0
  6
DASHED
 62
     7
 10
1.200000762939453
 20
3.700000286102295
 11
1.200000762939453
 21
0
  0
LINE
  8
0
  6
DASHED
 62
     7
 10
-2.09999942779541
 20
3.700000286102295
 11
2.100000381469727
 21
3.700000286102295
  0
LINE
  8
0
  6
CENTER
 62
     7
 10
37.5
 20
7.000000476837158
 11
37.5
 21
-1
  0
LINE
  8
0
  6
DASHED
 62
     7
 10
39.59999847412109
 20
5.849999904632568
 11
39.59999847412109
 21
3.699999332427979
  0
LINE
  8
0
  6
DASHED
 62
     7
 10
35.40000152587891
 20
5.849999904632568
 11
35.40000152587891
 21
3.699999332427979
  0
LINE
  8
0
  6
DASHED
 62
     7
 10
36.29999923706055
 20
3.699999332427979
 11
36.29999923706055
 21
0
  0
LINE
  8
0
  6
DASHED
 62
     7
 10
38.70000076293945
 20
3.699999332427979
 11
38.70000076293945
 21
0
  0
LINE
  8
0
  6
DASHED
 62
     7
 10
35.40000152587891
 20
3.699999332427979
 11
39.59999847412109
 21
3.699999332427979
  0
LINE
  8
0
  6
CENTER
 62
     7
 10
57.5
 20
7.000000476837158
 11
57.5
 21
-1
  0
LINE
  8
0
  6
CONTINUOUS
 62
     7
 10
46.49984741210938
 20
54.85000228881836
 11
45.49984741210938
 21
54.85000228881836
  0
LINE
  8
0
  6
CONTINUOUS
 62
     7
 10
46.49984741210938
 20
67.80000305175781
 11
46.49984741210938
 21
52.20000076293945
  0
LINE
  8
0
  6
CONTINUOUS
 62
     7
 10
46.49984741210938
 20
65.15000152587891
 11
45.49984741210938
 21
65.15000152587891
  0
LINE
  8
0
  6
CONTINUOUS
 62
     7
 10
45.99984741210938
 20
9.556255340576172
 11
45.99984741210938
 21
7.643745422363281
  0
LINE
  8
0
  6
CONTINUOUS
 62
     7
 10
45.99984741210938
 20
9.556255340576172
 11
46.49984741210938
 21
9.59999942779541
  0
LINE
  8
0
  6
CONTINUOUS
 62
     7
 10
45.99984741210938
 20
7.64374589920044
 11
46.49984741210938
 21
7.600001335144043
  0
LINE
  8
0
  6
CONTINUOUS
 62
     7
 10
45.99984741210938
 20
65.44374084472656
 11
46.49984359741211
 21
65.39999389648438
  0
LINE
  8
0
  6
CONTINUOUS
 62
     7
 10
45.99984741210938
 20
65.44374084472656
 11
45.99984741210938
 21
67.35626220703125
  0
LINE
  8
0
  6
CONTINUOUS
 62
     7
 10
45.99984741210938
 20
67.35626220703125
 11
46.49984741210938
 21
67.40000152587891
  0
LINE
  8
0
  6
CONTINUOUS
 62
     7
 10
68.49984741210938
 20
67.80000305175781
 11
68.49984741210938
 21
52.20000076293945
  0
LINE
  8
0
  6
CONTINUOUS
 62
     7
 10
68.49984741210938
 20
65.15000152587891
 11
69.49984741210938
 21
65.15000152587891
  0
LINE
  8
0
  6
CONTINUOUS
 62
     7
 10
68.49984741210938
 20
54.85000228881836
 11
69.49984741210938
 21
54.85000228881836
  0
LINE
  8
0
  6
CONTINUOUS
 62
     7
 10
68.99984741210938
 20
65.44374847412109
 11
68.49984741210938
 21
65.40000152587891
  0
LINE
  8
0
  6
CONTINUOUS
 62
     7
 10
68.99984741210938
 20
65.44374847412109
 11
68.99984741210938
 21
67.35625457763672
  0
LINE
  8
0
  6
CONTINUOUS
 62
     7
 10
68.99984741210938
 20
67.35625457763672
 11
68.49984741210938
 21
67.40000152587891
  0
LINE
  8
0
  6
CONTINUOUS
 62
     7
 10
68.99984741210938
 20
52.64374542236328
 11
68.49984741210938
 21
52.60000228881836
  0
LINE
  8
0
  6
CONTINUOUS
 62
     7
 10
68.99984741210938
 20
54.55625534057617
 11
68.99984741210938
 21
52.64374542236328
  0
LINE
  8
0
  6
CONTINUOUS
 62
     7
 10
68.99984741210938
 20
54.55625534057617
 11
68.49984741210938
 21
54.59999847412109
  0
LINE
  8
0
  6
CONTINUOUS
 62
     7
 10
45.99984741210938
 20
54.55625534057617
 11
45.99984741210938
 21
52.64374542236328
  0
LINE
  8
0
  6
CONTINUOUS
 62
     7
 10
45.99984741210938
 20
54.55625915527344
 11
46.49984741210938
 21
54.60000228881836
  0
LINE
  8
0
  6
CONTINUOUS
 62
     7
 10
45.99984741210938
 20
52.64374542236328
 11
46.49984741210938
 21
52.60000228881836
  0
LINE
  8
0
  6
CONTINUOUS
 62
     7
 10
68.99983978271484
 20
7.643743515014648
 11
68.49985504150391
 21
7.600000381469727
  0
LINE
  8
0
  6
CONTINUOUS
 62
     7
 10
68.99984741210938
 20
9.556256294250488
 11
68.99984741210938
 21
7.643743991851807
  0
LINE
  8
0
  6
CONTINUOUS
 62
     7
 10
68.99984741210938
 20
9.556256294250488
 11
68.49984741210938
 21
9.600000381469727
  0
LINE
  8
0
  6
CONTINUOUS
 62
     7
 10
-7.999999046325684
 20
5.726394176483154
 11
-7.800000190734863
 21
5.726394176483154
  0
LINE
  8
0
  6
CONTINUOUS
 62
     7
 10
-7.999999046325684
 20
4.273607730865479
 11
-7.800000190734863
 21
4.273607730865479
  0
LINE
  8
0
  6
CONTINUOUS
 62
     7
 10
7.800000190734863
 20
5.950000286102295
 11
8
 21
5.950000286102295
  0
LINE
  8
0
  6
CONTINUOUS
 62
     7
 10
7.800000190734863
 20
4.050000667572022
 11
8
 21
4.050000667572022
  0
LINE
  8
0
  6
CONTINUOUS
 62
     7
 10
-3.639950752258301
 20
6.700000286102295
 11
3.639949798583984
 21
6.700000286102295
  0
LINE
  8
0
  6
CONTINUOUS
 62
     7
 10
-4.699999332427979
 20
5.639952182769775
 11
-3.63995099067688
 21
6.700000762939453
  0
LINE
  8
0
  6
CONTINUOUS
 62
     7
 10
-4.699999809265137
 20
5.639952182769775
 11
-4.699999809265137
 21
4.357207775115967
  0
LINE
  8
0
  6
CONTINUOUS
 62
     7
 10
-4.69999885559082
 20
4.357207775115967
 11
-3.680108547210693
 21
3.33731746673584
  0
LINE
  8
0
  6
CONTINUOUS
 62
     7
 10
-5.823204040527344
 20
2.100000858306885
 11
-3.680108785629273
 21
3.33731746673584
  0
LINE
  8
0
  6
CONTINUOUS
 62
     7
 10
5.82320499420166
 20
2.100000858306885
 11
3.680108547210693
 21
3.337318181991577
  0
LINE
  8
0
  6
CONTINUOUS
 62
     7
 10
4.699999809265137
 20
4.357209205627441
 11
3.680108547210693
 21
3.337317943572998
  0
LINE
  8
0
  6
CONTINUOUS
 62
     7
 10
4.699999809265137
 20
5.639950275421143
 11
4.699999809265137
 21
4.357208728790283
  0
LINE
  8
0
  6
CONTINUOUS
 62
     7
 10
4.699999809265137
 20
5.639950275421143
 11
3.639949083328247
 21
6.700000762939453
  0
LINE
  8
0
  6
CONTINUOUS
 62
     7
 10
-2.800000190734863
 20
3.447158336639404
 11
-2.800000190734863
 21
2.688290119171143
  0
LINE
  8
0
  6
CONTINUOUS
 62
     7
 10
69.50015258789063
 20
7.000000476837158
 11
68.50015258789063
 21
7.000000476837158
  0
LINE
  8
0
  6
CONTINUOUS
 62
     7
 10
30
 20
64
 11
30
 21
56
  0
LINE
  8
0
  6
CONTINUOUS
 62
     7
 10
85
 20
64
 11
85
 21
56
  0
LINE
  8
0
  6
CONTINUOUS
 62
     7
 10
85
 20
6.000000476837158
 11
85
 21
0
  0
LINE
  8
0
  6
CONTINUOUS
 62
     7
 10
30
 20
6.000000476837158
 11
30
 21
0
  0
LINE
  8
0
  6
CONTINUOUS
 62
     7
 10
-6.930330753326416
 20
8.069670677185059
 11
-5.869670391082764
 21
9.130331039428711
  0
LINE
  8
0
  6
CONTINUOUS
 62
     7
 10
-6.930330753326416
 20
9.130331039428711
 11
-5.869670391082764
 21
8.069670677185059
  0
LINE
  8
0
  6
CONTINUOUS
 62
     7
 10
47.59984970092773
 20
4.000000476837158
 11
48.04984664916992
 21
4.449999332427979
  0
LINE
  8
0
  6
CONTINUOUS
 62
     7
 10
47.59984588623047
 20
5.999999523162842
 11
48.04984664916992
 21
5.549999713897705
  0
LINE
  8
0
  6
CONTINUOUS
 62
     7
 10
67.39984893798828
 20
4.000000476837158
 11
67.99984741210938
 21
4.000000476837158
  0
LINE
  8
0
  6
CONTINUOUS
 62
     7
 10
66.94985198974609
 20
4.450003147125244
 11
67.39984893798828
 21
4.000004291534424
  0
LINE
  8
0
  6
CONTINUOUS
 62
     7
 10
67.39984893798828
 20
6.000000476837158
 11
67.99984741210938
 21
6.000000476837158
  0
LINE
  8
0
  6
CONTINUOUS
 62
     7
 10
66.94985198974609
 20
5.550002098083496
 11
67.39984893798828
 21
6.000000953674316
  0
LINE
  8
0
  6
CONTINUOUS
 62
     7
 10
48.04984664916992
 20
5.550000667572022
 11
49.99984741210938
 21
5.550000667572022
  0
LINE
  8
0
  6
CONTINUOUS
 62
     7
 10
48.04984664916992
 20
4.450000286102295
 11
49.99984741210938
 21
4.450000286102295
  0
LINE
  8
0
  6
CONTINUOUS
 62
     7
 10
46.99984741210938
 20
6.000000476837158
 11
47.59984970092773
 21
6.000000476837158
  0
LINE
  8
0
  6
CONTINUOUS
 62
     7
 10
46.99984741210938
 20
4.000000476837158
 11
47.59984970092773
 21
4.000000476837158
  0
LINE
  8
0
  6
CONTINUOUS
 62
     7
 10
64.99984741210938
 20
4.450000286102295
 11
66.94984436035156
 21
4.450000286102295
  0
LINE
  8
0
  6
CONTINUOUS
 62
     7
 10
64.99984741210938
 20
5.550000667572022
 11
66.94984436035156
 21
5.550000667572022
  0
ARC
  8
0
  6
CONTINUOUS
 62
     7
 10
-6.40000057220459
 20
8.600000381469727
 40
1.25
 50
269.9999974955218
 51
0
  0
CIRCLE
  8
0
  6
CONTINUOUS
 62
     7
 10
0
 20
8.399999618530273
 40
1.100000023841858
  0
ARC
  8
0
  6
CONTINUOUS
 62
     7
 10
6.399999618530273
 20
8.600000381469727
 40
1.25
 50
180.000008651422
 51
269.9999974955218
  0
CIRCLE
  8
0
  6
CONTINUOUS
 62
     7
 10
77.5
 20
60
 40
2.099999904632568
  0
CIRCLE
  8
0
  6
CONTINUOUS
 62
     7
 10
77.5
 20
60
 40
1.200000047683716
  0
CIRCLE
  8
0
  6
CONTINUOUS
 62
     7
 10
37.5
 20
60
 40
2.099999904632568
  0
CIRCLE
  8
0
  6
CONTINUOUS
 62
     7
 10
37.5
 20
60
 40
1.200000047683716
  0
CIRCLE
  8
0
  6
CONTINUOUS
 62
     7
 10
52.49984741210938
 20
55
 40
1
  0
CIRCLE
  8
0
  6
CONTINUOUS
 62
     7
 10
52.49984741210938
 20
55
 40
0.7850000262260437
  0
CIRCLE
  8
0
  6
CONTINUOUS
 62
     7
 10
-6.40000057220459
 20
8.600000381469727
 40
1
  0
CIRCLE
  8
0
  6
CONTINUOUS
 62
     7
 10
6.399999618530273
 20
8.600000381469727
 40
1
  0
ARC
  8
0
  6
CONTINUOUS
 62
     7
 10
-4.000000953674316
 20
6.050000667572022
 40
0.6000000238418584
 50
280.5841132748869
 51
349.4158859281822
  0
ARC
  8
0
  6
CONTINUOUS
 62
     7
 10
-4.000000953674316
 20
3.950000286102295
 40
0.6000000238418579
 50
10.24611106168237
 51
79.7538922965695
  0
ARC
  8
0
  6
CONTINUOUS
 62
     7
 10
4
 20
6.050000667572022
 40
0.6000000238418579
 50
190.5842063930572
 51
259.4157929236975
  0
ARC
  8
0
  6
CONTINUOUS
 62
     7
 10
4
 20
3.950000286102295
 40
0.6000000238418576
 50
100.2461673539002
 51
169.7538333293451
  0
TEXT
  8
0
  6
CONTINUOUS
 62
     7
 10
-1.600000023841858
 20
-16.79999995231628
 40
3.599999904632568
 41
1.039215692767391
  1
HSR8RM
  0
ENDSEC
  0
EOF
