  0
SECTION
  2
HEADER
  0
ENDSEC
  0
SECTION
  2
TABLES
  0
TABLE
  2
LTYPE
 70
    22
  0
LTYPE
  2
CONTINUOUS
 70
    64
  3
Solid line
 72
    65
 73
     0
 40
0.000000
  0
LTYPE
  2
DASHED
 70
    64
  3
__ __ __ __ __ __ __ __ __ __ __ __ __ __ __
 72
    65
 73
     2
 40
3.500000
 49
2.000000
 49
-1.500000
  0
LTYPE
  2
CENTER
 70
    64
  3
____ _ ____ _ ____ _ ____ _ ____ _ ____ _ ____
 72
    65
 73
     4
 40
17.500000
 49
13.000000
 49
-1.500000
 49
1.500000
 49
-1.500000
  0
LTYPE
  2
PHANTOM
 70
    64
  3
_____ _ _ _____ _ _ _____ _ _ _____ _ _ ____  
 72
    65
 73
     6
 40
15.500000
 49
8.000000
 49
-1.500000
 49
1.500000
 49
-1.500000
 49
1.500000
 49
-1.500000
  0
LTYPE
  2
DOT
 70
    64
  3
. . . . . . . . . . . . . . . . . . . . . . . .
 72
    65
 73
     2
 40
0.25
 49
0.0
 49
-0.25
  0
ENDTAB
  0
TABLE
  2
LAYER
 70
     1
  0
LAYER
  2
0
 70
     0
 62
     7
  6
CONTINUOUS
  0
ENDTAB
  0
TABLE
  2
STYLE
 70
     1
  0
STYLE
  2
STANDARD
 70
     0
 40
0.000000
 41
1.000000
 50
0.000000
 71
     0
 42
0.200000
  3
txt
  0
ENDTAB
  0
TABLE
  2
VIEW
 70
     0
  0
ENDTAB
  0
ENDSEC
  0
SECTION
  2
BLOCKS
  0
ENDSEC
  0
SECTION
  2
ENTITIES
  0
LINE
  8
0
  6
CENTER
 62
     7
 10
40
 20
8.6366615
 11
40
 21
-1.3429604
  0
LINE
  8
0
  6
DASHED
 62
     7
 10
41.75
 20
3.0002708
 11
41.75
 21
0
  0
LINE
  8
0
  6
DASHED
 62
     7
 10
38.250122
 20
3.0002747
 11
38.250122
 21
0
  0
LINE
  8
0
  6
DASHED
 62
     7
 10
37.000122
 20
7.5001945
 11
37.000122
 21
3.0002747
  0
LINE
  8
0
  6
DASHED
 62
     7
 10
43
 20
7.5001945
 11
43
 21
3.0002708
  0
LINE
  8
0
  6
CONTINUOUS
 62
     7
 10
30
 20
7.5001945
 11
30
 21
8.7738037E-005
  0
LINE
  8
0
  6
CONTINUOUS
 62
     7
 10
30.000046
 20
0
 11
125
 21
0
  0
LINE
  8
0
  6
CONTINUOUS
 62
     7
 10
125
 20
7.5000629
 11
125
 21
0
  0
LINE
  8
0
  6
CENTER
 62
     7
 10
81.349739
 20
13.833042
 11
81.349739
 21
7.2383804
  0
LINE
  8
0
  6
CONTINUOUS
 62
     7
 10
29.999994
 20
6.5216026
 11
47.500378
 21
6.5213704
  0
LINE
  8
0
  6
CONTINUOUS
 62
     7
 10
30
 20
4.0254669
 11
47.500381
 21
4.0254669
  0
LINE
  8
0
  6
CONTINUOUS
 62
     7
 10
30
 20
3.018383
 11
47.500381
 21
3.018383
  0
LINE
  8
0
  6
CONTINUOUS
 62
     7
 10
54.699966
 20
13.000004
 11
87.999786
 21
13.000004
  0
LINE
  8
0
  6
CONTINUOUS
 62
     7
 10
54.699966
 20
13.000004
 11
54.699966
 21
3.000061
  0
LINE
  8
0
  6
CONTINUOUS
 62
     7
 10
95.199371
 20
3.0188847
 11
125
 21
3.0196874
  0
LINE
  8
0
  6
CONTINUOUS
 62
     7
 10
95.199379
 20
4.0256481
 11
125.00001
 21
4.0264921
  0
LINE
  8
0
  6
CONTINUOUS
 62
     7
 10
95.199387
 20
6.5204954
 11
124.99999
 21
6.5213718
  0
LINE
  8
0
  6
CONTINUOUS
 62
     7
 10
95.199379
 20
7.499155
 11
124.99999
 21
7.5000634
  0
LINE
  8
0
  6
CONTINUOUS
 62
     7
 10
48.500259
 20
12.299778
 11
54.700027
 21
12.299778
  0
LINE
  8
0
  6
CONTINUOUS
 62
     7
 10
49.500015
 20
12.299854
 11
49.500015
 21
3.000061
  0
LINE
  8
0
  6
CONTINUOUS
 62
     7
 10
49.000137
 20
12.299854
 11
49.000137
 21
3.000061
  0
LINE
  8
0
  6
CONTINUOUS
 62
     7
 10
87.999786
 20
3.0000534
 11
87.999786
 21
13.000004
  0
LINE
  8
0
  6
CONTINUOUS
 62
     7
 10
87.999847
 20
12.299778
 11
94.199539
 21
12.299778
  0
LINE
  8
0
  6
CONTINUOUS
 62
     7
 10
93.199738
 20
3.0000458
 11
93.199738
 21
12.299839
  0
LINE
  8
0
  6
CONTINUOUS
 62
     7
 10
93.699615
 20
3.0000458
 11
93.699615
 21
12.299839
  0
LINE
  8
0
  6
CONTINUOUS
 62
     7
 10
95.199371
 20
3.0000458
 11
95.199371
 21
7.9998436
  0
LINE
  8
0
  6
DASHED
 62
     7
 10
62.850014
 20
13.000004
 11
62.850014
 21
9.5000496
  0
LINE
  8
0
  6
DASHED
 62
     7
 10
59.850014
 20
13.000004
 11
59.850014
 21
9.5000572
  0
LINE
  8
0
  6
DASHED
 62
     7
 10
62.549965
 20
13.000004
 11
62.549965
 21
8.5000496
  0
LINE
  8
0
  6
DASHED
 62
     7
 10
60.150063
 20
13.000004
 11
60.150063
 21
8.5000572
  0
LINE
  8
0
  6
DASHED
 62
     7
 10
59.850075
 20
9.4999886
 11
62.850075
 21
9.4999886
  0
LINE
  8
0
  6
DASHED
 62
     7
 10
60.150124
 20
8.4999886
 11
62.550026
 21
8.4999886
  0
LINE
  8
0
  6
DASHED
 62
     7
 10
60.14975
 20
8.4996367
 11
61.349838
 21
7.8067656
  0
LINE
  8
0
  6
DASHED
 62
     7
 10
62.54945
 20
8.4993906
 11
61.34935
 21
7.8065114
  0
LINE
  8
0
  6
CENTER
 62
     7
 10
61.350014
 20
13.833172
 11
61.350014
 21
7.2383957
  0
LINE
  8
0
  6
CONTINUOUS
 62
     7
 10
48.500259
 20
12.299854
 11
48.500259
 21
11.55611
  0
LINE
  8
0
  6
CONTINUOUS
 62
     7
 10
47.500374
 20
7.9995418
 11
48.094589
 21
8.5938234
  0
LINE
  8
0
  6
CONTINUOUS
 62
     7
 10
47.700043
 20
39.661621
 11
47.700043
 21
38.338455
  0
LINE
  8
0
  6
CONTINUOUS
 62
     7
 10
48.521782
 20
37.441895
 11
49.000179
 21
37.40004
  0
LINE
  8
0
  6
CONTINUOUS
 62
     7
 10
48.521862
 20
40.55822
 11
49.000137
 21
40.600063
  0
LINE
  8
0
  6
CONTINUOUS
 62
     7
 10
48.500259
 20
8.4438286
 11
48.500259
 21
3.000061
  0
LINE
  8
0
  6
CONTINUOUS
 62
     7
 10
94.199539
 20
11.556095
 11
94.199539
 21
12.299839
  0
LINE
  8
0
  6
CONTINUOUS
 62
     7
 10
94.605286
 20
8.5937309
 11
95.199455
 21
7.9994931
  0
LINE
  8
0
  6
CONTINUOUS
 62
     7
 10
94.999588
 20
9.3382301
 11
94.999588
 21
10.661396
  0
LINE
  8
0
  6
CONTINUOUS
 62
     7
 10
93.699448
 20
8.3998156
 11
94.177841
 21
8.4416695
  0
LINE
  8
0
  6
CONTINUOUS
 62
     7
 10
93.699501
 20
11.599838
 11
94.17778
 21
11.557995
  0
LINE
  8
0
  6
CONTINUOUS
 62
     7
 10
94.199539
 20
3.0000458
 11
94.199539
 21
8.4438133
  0
LINE
  8
0
  6
CONTINUOUS
 62
     7
 10
30
 20
7.5001945
 11
47.500381
 21
7.5001945
  0
LINE
  8
0
  6
CONTINUOUS
 62
     7
 10
-12.999634
 20
13.000217
 11
-6.4998779
 21
13.000217
  0
LINE
  8
0
  6
CENTER
 62
     7
 10
-9.9998779
 20
7.2385521
 11
-9.9998779
 21
13.833607
  0
LINE
  8
0
  6
CONTINUOUS
 62
     7
 10
-13.499634
 20
12.500217
 11
-13.499634
 21
3.6002159
  0
LINE
  8
0
  6
CONTINUOUS
 62
     7
 10
-5.9998336
 20
12.500182
 11
-6.4997807
 21
13.000129
  0
LINE
  8
0
  6
CONTINUOUS
 62
     7
 10
-13.499557
 20
12.500212
 11
-12.999524
 21
13.000245
  0
LINE
  8
0
  6
CONTINUOUS
 62
     7
 10
-13.499537
 20
3.6001511
 11
-12.899549
 21
3.0001626
  0
LINE
  8
0
  6
CONTINUOUS
 62
     7
 10
-12.899292
 20
2.9999962
 11
-5.9998779
 21
2.9999962
  0
LINE
  8
0
  6
CONTINUOUS
 62
     7
 10
-5.9998779
 20
3.0197449
 11
-5.9998779
 21
0.5
  0
LINE
  8
0
  6
CONTINUOUS
 62
     7
 10
-5.9997897
 20
0.50006032
 11
-5.4997501
 21
3.3826058E-005
  0
LINE
  8
0
  6
CONTINUOUS
 62
     7
 10
-5.209826
 20
7.499979
 11
-5.3868198
 21
6.4961019
  0
LINE
  8
0
  6
CONTINUOUS
 62
     7
 10
-5.8177795
 20
4.0517802
 11
-5.9997416
 21
3.0197258
  0
LINE
  8
0
  6
CONTINUOUS
 62
     7
 10
-13.300049
 20
3.4006624
 11
-13.300049
 21
11.799946
  0
LINE
  8
0
  6
CONTINUOUS
 62
     7
 10
-12.900024
 20
2.9999962
 11
-12.900024
 21
11.300007
  0
LINE
  8
0
  6
CONTINUOUS
 62
     7
 10
13.500015
 20
12.500217
 11
13.500015
 21
3.6002045
  0
LINE
  8
0
  6
CONTINUOUS
 62
     7
 10
-5.9998779
 20
12.500217
 11
6.0000153
 21
12.500217
  0
LINE
  8
0
  6
CONTINUOUS
 62
     7
 10
6.5000153
 20
13.000217
 11
13.000137
 21
13.000217
  0
LINE
  8
0
  6
CENTER
 62
     7
 10
0
 20
14.205875
 11
0
 21
-2.051796
  0
LINE
  8
0
  6
DASHED
 62
     7
 10
1.75
 20
3.0002098
 11
1.75
 21
0
  0
LINE
  8
0
  6
DASHED
 62
     7
 10
-1.7498779
 20
3.0002098
 11
-1.7498779
 21
0
  0
LINE
  8
0
  6
DASHED
 62
     7
 10
-2.9998779
 20
3.0002098
 11
3
 21
3.0002098
  0
LINE
  8
0
  6
DASHED
 62
     7
 10
-2.9998779
 20
7.5000076
 11
-2.9998779
 21
3.0002098
  0
LINE
  8
0
  6
DASHED
 62
     7
 10
3
 20
7.5000076
 11
3
 21
3.0002098
  0
LINE
  8
0
  6
CONTINUOUS
 62
     7
 10
6.0000162
 20
12.50021
 11
6.5000157
 21
13.000212
  0
LINE
  8
0
  6
CONTINUOUS
 62
     7
 10
12.90002
 20
3.0002077
 11
13.500021
 21
3.6002057
  0
LINE
  8
0
  6
CONTINUOUS
 62
     7
 10
13.000095
 20
13.000127
 11
13.500043
 21
12.500182
  0
LINE
  8
0
  6
CENTER
 62
     7
 10
9.9998932
 20
13.833607
 11
9.9998932
 21
7.2385521
  0
LINE
  8
0
  6
CONTINUOUS
 62
     7
 10
-12.800003
 20
12.299992
 11
12.800018
 21
12.299992
  0
LINE
  8
0
  6
CONTINUOUS
 62
     7
 10
13.300064
 20
11.800007
 11
13.300064
 21
3.4999962
  0
LINE
  8
0
  6
CONTINUOUS
 62
     7
 10
13.300057
 20
11.799932
 11
12.80003
 21
12.29997
  0
LINE
  8
0
  6
CONTINUOUS
 62
     7
 10
6.0034332
 20
2.9999962
 11
12.90004
 21
2.9999962
  0
LINE
  8
0
  6
CONTINUOUS
 62
     7
 10
13.300064
 20
11.799992
 11
13.300064
 21
3.4002495
  0
LINE
  8
0
  6
CONTINUOUS
 62
     7
 10
-5.2099609
 20
7.5000076
 11
5.2100983
 21
7.5000076
  0
LINE
  8
0
  6
CONTINUOUS
 62
     7
 10
5.9998932
 20
0.5
 11
5.9998932
 21
3.0197449
  0
LINE
  8
0
  6
CONTINUOUS
 62
     7
 10
5.4998555
 20
3.6522102E-005
 11
5.9998679
 21
0.500036
  0
LINE
  8
0
  6
CONTINUOUS
 62
     7
 10
5.3870239
 20
6.4961629
 11
5.2100358
 21
7.5000081
  0
LINE
  8
0
  6
CONTINUOUS
 62
     7
 10
5.9999514
 20
3.0197558
 11
5.8179922
 21
4.0517917
  0
LINE
  8
0
  6
CONTINUOUS
 62
     7
 10
12.90004
 20
11.299992
 11
12.90004
 21
2.9999962
  0
LINE
  8
0
  6
CONTINUOUS
 62
     7
 10
11.90011
 20
12.299933
 11
12.900089
 21
11.299953
  0
LINE
  8
0
  6
CONTINUOUS
 62
     7
 10
-5.4997168
 20
0
 11
5.5003815
 21
0
  0
LINE
  8
0
  6
CONTINUOUS
 62
     7
 10
9.2501373
 20
12.299992
 11
9.2501373
 21
9.9999809
  0
LINE
  8
0
  6
CONTINUOUS
 62
     7
 10
11.000137
 20
8.2499924
 11
12.90004
 21
8.2499924
  0
LINE
  8
0
  6
CONTINUOUS
 62
     7
 10
-9.2501221
 20
12.299992
 11
-9.2501221
 21
9.9999809
  0
LINE
  8
0
  6
CONTINUOUS
 62
     7
 10
-11.000122
 20
8.2499924
 11
-12.900024
 21
8.2499924
  0
LINE
  8
0
  6
CONTINUOUS
 62
     7
 10
-11.900089
 20
12.299932
 11
-12.900068
 21
11.299953
  0
LINE
  8
0
  6
CONTINUOUS
 62
     7
 10
-13.300051
 20
11.799939
 11
-12.800008
 21
12.299992
  0
LINE
  8
0
  6
CONTINUOUS
 62
     7
 10
-6.4685135
 20
8.9998789
 11
-7.5263557
 21
2.9999957
  0
LINE
  8
0
  6
CONTINUOUS
 62
     7
 10
7.5265708
 20
2.9999957
 11
6.4687061
 21
9.0000057
  0
LINE
  8
0
  6
CONTINUOUS
 62
     7
 10
-6.4686279
 20
9.0000038
 11
-0.0039062425
 21
9.0000038
  0
LINE
  8
0
  6
CONTINUOUS
 62
     7
 10
0.0039062425
 20
9.0000038
 11
6.4688568
 21
9.0000038
  0
LINE
  8
0
  6
CENTER
 62
     7
 10
29.05666
 20
50
 11
126.48203
 21
50
  0
LINE
  8
0
  6
CONTINUOUS
 62
     7
 10
54.699966
 20
63.500134
 11
87.999786
 21
63.500134
  0
LINE
  8
0
  6
CONTINUOUS
 62
     7
 10
54.699966
 20
56.499863
 11
87.999786
 21
56.499863
  0
LINE
  8
0
  6
CONTINUOUS
 62
     7
 10
54.699966
 20
63.499634
 11
54.699966
 21
36.500366
  0
LINE
  8
0
  6
CONTINUOUS
 62
     7
 10
54.699966
 20
43.500122
 11
87.999786
 21
43.500122
  0
LINE
  8
0
  6
CONTINUOUS
 62
     7
 10
54.699966
 20
36.500366
 11
87.999786
 21
36.500366
  0
LINE
  8
0
  6
CONTINUOUS
 62
     7
 10
87.999786
 20
63.499634
 11
87.999786
 21
36.500366
  0
LINE
  8
0
  6
CONTINUOUS
 62
     7
 10
49.499969
 20
63.300049
 11
49.499969
 21
36.699951
  0
LINE
  8
0
  6
CONTINUOUS
 62
     7
 10
49.499969
 20
63.300049
 11
54.699966
 21
63.300049
  0
LINE
  8
0
  6
CONTINUOUS
 62
     7
 10
49.499969
 20
36.699951
 11
54.699966
 21
36.699951
  0
LINE
  8
0
  6
CONTINUOUS
 62
     7
 10
93.199966
 20
63.300049
 11
87.999969
 21
63.300049
  0
LINE
  8
0
  6
CONTINUOUS
 62
     7
 10
93.199966
 20
63.300049
 11
93.199966
 21
36.699951
  0
LINE
  8
0
  6
CONTINUOUS
 62
     7
 10
93.199966
 20
36.699951
 11
87.999969
 21
36.699951
  0
LINE
  8
0
  6
CONTINUOUS
 62
     7
 10
47.499969
 20
56.510925
 11
47.499969
 21
43.489059
  0
LINE
  8
0
  6
CONTINUOUS
 62
     7
 10
48.499969
 20
62.900024
 11
49.499969
 21
62.900024
  0
LINE
  8
0
  6
CONTINUOUS
 62
     7
 10
48.499969
 20
37.099976
 11
49.499969
 21
37.099976
  0
LINE
  8
0
  6
CONTINUOUS
 62
     7
 10
47.499962
 20
56.510921
 11
48.499977
 21
57.01865
  0
LINE
  8
0
  6
CONTINUOUS
 62
     7
 10
47.499962
 20
43.489059
 11
48.499962
 21
42.981342
  0
LINE
  8
0
  6
CONTINUOUS
 62
     7
 10
48.499969
 20
62.900024
 11
48.499969
 21
62.555923
  0
LINE
  8
0
  6
CONTINUOUS
 62
     7
 10
48.999969
 20
62.900024
 11
48.999969
 21
37.099976
  0
LINE
  8
0
  6
CONTINUOUS
 62
     7
 10
47.700211
 20
10.661411
 11
47.700211
 21
9.3382454
  0
LINE
  8
0
  6
CONTINUOUS
 62
     7
 10
48.521957
 20
8.4416857
 11
49.000355
 21
8.3998318
  0
LINE
  8
0
  6
CONTINUOUS
 62
     7
 10
48.522022
 20
11.558013
 11
49.000298
 21
11.599856
  0
LINE
  8
0
  6
CONTINUOUS
 62
     7
 10
48.499969
 20
37.444061
 11
48.499969
 21
37.099976
  0
LINE
  8
0
  6
CONTINUOUS
 62
     7
 10
48.521854
 20
59.441772
 11
49.00013
 21
59.399929
  0
LINE
  8
0
  6
CONTINUOUS
 62
     7
 10
47.700043
 20
60.338379
 11
47.700043
 21
61.661545
  0
LINE
  8
0
  6
CONTINUOUS
 62
     7
 10
48.52179
 20
62.558098
 11
49.000187
 21
62.599953
  0
LINE
  8
0
  6
CONTINUOUS
 62
     7
 10
48.499969
 20
59.44397
 11
48.499969
 21
40.55603
  0
LINE
  8
0
  6
CONTINUOUS
 62
     7
 10
94.999893
 20
39.661621
 11
94.999893
 21
38.338455
  0
LINE
  8
0
  6
CONTINUOUS
 62
     7
 10
94.178139
 20
37.441879
 11
93.699745
 21
37.400028
  0
LINE
  8
0
  6
CONTINUOUS
 62
     7
 10
94.178078
 20
40.558212
 11
93.699799
 21
40.60006
  0
LINE
  8
0
  6
CONTINUOUS
 62
     7
 10
95.199966
 20
56.510925
 11
95.199966
 21
43.489059
  0
LINE
  8
0
  6
CONTINUOUS
 62
     7
 10
94.199966
 20
62.900024
 11
93.199966
 21
62.900024
  0
LINE
  8
0
  6
CONTINUOUS
 62
     7
 10
94.199966
 20
37.099976
 11
93.199966
 21
37.099976
  0
LINE
  8
0
  6
CONTINUOUS
 62
     7
 10
95.199959
 20
56.510929
 11
94.199959
 21
57.018646
  0
LINE
  8
0
  6
CONTINUOUS
 62
     7
 10
95.199966
 20
43.489063
 11
94.199974
 21
42.981346
  0
LINE
  8
0
  6
CONTINUOUS
 62
     7
 10
94.199966
 20
62.900024
 11
94.199966
 21
62.555923
  0
LINE
  8
0
  6
CONTINUOUS
 62
     7
 10
93.699966
 20
62.900024
 11
93.699966
 21
37.099976
  0
LINE
  8
0
  6
CONTINUOUS
 62
     7
 10
94.199966
 20
37.444061
 11
94.199966
 21
37.099976
  0
LINE
  8
0
  6
CONTINUOUS
 62
     7
 10
94.17807
 20
59.441776
 11
93.699791
 21
59.399933
  0
LINE
  8
0
  6
CONTINUOUS
 62
     7
 10
94.999893
 20
60.338379
 11
94.999893
 21
61.661545
  0
LINE
  8
0
  6
CONTINUOUS
 62
     7
 10
94.178146
 20
62.558094
 11
93.699753
 21
62.599949
  0
LINE
  8
0
  6
CONTINUOUS
 62
     7
 10
94.199966
 20
59.44397
 11
94.199966
 21
40.55603
  0
LINE
  8
0
  6
CONTINUOUS
 62
     7
 10
30
 20
55.209824
 11
47.499969
 21
55.209824
  0
LINE
  8
0
  6
CONTINUOUS
 62
     7
 10
30
 20
55.999741
 11
47.499969
 21
55.999741
  0
LINE
  8
0
  6
CONTINUOUS
 62
     7
 10
30
 20
44.000259
 11
47.499969
 21
44.000259
  0
LINE
  8
0
  6
CONTINUOUS
 62
     7
 10
30
 20
44.790161
 11
47.499969
 21
44.790161
  0
LINE
  8
0
  6
CONTINUOUS
 62
     7
 10
125
 20
55.999741
 11
95.199966
 21
55.999741
  0
LINE
  8
0
  6
CONTINUOUS
 62
     7
 10
125
 20
55.209824
 11
95.199966
 21
55.209824
  0
LINE
  8
0
  6
CONTINUOUS
 62
     7
 10
125
 20
44.790161
 11
95.199966
 21
44.790161
  0
LINE
  8
0
  6
CONTINUOUS
 62
     7
 10
125
 20
44.000259
 11
95.199966
 21
44.000259
  0
LINE
  8
0
  6
CENTER
 62
     7
 10
39.999969
 20
53.5
 11
39.999969
 21
46.5
  0
LINE
  8
0
  6
CENTER
 62
     7
 10
115.00034
 20
53.5
 11
115.00034
 21
46.5
  0
LINE
  8
0
  6
CENTER
 62
     7
 10
63.350014
 20
59.999878
 11
59.350014
 21
59.999878
  0
LINE
  8
0
  6
CENTER
 62
     7
 10
61.350014
 20
61.999878
 11
61.350014
 21
57.999878
  0
LINE
  8
0
  6
CENTER
 62
     7
 10
83.349739
 20
59.999878
 11
79.349739
 21
59.999878
  0
LINE
  8
0
  6
CENTER
 62
     7
 10
81.349739
 20
61.999878
 11
81.349739
 21
57.999878
  0
LINE
  8
0
  6
CENTER
 62
     7
 10
83.349739
 20
40.000107
 11
79.349739
 21
40.000107
  0
LINE
  8
0
  6
CENTER
 62
     7
 10
81.349739
 20
42.000107
 11
81.349739
 21
38.000107
  0
LINE
  8
0
  6
CENTER
 62
     7
 10
63.350014
 20
40.000107
 11
59.350014
 21
40.000107
  0
LINE
  8
0
  6
CENTER
 62
     7
 10
61.350014
 20
42.000107
 11
61.350014
 21
38.000107
  0
LINE
  8
0
  6
CONTINUOUS
 62
     7
 10
30
 20
55.999741
 11
30
 21
44.000259
  0
LINE
  8
0
  6
CONTINUOUS
 62
     7
 10
125
 20
55.999741
 11
125
 21
44.000259
  0
LINE
  8
0
  6
CONTINUOUS
 62
     7
 10
47.499969
 20
7.9991245
 11
47.499969
 21
3.000061
  0
LINE
  8
0
  6
DASHED
 62
     7
 10
62.549965
 20
9.1999407
 11
62.85001
 21
9.4999886
  0
LINE
  8
0
  6
DASHED
 62
     7
 10
60.150055
 20
9.1999407
 11
59.85001
 21
9.4999886
  0
LINE
  8
0
  6
CONTINUOUS
 62
     7
 10
-11.707107
 20
9.2928896
 11
-10.292893
 21
10.707103
  0
LINE
  8
0
  6
CONTINUOUS
 62
     7
 10
-11.707107
 20
10.707103
 11
-10.292893
 21
9.2928896
  0
LINE
  8
0
  6
CONTINUOUS
 62
     7
 10
47.499969
 20
3.000061
 11
95.199966
 21
3.000061
  0
LINE
  8
0
  6
CENTER
 62
     7
 10
65
 20
8.6366615
 11
65
 21
-1.3429604
  0
LINE
  8
0
  6
CENTER
 62
     7
 10
90
 20
8.6366615
 11
90
 21
-1.3429604
  0
LINE
  8
0
  6
CENTER
 62
     7
 10
115
 20
8.6366615
 11
115
 21
-1.3429604
  0
LINE
  8
0
  6
CENTER
 62
     7
 10
64.999969
 20
53.5
 11
64.999969
 21
46.5
  0
LINE
  8
0
  6
CENTER
 62
     7
 10
89.999969
 20
53.5
 11
89.999969
 21
46.5
  0
LINE
  8
0
  6
DASHED
 62
     7
 10
-8.4998779
 20
13.000217
 11
-8.4998779
 21
9.5002632
  0
LINE
  8
0
  6
DASHED
 62
     7
 10
-11.499878
 20
13.000217
 11
-11.499878
 21
9.5002708
  0
LINE
  8
0
  6
DASHED
 62
     7
 10
-8.7999268
 20
13.000217
 11
-8.7999268
 21
8.5002632
  0
LINE
  8
0
  6
DASHED
 62
     7
 10
-11.199829
 20
13.000217
 11
-11.199829
 21
8.5002708
  0
LINE
  8
0
  6
DASHED
 62
     7
 10
-11.499817
 20
9.5002022
 11
-8.4998169
 21
9.5002022
  0
LINE
  8
0
  6
DASHED
 62
     7
 10
-11.199768
 20
8.5002022
 11
-8.7998657
 21
8.5002022
  0
LINE
  8
0
  6
DASHED
 62
     7
 10
-11.200141
 20
8.4998503
 11
-10.000053
 21
7.8069792
  0
LINE
  8
0
  6
DASHED
 62
     7
 10
-8.8004417
 20
8.4996042
 11
-10.000543
 21
7.8067245
  0
LINE
  8
0
  6
DASHED
 62
     7
 10
-8.7999277
 20
9.2001543
 11
-8.4998798
 21
9.5002022
  0
LINE
  8
0
  6
DASHED
 62
     7
 10
-11.199836
 20
9.2001543
 11
-11.499884
 21
9.5002022
  0
LINE
  8
0
  6
CENTER
 62
     7
 10
-2
 20
9.9999962
 11
2
 21
9.9999962
  0
ARC
  8
0
  6
CONTINUOUS
 62
     7
 10
48.600189
 20
39.661621
 40
0.89999956
 50
94.995255
 51
180.00018
  0
ARC
  8
0
  6
CONTINUOUS
 62
     7
 10
48.600189
 20
38.33847
 40
0.89999956
 50
180.00042
 51
265.00485
  0
ARC
  8
0
  6
CONTINUOUS
 62
     7
 10
94.099442
 20
10.661419
 40
0.89999956
 50
359.99982
 51
85.00471
  0
ARC
  8
0
  6
CONTINUOUS
 62
     7
 10
94.099442
 20
9.3382607
 40
0.89999956
 50
274.99518
 51
359.99958
  0
CIRCLE
  8
0
  6
CONTINUOUS
 62
     7
 10
11.000015
 20
9.9999962
 40
1.5999994
  0
ARC
  8
0
  6
CONTINUOUS
 62
     7
 10
11.000137
 20
9.9999809
 40
1.749999
 50
179.99996
 51
270
  0
CIRCLE
  8
0
  6
CONTINUOUS
 62
     7
 10
-11
 20
9.9999962
 40
1.5999994
  0
ARC
  8
0
  6
CONTINUOUS
 62
     7
 10
-11.000122
 20
9.9999809
 40
1.749999
 50
270.00002
 51
3.5972178E-005
  0
CIRCLE
  8
0
  6
CONTINUOUS
 62
     7
 10
61.350014
 20
40.000107
 40
1.5
  0
CIRCLE
  8
0
  6
CONTINUOUS
 62
     7
 10
61.350014
 20
40.000107
 40
1.2299995
  0
ARC
  8
0
  6
CONTINUOUS
 62
     7
 10
48.600357
 20
10.661419
 40
0.89999956
 50
94.995255
 51
180.00018
  0
ARC
  8
0
  6
CONTINUOUS
 62
     7
 10
48.600357
 20
9.3382607
 40
0.89999956
 50
180.00042
 51
265.00485
  0
ARC
  8
0
  6
CONTINUOUS
 62
     7
 10
48.600189
 20
60.338364
 40
0.89999956
 50
179.9998
 51
265.00473
  0
ARC
  8
0
  6
CONTINUOUS
 62
     7
 10
48.600189
 20
61.66153
 40
0.89999956
 50
94.995145
 51
179.99958
  0
ARC
  8
0
  6
CONTINUOUS
 62
     7
 10
94.099747
 20
61.66153
 40
0.89999956
 50
0.00041846274
 51
85.004819
  0
ARC
  8
0
  6
CONTINUOUS
 62
     7
 10
94.099747
 20
39.661621
 40
0.89999956
 50
359.99982
 51
85.00471
  0
ARC
  8
0
  6
CONTINUOUS
 62
     7
 10
94.099747
 20
38.33847
 40
0.89999956
 50
274.99518
 51
359.99958
  0
ARC
  8
0
  6
CONTINUOUS
 62
     7
 10
94.099747
 20
60.338364
 40
0.89999956
 50
274.99529
 51
0.00018259386
  0
CIRCLE
  8
0
  6
CONTINUOUS
 62
     7
 10
39.999969
 20
50
 40
1.75
  0
CIRCLE
  8
0
  6
CONTINUOUS
 62
     7
 10
39.999969
 20
50
 40
3
  0
CIRCLE
  8
0
  6
CONTINUOUS
 62
     7
 10
115.00034
 20
50
 40
3
  0
CIRCLE
  8
0
  6
CONTINUOUS
 62
     7
 10
115.00034
 20
50
 40
1.75
  0
ARC
  8
0
  6
CONTINUOUS
 62
     7
 10
-5.7496653
 20
5.2999229
 40
1.25
 50
266.87638
 51
73.125426
  0
ARC
  8
0
  6
CONTINUOUS
 62
     7
 10
5.7496653
 20
5.2999229
 40
1.25
 50
106.87448
 51
273.13342
  0
CIRCLE
  8
0
  6
CONTINUOUS
 62
     7
 10
0
 20
9.9999962
 40
1
  0
TEXT
  8
0
  6
CONTINUOUS
 62
     7
 10
-1.5999999
 20
-16.8
 40
3.5999994
 41
0.87329051
  1
ＲＳＲ１２Ｎ
  0
ENDSEC
  0
EOF
