  0
SECTION
  2
HEADER
  0
ENDSEC
  0
SECTION
  2
TABLES
  0
TABLE
  2
LTYPE
 70
    22
  0
LTYPE
  2
CONTINUOUS
 70
    64
  3
Solid line
 72
    65
 73
     0
 40
0.000000
  0
LTYPE
  2
DASHED
 70
    64
  3
__ __ __ __ __ __ __ __ __ __ __ __ __ __ __
 72
    65
 73
     2
 40
3.500000
 49
2.000000
 49
-1.500000
  0
LTYPE
  2
CENTER
 70
    64
  3
____ _ ____ _ ____ _ ____ _ ____ _ ____ _ ____
 72
    65
 73
     4
 40
17.500000
 49
13.000000
 49
-1.500000
 49
1.500000
 49
-1.500000
  0
LTYPE
  2
PHANTOM
 70
    64
  3
_____ _ _ _____ _ _ _____ _ _ _____ _ _ ____  
 72
    65
 73
     6
 40
15.500000
 49
8.000000
 49
-1.500000
 49
1.500000
 49
-1.500000
 49
1.500000
 49
-1.500000
  0
LTYPE
  2
DOT
 70
    64
  3
. . . . . . . . . . . . . . . . . . . . . . . .
 72
    65
 73
     2
 40
0.25
 49
0.0
 49
-0.25
  0
ENDTAB
  0
TABLE
  2
LAYER
 70
     1
  0
LAYER
  2
0
 70
     0
 62
     7
  6
CONTINUOUS
  0
ENDTAB
  0
TABLE
  2
STYLE
 70
     1
  0
STYLE
  2
STANDARD
 70
     0
 40
0.000000
 41
1.000000
 50
0.000000
 71
     0
 42
0.200000
  3
txt
  0
ENDTAB
  0
TABLE
  2
VIEW
 70
     0
  0
ENDTAB
  0
ENDSEC
  0
SECTION
  2
BLOCKS
  0
ENDSEC
  0
SECTION
  2
ENTITIES
  0
LINE
  8
0
  6
CENTER
 62
     7
 10
75
 20
16.660477
 11
75
 21
8.9428329
  0
LINE
  8
0
  6
CONTINUOUS
 62
     7
 10
72.150024
 20
16
 11
97.850098
 21
16
  0
LINE
  8
0
  6
CONTINUOUS
 62
     7
 10
63.550049
 20
4
 11
106.45001
 21
4
  0
LINE
  8
0
  6
CONTINUOUS
 62
     7
 10
30
 20
9.5
 11
63.50005
 21
9.5
  0
LINE
  8
0
  6
CONTINUOUS
 62
     7
 10
30
 20
0
 11
140
 21
0
  0
LINE
  8
0
  6
CENTER
 62
     7
 10
45
 20
11.108162
 11
45
 21
-1.8373871
  0
LINE
  8
0
  6
CENTER
 62
     7
 10
95
 20
16.660477
 11
95
 21
8.9428329
  0
LINE
  8
0
  6
CONTINUOUS
 62
     7
 10
30
 20
5.3835602
 11
63.50005
 21
5.3835602
  0
LINE
  8
0
  6
CONTINUOUS
 62
     7
 10
30
 20
8.5641098
 11
63.50005
 21
8.5641098
  0
LINE
  8
0
  6
CONTINUOUS
 62
     7
 10
72.150024
 20
16
 11
72.150024
 21
4
  0
LINE
  8
0
  6
CONTINUOUS
 62
     7
 10
97.850098
 20
16
 11
97.850098
 21
4
  0
LINE
  8
0
  6
CONTINUOUS
 62
     7
 10
65.550049
 20
15.299995
 11
65.550049
 21
4
  0
LINE
  8
0
  6
CONTINUOUS
 62
     7
 10
64.550049
 20
15.299995
 11
64.550049
 21
14.214882
  0
LINE
  8
0
  6
CONTINUOUS
 62
     7
 10
64.550049
 20
15.299995
 11
72.150024
 21
15.299995
  0
LINE
  8
0
  6
CONTINUOUS
 62
     7
 10
63.550049
 20
9.9991179
 11
64.353226
 21
10.802293
  0
LINE
  8
0
  6
CONTINUOUS
 62
     7
 10
64.950073
 20
15.299995
 11
64.950073
 21
4
  0
LINE
  8
0
  6
CONTINUOUS
 62
     7
 10
106.50002
 20
9.5
 11
140
 21
9.5
  0
LINE
  8
0
  6
CONTINUOUS
 62
     7
 10
106.50002
 20
5.3835602
 11
140
 21
5.3835602
  0
LINE
  8
0
  6
CONTINUOUS
 62
     7
 10
106.50002
 20
8.5641098
 11
140
 21
8.5641098
  0
LINE
  8
0
  6
CONTINUOUS
 62
     7
 10
104.45007
 20
3.9999924
 11
104.45007
 21
15.299995
  0
LINE
  8
0
  6
CONTINUOUS
 62
     7
 10
105.45001
 20
4
 11
105.45001
 21
10.785072
  0
LINE
  8
0
  6
CONTINUOUS
 62
     7
 10
97.850098
 20
15.299995
 11
105.45001
 21
15.299995
  0
LINE
  8
0
  6
CONTINUOUS
 62
     7
 10
105.64766
 20
10.802281
 11
106.45001
 21
9.9999294
  0
LINE
  8
0
  6
CONTINUOUS
 62
     7
 10
105.05005
 20
3.9999924
 11
105.05005
 21
15.299995
  0
LINE
  8
0
  6
DASHED
 62
     7
 10
76.5
 20
15.900047
 11
76.5
 21
11.999994
  0
LINE
  8
0
  6
DASHED
 62
     7
 10
73.5
 20
15.899796
 11
73.5
 21
11.999994
  0
LINE
  8
0
  6
DASHED
 62
     7
 10
76.199951
 20
15.599998
 11
76.199951
 21
10.6
  0
LINE
  8
0
  6
DASHED
 62
     7
 10
73.799927
 20
15.599998
 11
73.799927
 21
10.59948
  0
LINE
  8
0
  6
DASHED
 62
     7
 10
73.799026
 20
10.6
 11
76.199951
 21
10.6
  0
LINE
  8
0
  6
DASHED
 62
     7
 10
73.800453
 20
10.599176
 11
75.000542
 21
9.9063053
  0
LINE
  8
0
  6
DASHED
 62
     7
 10
76.200035
 20
10.599412
 11
75.000053
 21
9.906601
  0
LINE
  8
0
  6
DASHED
 62
     7
 10
73.5
 20
11.999994
 11
76.5
 21
11.999994
  0
LINE
  8
0
  6
DASHED
 62
     7
 10
76.200417
 20
11.479892
 11
76.500465
 21
11.999593
  0
LINE
  8
0
  6
DASHED
 62
     7
 10
73.800293
 20
11.47966
 11
73.500381
 21
11.999294
  0
LINE
  8
0
  6
CONTINUOUS
 62
     7
 10
63.450012
 20
52.25
 11
63.450012
 21
47.75
  0
LINE
  8
0
  6
CONTINUOUS
 62
     7
 10
61.450012
 20
51.75
 11
63.450012
 21
51.75
  0
LINE
  8
0
  6
CONTINUOUS
 62
     7
 10
61.450012
 20
48.25
 11
63.450012
 21
48.25
  0
LINE
  8
0
  6
CONTINUOUS
 62
     7
 10
63.450012
 20
52.25
 11
64.950027
 21
52.25
  0
LINE
  8
0
  6
CONTINUOUS
 62
     7
 10
63.450012
 20
47.75
 11
64.950027
 21
47.75
  0
LINE
  8
0
  6
CONTINUOUS
 62
     7
 10
63.650085
 20
38.136154
 11
63.650085
 21
34.863831
  0
LINE
  8
0
  6
CONTINUOUS
 62
     7
 10
63.650101
 20
38.136147
 11
64.550026
 21
38.214878
  0
LINE
  8
0
  6
CONTINUOUS
 62
     7
 10
64.550026
 20
34.785091
 11
63.650097
 21
34.863823
  0
LINE
  8
0
  6
CONTINUOUS
 62
     7
 10
64.550049
 20
10.785103
 11
64.550049
 21
4
  0
LINE
  8
0
  6
CONTINUOUS
 62
     7
 10
106.3501
 20
10.863815
 11
106.3501
 21
14.136135
  0
LINE
  8
0
  6
CONTINUOUS
 62
     7
 10
105.05013
 20
14.249856
 11
106.35008
 21
14.136125
  0
LINE
  8
0
  6
CONTINUOUS
 62
     7
 10
106.35009
 20
10.863815
 11
105.05011
 21
10.750081
  0
LINE
  8
0
  6
CONTINUOUS
 62
     7
 10
105.45001
 20
14.21489
 11
105.45001
 21
15.299995
  0
LINE
  8
0
  6
DASHED
 62
     7
 10
42
 20
5
 11
48
 21
5
  0
LINE
  8
0
  6
DASHED
 62
     7
 10
48
 20
9.5
 11
48
 21
5
  0
LINE
  8
0
  6
DASHED
 62
     7
 10
42
 20
9.5
 11
42
 21
5
  0
LINE
  8
0
  6
DASHED
 62
     7
 10
46.75
 20
5
 11
46.75
 21
0
  0
LINE
  8
0
  6
DASHED
 62
     7
 10
43.25
 20
5
 11
43.25
 21
0
  0
LINE
  8
0
  6
CONTINUOUS
 62
     7
 10
30
 20
3.8705215
 11
140
 21
3.8705215
  0
LINE
  8
0
  6
CONTINUOUS
 62
     7
 10
-6.5072021
 20
9.5
 11
6.5074463
 21
9.5
  0
LINE
  8
0
  6
CONTINUOUS
 62
     7
 10
7.5
 20
3.8705826
 11
7.5
 21
0.49988556
  0
LINE
  8
0
  6
CONTINUOUS
 62
     7
 10
-6.9995484
 20
-0.00044144629
 11
-7.4995809
 21
0.49959168
  0
LINE
  8
0
  6
CONTINUOUS
 62
     7
 10
-15.5
 20
16
 11
-7.5
 21
16
  0
LINE
  8
0
  6
CONTINUOUS
 62
     7
 10
16
 20
15.500008
 11
16
 21
4.5
  0
LINE
  8
0
  6
CONTINUOUS
 62
     7
 10
-15.5
 20
4
 11
-7.4770508
 21
4
  0
LINE
  8
0
  6
CONTINUOUS
 62
     7
 10
16.00033
 20
4.4995165
 11
15.500382
 21
3.9995704
  0
LINE
  8
0
  6
CONTINUOUS
 62
     7
 10
-15.999499
 20
4.4995093
 11
-15.499553
 21
3.999563
  0
LINE
  8
0
  6
CONTINUOUS
 62
     7
 10
-7
 20
15.5
 11
7
 21
15.5
  0
LINE
  8
0
  6
CONTINUOUS
 62
     7
 10
7.5
 20
16
 11
15.5
 21
16
  0
LINE
  8
0
  6
CONTINUOUS
 62
     7
 10
7.000402
 20
15.499456
 11
7.5004268
 21
15.999481
  0
LINE
  8
0
  6
CONTINUOUS
 62
     7
 10
-6.9995427
 20
15.499539
 11
-7.499567
 21
15.999564
  0
LINE
  8
0
  6
CONTINUOUS
 62
     7
 10
7.4772949
 20
4
 11
15.5
 21
4
  0
LINE
  8
0
  6
CENTER
 62
     7
 10
-12.5
 20
8.9428329
 11
-12.5
 21
16.660477
  0
LINE
  8
0
  6
CENTER
 62
     7
 10
0
 20
17.66301
 11
0
 21
-1.8373871
  0
LINE
  8
0
  6
CENTER
 62
     7
 10
12.5
 20
16.660477
 11
12.5
 21
8.9428329
  0
LINE
  8
0
  6
CONTINUOUS
 62
     7
 10
-16
 20
15.499916
 11
-16
 21
4.5
  0
LINE
  8
0
  6
CONTINUOUS
 62
     7
 10
-6.9999895
 20
0
 11
7
 21
0
  0
LINE
  8
0
  6
CONTINUOUS
 62
     7
 10
7.0000091
 20
4.8880538E-006
 11
7.50001
 21
0.49989712
  0
LINE
  8
0
  6
CONTINUOUS
 62
     7
 10
6.5073977
 20
9.4999962
 11
6.677938
 21
8.5328131
  0
LINE
  8
0
  6
CONTINUOUS
 62
     7
 10
7.2276855
 20
5.415041
 11
7.5000243
 21
3.8705301
  0
LINE
  8
0
  6
CONTINUOUS
 62
     7
 10
-7.5
 20
0.49988556
 11
-7.5
 21
3.8705826
  0
LINE
  8
0
  6
CONTINUOUS
 62
     7
 10
-6.6777782
 20
8.5327682
 11
-6.5072374
 21
9.4999552
  0
LINE
  8
0
  6
CONTINUOUS
 62
     7
 10
-7.4998636
 20
3.8704903
 11
-7.22752
 21
5.4150286
  0
LINE
  8
0
  6
CONTINUOUS
 62
     7
 10
-15.4999
 20
15.999925
 11
-15.999905
 21
15.499843
  0
LINE
  8
0
  6
CONTINUOUS
 62
     7
 10
15.500094
 20
15.999903
 11
16.000046
 21
15.49996
  0
LINE
  8
0
  6
CONTINUOUS
 62
     7
 10
7.7660537
 20
10.999961
 11
9.0003347
 21
4
  0
LINE
  8
0
  6
CONTINUOUS
 62
     7
 10
-14.500007
 20
15.299995
 11
14.50001
 21
15.299995
  0
LINE
  8
0
  6
CONTINUOUS
 62
     7
 10
14.500086
 20
15.299906
 11
15.500068
 21
14.299929
  0
LINE
  8
0
  6
CONTINUOUS
 62
     7
 10
-15.5
 20
4
 11
-15.5
 21
14.300007
  0
LINE
  8
0
  6
CONTINUOUS
 62
     7
 10
13.5
 20
14.399986
 11
15.400024
 21
14.399986
  0
LINE
  8
0
  6
CONTINUOUS
 62
     7
 10
13.5
 20
10.599991
 11
15.5
 21
10.599991
  0
LINE
  8
0
  6
CONTINUOUS
 62
     7
 10
-2.3999023
 20
15.299995
 11
-2.3999023
 21
12.499992
  0
LINE
  8
0
  6
CONTINUOUS
 62
     7
 10
2.4000244
 20
15.299995
 11
2.4000244
 21
12.499992
  0
LINE
  8
0
  6
CONTINUOUS
 62
     7
 10
15.5
 20
14.30001
 11
15.5
 21
4
  0
LINE
  8
0
  6
DASHED
 62
     7
 10
-3
 20
5
 11
3
 21
5
  0
LINE
  8
0
  6
DASHED
 62
     7
 10
3
 20
9.5
 11
3
 21
5
  0
LINE
  8
0
  6
DASHED
 62
     7
 10
-3
 20
9.5
 11
-3
 21
5
  0
LINE
  8
0
  6
DASHED
 62
     7
 10
1.75
 20
5
 11
1.75
 21
0
  0
LINE
  8
0
  6
DASHED
 62
     7
 10
-1.75
 20
5
 11
-1.75
 21
0
  0
LINE
  8
0
  6
CONTINUOUS
 62
     7
 10
-14.500001
 20
15.29999
 11
-15.499994
 21
14.300002
  0
LINE
  8
0
  6
CONTINUOUS
 62
     7
 10
-13.5
 20
14.399986
 11
-15.400024
 21
14.399986
  0
LINE
  8
0
  6
CONTINUOUS
 62
     7
 10
-13.5
 20
10.599991
 11
-15.5
 21
10.599991
  0
LINE
  8
0
  6
CONTINUOUS
 62
     7
 10
-7.7658691
 20
11
 11
-1.8735046
 21
11
  0
LINE
  8
0
  6
CONTINUOUS
 62
     7
 10
-9.0001678
 20
3.9999995
 11
-7.7658734
 21
11.000032
  0
LINE
  8
0
  6
CONTINUOUS
 62
     7
 10
1.8735046
 20
11
 11
7.7660522
 21
11
  0
LINE
  8
0
  6
CENTER
 62
     7
 10
27.784958
 20
50
 11
142.46616
 21
50
  0
LINE
  8
0
  6
CONTINUOUS
 62
     7
 10
72.150024
 20
66
 11
97.850021
 21
66
  0
LINE
  8
0
  6
CONTINUOUS
 62
     7
 10
72.150024
 20
57.5
 11
97.850021
 21
57.5
  0
LINE
  8
0
  6
CONTINUOUS
 62
     7
 10
72.150024
 20
66
 11
72.150024
 21
34
  0
LINE
  8
0
  6
CONTINUOUS
 62
     7
 10
72.150024
 20
42.499985
 11
97.850021
 21
42.499985
  0
LINE
  8
0
  6
CONTINUOUS
 62
     7
 10
72.150024
 20
34
 11
97.850021
 21
34
  0
LINE
  8
0
  6
CONTINUOUS
 62
     7
 10
97.850021
 20
66
 11
97.850021
 21
34
  0
LINE
  8
0
  6
CONTINUOUS
 62
     7
 10
65.550018
 20
65.800018
 11
65.550018
 21
34.199966
  0
LINE
  8
0
  6
CONTINUOUS
 62
     7
 10
64.550018
 20
65.500061
 11
64.550018
 21
52.25
  0
LINE
  8
0
  6
CONTINUOUS
 62
     7
 10
64.950027
 20
65.500061
 11
64.950027
 21
34.499924
  0
LINE
  8
0
  6
CONTINUOUS
 62
     7
 10
65.550018
 20
65.800018
 11
72.150024
 21
65.800018
  0
LINE
  8
0
  6
CONTINUOUS
 62
     7
 10
64.550018
 20
65.500061
 11
65.550018
 21
65.500061
  0
LINE
  8
0
  6
CONTINUOUS
 62
     7
 10
63.550049
 20
57.984768
 11
64.550026
 21
59.000168
  0
LINE
  8
0
  6
CONTINUOUS
 62
     7
 10
63.550049
 20
42.015221
 11
64.550018
 21
40.999828
  0
LINE
  8
0
  6
CONTINUOUS
 62
     7
 10
64.550018
 20
34.499924
 11
65.550018
 21
34.499924
  0
LINE
  8
0
  6
CONTINUOUS
 62
     7
 10
65.550018
 20
34.199966
 11
72.150024
 21
34.199966
  0
LINE
  8
0
  6
CONTINUOUS
 62
     7
 10
63.650146
 20
14.136146
 11
63.650146
 21
10.863828
  0
LINE
  8
0
  6
CONTINUOUS
 62
     7
 10
64.950134
 20
10.750082
 11
63.650143
 21
10.863817
  0
LINE
  8
0
  6
CONTINUOUS
 62
     7
 10
63.650146
 20
14.136146
 11
64.950127
 21
14.24988
  0
LINE
  8
0
  6
CONTINUOUS
 62
     7
 10
63.650093
 20
61.863846
 11
64.550018
 21
61.78511
  0
LINE
  8
0
  6
CONTINUOUS
 62
     7
 10
63.650085
 20
61.863846
 11
63.650085
 21
65.136154
  0
LINE
  8
0
  6
CONTINUOUS
 62
     7
 10
64.550018
 20
65.214882
 11
63.650089
 21
65.136154
  0
LINE
  8
0
  6
CENTER
 62
     7
 10
95
 20
64.5
 11
95
 21
60.5
  0
LINE
  8
0
  6
CENTER
 62
     7
 10
93
 20
62.5
 11
97
 21
62.5
  0
LINE
  8
0
  6
CENTER
 62
     7
 10
95
 20
39.5
 11
95
 21
35.5
  0
LINE
  8
0
  6
CENTER
 62
     7
 10
93
 20
37.5
 11
97
 21
37.5
  0
LINE
  8
0
  6
CENTER
 62
     7
 10
75
 20
39.5
 11
75
 21
35.5
  0
LINE
  8
0
  6
CENTER
 62
     7
 10
73
 20
37.5
 11
77
 21
37.5
  0
LINE
  8
0
  6
CENTER
 62
     7
 10
75
 20
64.5
 11
75
 21
60.5
  0
LINE
  8
0
  6
CENTER
 62
     7
 10
73
 20
62.5
 11
77
 21
62.5
  0
LINE
  8
0
  6
CONTINUOUS
 62
     7
 10
30
 20
57.499863
 11
63.550018
 21
57.499863
  0
LINE
  8
0
  6
CONTINUOUS
 62
     7
 10
30
 20
56.507233
 11
63.550018
 21
56.507233
  0
LINE
  8
0
  6
CONTINUOUS
 62
     7
 10
30
 20
43.492752
 11
63.550018
 21
43.492752
  0
LINE
  8
0
  6
CONTINUOUS
 62
     7
 10
30
 20
42.500137
 11
63.550018
 21
42.500137
  0
LINE
  8
0
  6
CONTINUOUS
 62
     7
 10
140
 20
57.499863
 11
106.45003
 21
57.499863
  0
LINE
  8
0
  6
CONTINUOUS
 62
     7
 10
140
 20
56.507233
 11
106.45003
 21
56.507233
  0
LINE
  8
0
  6
CONTINUOUS
 62
     7
 10
140
 20
43.492752
 11
106.45003
 21
43.492752
  0
LINE
  8
0
  6
CONTINUOUS
 62
     7
 10
140
 20
42.500137
 11
106.45003
 21
42.500137
  0
LINE
  8
0
  6
CONTINUOUS
 62
     7
 10
106.34995
 20
38.136139
 11
106.34995
 21
34.863831
  0
LINE
  8
0
  6
CONTINUOUS
 62
     7
 10
106.34995
 20
38.136139
 11
105.45002
 21
38.214874
  0
LINE
  8
0
  6
CONTINUOUS
 62
     7
 10
105.45003
 20
34.785095
 11
106.34995
 21
34.863831
  0
LINE
  8
0
  6
CONTINUOUS
 62
     7
 10
104.45003
 20
65.800018
 11
104.45003
 21
34.199966
  0
LINE
  8
0
  6
CONTINUOUS
 62
     7
 10
105.45003
 20
65.500061
 11
105.45003
 21
34.499924
  0
LINE
  8
0
  6
CONTINUOUS
 62
     7
 10
105.05002
 20
65.500061
 11
105.05002
 21
34.499924
  0
LINE
  8
0
  6
CONTINUOUS
 62
     7
 10
104.45003
 20
65.800018
 11
97.850021
 21
65.800018
  0
LINE
  8
0
  6
CONTINUOUS
 62
     7
 10
105.45003
 20
65.500061
 11
104.45003
 21
65.500061
  0
LINE
  8
0
  6
CONTINUOUS
 62
     7
 10
106.40002
 20
58.0355
 11
105.45001
 21
59.000172
  0
LINE
  8
0
  6
CONTINUOUS
 62
     7
 10
106.45002
 20
42.015266
 11
105.45001
 21
40.999836
  0
LINE
  8
0
  6
CONTINUOUS
 62
     7
 10
105.45003
 20
34.499924
 11
104.45003
 21
34.499924
  0
LINE
  8
0
  6
CONTINUOUS
 62
     7
 10
104.45003
 20
34.199966
 11
97.850021
 21
34.199966
  0
LINE
  8
0
  6
CONTINUOUS
 62
     7
 10
106.34995
 20
61.863834
 11
105.45003
 21
61.785103
  0
LINE
  8
0
  6
CONTINUOUS
 62
     7
 10
106.34995
 20
61.863846
 11
106.34995
 21
65.136154
  0
LINE
  8
0
  6
CONTINUOUS
 62
     7
 10
105.45002
 20
65.214897
 11
106.34995
 21
65.136162
  0
LINE
  8
0
  6
CENTER
 62
     7
 10
125
 20
53.5
 11
125
 21
46.5
  0
LINE
  8
0
  6
CENTER
 62
     7
 10
45
 20
53.5
 11
45
 21
46.5
  0
LINE
  8
0
  6
CENTER
 62
     7
 10
85
 20
53.5
 11
85
 21
46.5
  0
LINE
  8
0
  6
CONTINUOUS
 62
     7
 10
61.450073
 20
14.249992
 11
63.450073
 21
14.249992
  0
LINE
  8
0
  6
CONTINUOUS
 62
     7
 10
61.450073
 20
10.749992
 11
63.450073
 21
10.749992
  0
LINE
  8
0
  6
CONTINUOUS
 62
     7
 10
63.450073
 20
14.749992
 11
64.550049
 21
14.749992
  0
LINE
  8
0
  6
CONTINUOUS
 62
     7
 10
63.450073
 20
14.749992
 11
63.450073
 21
10.249992
  0
LINE
  8
0
  6
CONTINUOUS
 62
     7
 10
63.450073
 20
10.249992
 11
63.800415
 21
10.249992
  0
LINE
  8
0
  6
CONTINUOUS
 62
     7
 10
64.550018
 20
47.75
 11
64.550018
 21
34.499924
  0
LINE
  8
0
  6
CONTINUOUS
 62
     7
 10
30
 20
9.5
 11
30
 21
0
  0
LINE
  8
0
  6
CONTINUOUS
 62
     7
 10
140
 20
9.5
 11
140
 21
0
  0
LINE
  8
0
  6
CONTINUOUS
 62
     7
 10
30
 20
57.499863
 11
30
 21
42.500137
  0
LINE
  8
0
  6
CONTINUOUS
 62
     7
 10
140
 20
57.499863
 11
140
 21
42.500137
  0
LINE
  8
0
  6
CONTINUOUS
 62
     7
 10
-14.207103
 20
11.792882
 11
-12.79289
 21
13.207095
  0
LINE
  8
0
  6
CONTINUOUS
 62
     7
 10
-14.207103
 20
13.207095
 11
-12.79289
 21
11.792882
  0
LINE
  8
0
  6
CENTER
 62
     7
 10
85
 20
6.8604693
 11
85
 21
-1.8373871
  0
LINE
  8
0
  6
CENTER
 62
     7
 10
125
 20
11.108162
 11
125
 21
-1.8373871
  0
LINE
  8
0
  6
CONTINUOUS
 62
     7
 10
63.550049
 20
9.9991188
 11
63.550049
 21
4
  0
LINE
  8
0
  6
CONTINUOUS
 62
     7
 10
106.45001
 20
4
 11
106.45001
 21
9.9999285
  0
LINE
  8
0
  6
CONTINUOUS
 62
     7
 10
63.550049
 20
47.75
 11
63.550049
 21
42.015259
  0
LINE
  8
0
  6
CONTINUOUS
 62
     7
 10
63.550049
 20
52.25
 11
63.550049
 21
57.984768
  0
LINE
  8
0
  6
CONTINUOUS
 62
     7
 10
106.45001
 20
57.984741
 11
106.45001
 21
41.964508
  0
ARC
  8
0
  6
CONTINUOUS
 62
     7
 10
61.450012
 20
50
 40
1.75
 50
89.999982
 51
270
  0
ARC
  8
0
  6
CONTINUOUS
 62
     7
 10
13.5
 20
12.499992
 40
1.8999996
 50
89.999982
 51
269.99995
  0
CIRCLE
  8
0
  6
CONTINUOUS
 62
     7
 10
13.5
 20
12.499992
 40
1.75
  0
ARC
  8
0
  6
CONTINUOUS
 62
     7
 10
0
 20
12.499992
 40
2.25
 50
62.737746
 51
59.948389
  0
ARC
  8
0
  6
CONTINUOUS
 62
     7
 10
-13.5
 20
12.499992
 40
1.8999996
 50
270.00007
 51
89.999982
  0
CIRCLE
  8
0
  6
CONTINUOUS
 62
     7
 10
-13.5
 20
12.499992
 40
1.75
  0
ARC
  8
0
  6
CONTINUOUS
 62
     7
 10
0
 20
12.499992
 40
2.3999996
 50
179.99996
 51
1.0017913E-005
  0
ARC
  8
0
  6
CONTINUOUS
 62
     7
 10
0
 20
12.499992
 40
2.3999996
 50
179.99996
 51
1.0017913E-005
  0
ARC
  8
0
  6
CONTINUOUS
 62
     7
 10
0
 20
12.499992
 40
2.3999996
 50
179.99996
 51
1.0017913E-005
  0
CIRCLE
  8
0
  6
CONTINUOUS
 62
     7
 10
0
 20
12.499992
 40
1.75
  0
CIRCLE
  8
0
  6
CONTINUOUS
 62
     7
 10
0
 20
12.499992
 40
0.90149999
  0
CIRCLE
  8
0
  6
CONTINUOUS
 62
     7
 10
75
 20
37.5
 40
1.5
  0
CIRCLE
  8
0
  6
CONTINUOUS
 62
     7
 10
75
 20
37.5
 40
1.2299995
  0
CIRCLE
  8
0
  6
CONTINUOUS
 62
     7
 10
125
 20
50
 40
3
  0
CIRCLE
  8
0
  6
CONTINUOUS
 62
     7
 10
125
 20
50
 40
1.75
  0
CIRCLE
  8
0
  6
CONTINUOUS
 62
     7
 10
45
 20
50
 40
1.75
  0
CIRCLE
  8
0
  6
CONTINUOUS
 62
     7
 10
45
 20
50
 40
3
  0
ARC
  8
0
  6
CONTINUOUS
 62
     7
 10
61.450073
 20
12.499992
 40
1.75
 50
89.999982
 51
270
  0
ARC
  8
0
  6
CONTINUOUS
 62
     7
 10
-7.1002684
 20
6.9999275
 40
1.5899992
 50
265.40958
 51
74.59042
  0
ARC
  8
0
  6
CONTINUOUS
 62
     7
 10
7.1002684
 20
6.9999275
 40
1.5899992
 50
105.40359
 51
274.59639
  0
TEXT
  8
0
  6
CONTINUOUS
 62
     7
 10
-1.5999999
 20
-16.8
 40
3.5999994
 41
1.0392157
  1
RSR15V
  0
TEXT
  8
0
  6
CONTINUOUS
 62
     7
 10
-1.5999999
 20
-22.8
 40
3.5999994
 41
1.0229885
  1
  C =4410N
  0
TEXT
  8
0
  6
CONTINUOUS
 62
     7
 10
-1.5999999
 20
-28.8
 40
3.5999994
 41
1.0229885
  1
  C0=6570N
  0
ENDSEC
  0
EOF
