  0
SECTION
  2
HEADER
  0
ENDSEC
  0
SECTION
  2
TABLES
  0
TABLE
  2
LTYPE
 70
    22
  0
LTYPE
  2
CONTINUOUS
 70
    64
  3
Solid line
 72
    65
 73
     0
 40
0.000000
  0
LTYPE
  2
DASHED
 70
    64
  3
__ __ __ __ __ __ __ __ __ __ __ __ __ __ __
 72
    65
 73
     2
 40
3.500000
 49
2.000000
 49
-1.500000
  0
LTYPE
  2
CENTER
 70
    64
  3
____ _ ____ _ ____ _ ____ _ ____ _ ____ _ ____
 72
    65
 73
     4
 40
17.500000
 49
13.000000
 49
-1.500000
 49
1.500000
 49
-1.500000
  0
LTYPE
  2
PHANTOM
 70
    64
  3
_____ _ _ _____ _ _ _____ _ _ _____ _ _ ____  
 72
    65
 73
     6
 40
15.500000
 49
8.000000
 49
-1.500000
 49
1.500000
 49
-1.500000
 49
1.500000
 49
-1.500000
  0
LTYPE
  2
DOT
 70
    64
  3
. . . . . . . . . . . . . . . . . . . . . . . .
 72
    65
 73
     2
 40
0.25
 49
0.0
 49
-0.25
  0
ENDTAB
  0
TABLE
  2
LAYER
 70
     1
  0
LAYER
  2
0
 70
     0
 62
     7
  6
CONTINUOUS
  0
ENDTAB
  0
TABLE
  2
STYLE
 70
     1
  0
STYLE
  2
STANDARD
 70
     0
 40
0.000000
 41
1.000000
 50
0.000000
 71
     0
 42
0.200000
  3
txt
  0
ENDTAB
  0
TABLE
  2
VIEW
 70
     0
  0
ENDTAB
  0
ENDSEC
  0
SECTION
  2
BLOCKS
  0
ENDSEC
  0
SECTION
  2
ENTITIES
  0
LINE
  8
0
  6
CONTINUOUS
 62
     7
 10
-20.5
 20
0
 11
-8
 21
0
  0
LINE
  8
0
  6
CENTER
 62
     7
 10
0
 20
17.5
 11
0
 21
-1.5
  0
LINE
  8
0
  6
CONTINUOUS
 62
     7
 10
-20
 20
9.5
 11
20
 21
9.5
  0
LINE
  8
0
  6
CONTINUOUS
 62
     7
 10
-21
 20
3.8287182
 11
-21
 21
0.5
  0
LINE
  8
0
  6
CONTINUOUS
 62
     7
 10
21
 20
3.8287182
 11
21
 21
0.5
  0
LINE
  8
0
  6
CONTINUOUS
 62
     7
 10
-21
 20
0.49999985
 11
-20.5
 21
0
  0
LINE
  8
0
  6
CONTINUOUS
 62
     7
 10
20.5
 20
0
 11
21
 21
0.49999985
  0
LINE
  8
0
  6
CONTINUOUS
 62
     7
 10
-7.5
 20
0.5
 11
7.5
 21
0.5
  0
LINE
  8
0
  6
CONTINUOUS
 62
     7
 10
-8
 20
0
 11
-7.5
 21
0.49999985
  0
LINE
  8
0
  6
CONTINUOUS
 62
     7
 10
7.5
 20
0.49999985
 11
8
 21
0
  0
LINE
  8
0
  6
CONTINUOUS
 62
     7
 10
8
 20
0
 11
20.5
 21
0
  0
LINE
  8
0
  6
CONTINUOUS
 62
     7
 10
-21
 20
3.8287182
 11
-20.720371
 21
5.4145627
  0
LINE
  8
0
  6
CONTINUOUS
 62
     7
 10
20
 20
9.5
 11
20.17086
 21
8.5309935
  0
LINE
  8
0
  6
DASHED
 62
     7
 10
99
 20
9.5
 11
99
 21
5
  0
LINE
  8
0
  6
DASHED
 62
     7
 10
91
 20
9.5
 11
91
 21
5
  0
LINE
  8
0
  6
DASHED
 62
     7
 10
97.25
 20
5
 11
97.25
 21
0
  0
LINE
  8
0
  6
DASHED
 62
     7
 10
92.75
 20
5
 11
92.75
 21
0
  0
LINE
  8
0
  6
CENTER
 62
     7
 10
11.5
 20
11
 11
11.5
 21
-1.5
  0
LINE
  8
0
  6
CONTINUOUS
 62
     7
 10
-20.17086
 20
8.5309935
 11
-20
 21
9.5
  0
LINE
  8
0
  6
CONTINUOUS
 62
     7
 10
20.720371
 20
5.4145627
 11
21
 21
3.8287182
  0
LINE
  8
0
  6
CONTINUOUS
 62
     7
 10
-29
 20
16
 11
-12
 21
16
  0
LINE
  8
0
  6
CONTINUOUS
 62
     7
 10
-30
 20
15
 11
-30
 21
10.4
  0
LINE
  8
0
  6
CONTINUOUS
 62
     7
 10
30
 20
15
 11
30
 21
10.4
  0
LINE
  8
0
  6
CONTINUOUS
 62
     7
 10
-29
 20
16
 11
-30
 21
15
  0
LINE
  8
0
  6
CONTINUOUS
 62
     7
 10
29
 20
16
 11
30
 21
15
  0
LINE
  8
0
  6
CONTINUOUS
 62
     7
 10
-11.5
 20
15.5
 11
11.5
 21
15.5
  0
LINE
  8
0
  6
CONTINUOUS
 62
     7
 10
11.5
 20
15.5
 11
12
 21
16
  0
LINE
  8
0
  6
CONTINUOUS
 62
     7
 10
-12
 20
16
 11
-11.5
 21
15.5
  0
LINE
  8
0
  6
CONTINUOUS
 62
     7
 10
12
 20
16
 11
29
 21
16
  0
LINE
  8
0
  6
CONTINUOUS
 62
     7
 10
-28.6
 20
4
 11
-21.532
 21
4
  0
LINE
  8
0
  6
CONTINUOUS
 62
     7
 10
29.6
 20
10
 11
29.6
 21
5
  0
LINE
  8
0
  6
CONTINUOUS
 62
     7
 10
-29.6
 20
10
 11
-29.6
 21
5
  0
LINE
  8
0
  6
CONTINUOUS
 62
     7
 10
29.6
 20
10
 11
30
 21
10.4
  0
LINE
  8
0
  6
CONTINUOUS
 62
     7
 10
-30
 20
10.4
 11
-29.6
 21
10
  0
LINE
  8
0
  6
CONTINUOUS
 62
     7
 10
28.6
 20
4.0000005
 11
29.6
 21
5
  0
LINE
  8
0
  6
CONTINUOUS
 62
     7
 10
-28.6
 20
4.0000005
 11
-29.6
 21
5
  0
LINE
  8
0
  6
CONTINUOUS
 62
     7
 10
21.532
 20
4
 11
28.6
 21
4
  0
LINE
  8
0
  6
CONTINUOUS
 62
     7
 10
-28.4
 20
15.2
 11
28.4
 21
15.2
  0
LINE
  8
0
  6
CONTINUOUS
 62
     7
 10
-29.4
 20
14.2
 11
-29.4
 21
5.3000002
  0
LINE
  8
0
  6
CONTINUOUS
 62
     7
 10
29.4
 20
14.2
 11
29.4
 21
5.3000002
  0
LINE
  8
0
  6
CONTINUOUS
 62
     7
 10
-28.4
 20
4.3000002
 11
-20.916901
 21
4.3000002
  0
LINE
  8
0
  6
CONTINUOUS
 62
     7
 10
-28.4
 20
15.199999
 11
-29.4
 21
14.2
  0
LINE
  8
0
  6
CONTINUOUS
 62
     7
 10
28.4
 20
15.199999
 11
29.4
 21
14.2
  0
LINE
  8
0
  6
CONTINUOUS
 62
     7
 10
28.4
 20
4.3000007
 11
29.4
 21
5.3000007
  0
LINE
  8
0
  6
CONTINUOUS
 62
     7
 10
-28.4
 20
4.3000007
 11
-29.4
 21
5.3000007
  0
LINE
  8
0
  6
CONTINUOUS
 62
     7
 10
20.916901
 20
4.3000002
 11
28.4
 21
4.3000002
  0
LINE
  8
0
  6
CONTINUOUS
 62
     7
 10
-21.532
 20
4
 11
-21.479101
 21
4.3000002
  0
LINE
  8
0
  6
CONTINUOUS
 62
     7
 10
21.479101
 20
4.3000002
 11
21.532
 21
4
  0
LINE
  8
0
  6
CONTINUOUS
 62
     7
 10
-27.848528
 20
11.651471
 11
-26.151472
 21
13.348528
  0
LINE
  8
0
  6
CONTINUOUS
 62
     7
 10
-27.848528
 20
13.348529
 11
-26.151472
 21
11.651473
  0
LINE
  8
0
  6
CENTER
 62
     7
 10
-22.5
 20
17.5
 11
-22.5
 21
9.3374109
  0
LINE
  8
0
  6
CENTER
 62
     7
 10
22.5
 20
17.5
 11
22.5
 21
9.3374109
  0
LINE
  8
0
  6
CONTINUOUS
 62
     7
 10
-20.8391
 20
10.5
 11
-1.0307764
 21
10.5
  0
LINE
  8
0
  6
CONTINUOUS
 62
     7
 10
-21.932325
 20
4.3000002
 11
-20.839098
 21
10.5
  0
LINE
  8
0
  6
CONTINUOUS
 62
     7
 10
20.839098
 20
10.5
 11
21.932325
 21
4.3000002
  0
LINE
  8
0
  6
CONTINUOUS
 62
     7
 10
80
 20
0
 11
230
 21
0
  0
LINE
  8
0
  6
CONTINUOUS
 62
     7
 10
80
 20
3.8287182
 11
230
 21
3.8287182
  0
LINE
  8
0
  6
CONTINUOUS
 62
     7
 10
80
 20
5.4145632
 11
117.75
 21
5.4145632
  0
LINE
  8
0
  6
CONTINUOUS
 62
     7
 10
80
 20
8.5309935
 11
117.75
 21
8.5309935
  0
LINE
  8
0
  6
CONTINUOUS
 62
     7
 10
80
 20
9.5
 11
117.75
 21
9.5
  0
LINE
  8
0
  6
DASHED
 62
     7
 10
-15.5
 20
9.5
 11
-15.5
 21
5
  0
LINE
  8
0
  6
DASHED
 62
     7
 10
-13.75
 20
5
 11
-13.75
 21
0
  0
LINE
  8
0
  6
CENTER
 62
     7
 10
-11.5
 20
11
 11
-11.5
 21
-1.5
  0
LINE
  8
0
  6
DASHED
 62
     7
 10
-9.25
 20
5
 11
-9.25
 21
0
  0
LINE
  8
0
  6
DASHED
 62
     7
 10
-7.5
 20
9.5
 11
-7.5
 21
5
  0
LINE
  8
0
  6
CENTER
 62
     7
 10
215
 20
11
 11
215
 21
-1.5
  0
LINE
  8
0
  6
CONTINUOUS
 62
     7
 10
126.05
 20
16
 11
183.95
 21
16
  0
LINE
  8
0
  6
CONTINUOUS
 62
     7
 10
126.05
 20
4
 11
183.95
 21
4
  0
LINE
  8
0
  6
CONTINUOUS
 62
     7
 10
126.05
 20
16
 11
126.05
 21
4
  0
LINE
  8
0
  6
CONTINUOUS
 62
     7
 10
183.95
 20
16
 11
183.95
 21
4
  0
LINE
  8
0
  6
CONTINUOUS
 62
     7
 10
192.25
 20
5.4145632
 11
230
 21
5.4145632
  0
LINE
  8
0
  6
CONTINUOUS
 62
     7
 10
192.25
 20
8.5309935
 11
230
 21
8.5309935
  0
LINE
  8
0
  6
CONTINUOUS
 62
     7
 10
192.25
 20
9.5
 11
230
 21
9.5
  0
LINE
  8
0
  6
DASHED
 62
     7
 10
135.7
 20
10
 11
139.3
 21
10
  0
LINE
  8
0
  6
CENTER
 62
     7
 10
172.5
 20
17.404007
 11
172.5
 21
8.0901022
  0
LINE
  8
0
  6
DASHED
 62
     7
 10
139.5
 20
16
 11
139.5
 21
11.5
  0
LINE
  8
0
  6
DASHED
 62
     7
 10
135.5
 20
16
 11
135.5
 21
11.5
  0
LINE
  8
0
  6
DASHED
 62
     7
 10
139.3
 20
16
 11
139.3
 21
10
  0
LINE
  8
0
  6
DASHED
 62
     7
 10
135.7
 20
16
 11
135.7
 21
10
  0
LINE
  8
0
  6
DASHED
 62
     7
 10
135.5
 20
11.5
 11
139.5
 21
11.5
  0
LINE
  8
0
  6
CONTINUOUS
 62
     7
 10
126.05
 20
10.4
 11
183.95
 21
10.4
  0
LINE
  8
0
  6
DASHED
 62
     7
 10
139.3
 20
11.15359
 11
139.5
 21
11.499995
  0
LINE
  8
0
  6
DASHED
 62
     7
 10
137.5
 20
8.9607697
 11
139.3
 21
10
  0
LINE
  8
0
  6
DASHED
 62
     7
 10
137.5
 20
8.9607697
 11
135.7
 21
10
  0
LINE
  8
0
  6
DASHED
 62
     7
 10
135.7
 20
11.153591
 11
135.5
 21
11.500003
  0
LINE
  8
0
  6
CONTINUOUS
 62
     7
 10
119.75
 20
15.3
 11
119.75
 21
4.1999998
  0
LINE
  8
0
  6
CONTINUOUS
 62
     7
 10
118.75
 20
15.3
 11
118.75
 21
4.1999998
  0
LINE
  8
0
  6
CONTINUOUS
 62
     7
 10
117.75
 20
9.8000002
 11
117.75
 21
4.1999998
  0
LINE
  8
0
  6
CONTINUOUS
 62
     7
 10
118.75
 20
15.3
 11
126.05
 21
15.3
  0
LINE
  8
0
  6
CONTINUOUS
 62
     7
 10
117.75
 20
9.7999992
 11
118.75
 21
10.500205
  0
LINE
  8
0
  6
CONTINUOUS
 62
     7
 10
117.75
 20
4.1999998
 11
126.05
 21
4.1999998
  0
LINE
  8
0
  6
CONTINUOUS
 62
     7
 10
191.25
 20
15.3
 11
183.95
 21
15.3
  0
LINE
  8
0
  6
CONTINUOUS
 62
     7
 10
190.25
 20
15.3
 11
190.25
 21
4.1999998
  0
LINE
  8
0
  6
CONTINUOUS
 62
     7
 10
191.25
 20
15.3
 11
191.25
 21
4.1999998
  0
LINE
  8
0
  6
CONTINUOUS
 62
     7
 10
192.25
 20
9.7999992
 11
191.25
 21
10.50021
  0
LINE
  8
0
  6
CONTINUOUS
 62
     7
 10
192.25
 20
9.8000002
 11
192.25
 21
4.1999998
  0
LINE
  8
0
  6
CONTINUOUS
 62
     7
 10
192.25
 20
4.1999998
 11
183.95
 21
4.1999998
  0
LINE
  8
0
  6
CENTER
 62
     7
 10
77
 20
90
 11
233
 21
90
  0
LINE
  8
0
  6
CONTINUOUS
 62
     7
 10
80
 20
69
 11
117.75
 21
69
  0
LINE
  8
0
  6
CONTINUOUS
 62
     7
 10
80
 20
111
 11
117.75
 21
111
  0
LINE
  8
0
  6
CONTINUOUS
 62
     7
 10
80
 20
110
 11
117.75
 21
110
  0
LINE
  8
0
  6
CONTINUOUS
 62
     7
 10
80
 20
70
 11
117.75
 21
70
  0
LINE
  8
0
  6
CENTER
 62
     7
 10
215
 20
84
 11
215
 21
73
  0
LINE
  8
0
  6
CENTER
 62
     7
 10
209.5
 20
78.5
 11
220.5
 21
78.5
  0
LINE
  8
0
  6
CENTER
 62
     7
 10
215
 20
107
 11
215
 21
96
  0
LINE
  8
0
  6
CENTER
 62
     7
 10
209.5
 20
101.5
 11
220.5
 21
101.5
  0
LINE
  8
0
  6
CONTINUOUS
 62
     7
 10
126.05
 20
60
 11
183.95
 21
60
  0
LINE
  8
0
  6
CONTINUOUS
 62
     7
 10
126.05
 20
120
 11
183.95
 21
120
  0
LINE
  8
0
  6
CONTINUOUS
 62
     7
 10
126.05
 20
120
 11
126.05
 21
60
  0
LINE
  8
0
  6
CONTINUOUS
 62
     7
 10
183.95
 20
120
 11
183.95
 21
60
  0
LINE
  8
0
  6
CONTINUOUS
 62
     7
 10
192.25
 20
69
 11
230
 21
69
  0
LINE
  8
0
  6
CONTINUOUS
 62
     7
 10
192.25
 20
70
 11
230
 21
70
  0
LINE
  8
0
  6
CONTINUOUS
 62
     7
 10
192.25
 20
110
 11
230
 21
110
  0
LINE
  8
0
  6
CONTINUOUS
 62
     7
 10
192.25
 20
111
 11
230
 21
111
  0
LINE
  8
0
  6
CONTINUOUS
 62
     7
 10
126.05
 20
78
 11
183.95
 21
78
  0
LINE
  8
0
  6
CONTINUOUS
 62
     7
 10
126.05
 20
102
 11
183.95
 21
102
  0
LINE
  8
0
  6
CONTINUOUS
 62
     7
 10
119.75
 20
119.5
 11
119.75
 21
60.5
  0
LINE
  8
0
  6
CONTINUOUS
 62
     7
 10
118.75
 20
119.5
 11
118.75
 21
60.5
  0
LINE
  8
0
  6
CONTINUOUS
 62
     7
 10
117.75
 20
111.3
 11
117.75
 21
92.25
  0
LINE
  8
0
  6
CONTINUOUS
 62
     7
 10
118.75
 20
119.5
 11
126.05
 21
119.5
  0
LINE
  8
0
  6
CONTINUOUS
 62
     7
 10
118.75
 20
60.5
 11
126.05
 21
60.5
  0
LINE
  8
0
  6
CONTINUOUS
 62
     7
 10
117.74999
 20
111.3
 11
118.75
 21
112.00021
  0
LINE
  8
0
  6
CONTINUOUS
 62
     7
 10
117.75
 20
68.699997
 11
118.75
 21
67.999794
  0
LINE
  8
0
  6
CONTINUOUS
 62
     7
 10
191.25
 20
119.5
 11
183.95
 21
119.5
  0
LINE
  8
0
  6
CONTINUOUS
 62
     7
 10
190.25
 20
119.5
 11
190.25
 21
60.5
  0
LINE
  8
0
  6
CONTINUOUS
 62
     7
 10
191.25
 20
119.5
 11
191.25
 21
60.5
  0
LINE
  8
0
  6
CONTINUOUS
 62
     7
 10
192.25
 20
111.3
 11
191.25
 21
112.00021
  0
LINE
  8
0
  6
CONTINUOUS
 62
     7
 10
192.25
 20
111.3
 11
192.25
 21
68.699997
  0
LINE
  8
0
  6
CONTINUOUS
 62
     7
 10
192.25
 20
68.700005
 11
191.25
 21
67.999794
  0
LINE
  8
0
  6
CONTINUOUS
 62
     7
 10
191.25
 20
60.5
 11
183.95
 21
60.5
  0
LINE
  8
0
  6
CENTER
 62
     7
 10
137.5
 20
17.404007
 11
137.5
 21
8.0901022
  0
LINE
  8
0
  6
CONTINUOUS
 62
     7
 10
80
 20
111
 11
80
 21
69
  0
LINE
  8
0
  6
CENTER
 62
     7
 10
175
 20
84
 11
175
 21
73
  0
LINE
  8
0
  6
CENTER
 62
     7
 10
169.5
 20
78.5
 11
180.5
 21
78.5
  0
LINE
  8
0
  6
CENTER
 62
     7
 10
175
 20
107
 11
175
 21
96
  0
LINE
  8
0
  6
CENTER
 62
     7
 10
169.5
 20
101.5
 11
180.5
 21
101.5
  0
LINE
  8
0
  6
CONTINUOUS
 62
     7
 10
230
 20
111
 11
230
 21
69
  0
LINE
  8
0
  6
CENTER
 62
     7
 10
95
 20
107
 11
95
 21
96
  0
LINE
  8
0
  6
CENTER
 62
     7
 10
89.5
 20
101.5
 11
100.5
 21
101.5
  0
LINE
  8
0
  6
CENTER
 62
     7
 10
89.5
 20
78.5
 11
100.5
 21
78.5
  0
LINE
  8
0
  6
CENTER
 62
     7
 10
95
 20
84
 11
95
 21
73
  0
LINE
  8
0
  6
CENTER
 62
     7
 10
135
 20
107
 11
135
 21
96
  0
LINE
  8
0
  6
CENTER
 62
     7
 10
129.5
 20
101.5
 11
140.5
 21
101.5
  0
LINE
  8
0
  6
CENTER
 62
     7
 10
129.5
 20
78.5
 11
140.5
 21
78.5
  0
LINE
  8
0
  6
CENTER
 62
     7
 10
135
 20
84
 11
135
 21
73
  0
LINE
  8
0
  6
CONTINUOUS
 62
     7
 10
80
 20
9.5
 11
80
 21
0
  0
LINE
  8
0
  6
CONTINUOUS
 62
     7
 10
230
 20
9.5
 11
230
 21
0
  0
LINE
  8
0
  6
CENTER
 62
     7
 10
95
 20
11
 11
95
 21
-1.5
  0
LINE
  8
0
  6
CENTER
 62
     7
 10
135
 20
11
 11
135
 21
-1.5
  0
LINE
  8
0
  6
CENTER
 62
     7
 10
175
 20
11
 11
175
 21
-1.5
  0
LINE
  8
0
  6
CENTER
 62
     7
 10
140.25
 20
67.5
 11
134.75
 21
67.5
  0
LINE
  8
0
  6
CENTER
 62
     7
 10
137.5
 20
70.25
 11
137.5
 21
64.75
  0
LINE
  8
0
  6
CENTER
 62
     7
 10
175.25
 20
67.5
 11
169.75
 21
67.5
  0
LINE
  8
0
  6
CENTER
 62
     7
 10
172.5
 20
70.25
 11
172.5
 21
64.75
  0
LINE
  8
0
  6
CENTER
 62
     7
 10
140.25
 20
112.5
 11
134.75
 21
112.5
  0
LINE
  8
0
  6
CENTER
 62
     7
 10
137.5
 20
115.25
 11
137.5
 21
109.75
  0
LINE
  8
0
  6
CENTER
 62
     7
 10
175.25
 20
112.5
 11
169.75
 21
112.5
  0
LINE
  8
0
  6
CENTER
 62
     7
 10
172.5
 20
115.25
 11
172.5
 21
109.75
  0
LINE
  8
0
  6
CONTINUOUS
 62
     7
 10
117.64999
 20
14.75
 11
118.75
 21
14.75
  0
LINE
  8
0
  6
CONTINUOUS
 62
     7
 10
117.64999
 20
10.25
 11
118.39267
 21
10.25
  0
LINE
  8
0
  6
CONTINUOUS
 62
     7
 10
116.49999
 20
10.75
 11
117.64999
 21
10.75
  0
LINE
  8
0
  6
CONTINUOUS
 62
     7
 10
116.49999
 20
14.25
 11
117.64999
 21
14.25
  0
LINE
  8
0
  6
CONTINUOUS
 62
     7
 10
117.64999
 20
14.75
 11
117.64999
 21
10.25
  0
LINE
  8
0
  6
CONTINUOUS
 62
     7
 10
117.65
 20
92.25
 11
118.75
 21
92.25
  0
LINE
  8
0
  6
CONTINUOUS
 62
     7
 10
116.5
 20
88.25
 11
117.65
 21
88.25
  0
LINE
  8
0
  6
CONTINUOUS
 62
     7
 10
117.65
 20
87.75
 11
118.75
 21
87.75
  0
LINE
  8
0
  6
CONTINUOUS
 62
     7
 10
117.65
 20
92.25
 11
117.65
 21
87.75
  0
LINE
  8
0
  6
CONTINUOUS
 62
     7
 10
116.5
 20
91.75
 11
117.65
 21
91.75
  0
LINE
  8
0
  6
CONTINUOUS
 62
     7
 10
1.0307764
 20
10.5
 11
20.8391
 21
10.5
  0
LINE
  8
0
  6
CONTINUOUS
 62
     7
 10
117.75
 20
87.75
 11
117.75
 21
68.699997
  0
LINE
  8
0
  6
DASHED
 62
     7
 10
-15.5
 20
5
 11
-7.5
 21
5
  0
LINE
  8
0
  6
DASHED
 62
     7
 10
91
 20
5
 11
99
 21
5
  0
LINE
  8
0
  6
DASHED
 62
     7
 10
-24.5
 20
11.5
 11
-20.5
 21
11.5
  0
LINE
  8
0
  6
DASHED
 62
     7
 10
-24.300003
 20
16
 11
-24.300003
 21
10
  0
LINE
  8
0
  6
DASHED
 62
     7
 10
-20.5
 20
16
 11
-20.5
 21
11.5
  0
LINE
  8
0
  6
DASHED
 62
     7
 10
-24.5
 20
16
 11
-24.5
 21
11.5
  0
LINE
  8
0
  6
DASHED
 62
     7
 10
-20.699997
 20
16
 11
-20.699997
 21
10
  0
LINE
  8
0
  6
DASHED
 62
     7
 10
-24.300003
 20
10
 11
-20.699997
 21
10
  0
LINE
  8
0
  6
DASHED
 62
     7
 10
-22.500002
 20
8.9607697
 11
-24.300001
 21
10
  0
LINE
  8
0
  6
DASHED
 62
     7
 10
-24.299999
 20
11.153592
 11
-24.5
 21
11.500003
  0
LINE
  8
0
  6
DASHED
 62
     7
 10
-22.500002
 20
8.9607706
 11
-20.700003
 21
10.000001
  0
LINE
  8
0
  6
DASHED
 62
     7
 10
-20.699995
 20
11.15359
 11
-20.499998
 21
11.499995
  0
LINE
  8
0
  6
CENTER
 62
     7
 10
-3.25
 20
12.5
 11
3.25
 21
12.5
  0
LINE
  8
0
  6
CENTER
 62
     7
 10
113.07121
 20
12.5
 11
119.69227
 21
12.5
  0
ARC
  8
0
  6
CONTINUOUS
 62
     7
 10
-20.6
 20
7
 40
1.59
 50
265.6582
 51
74.341794
  0
ARC
  8
0
  6
CONTINUOUS
 62
     7
 10
20.6
 20
7
 40
1.59
 50
105.6582
 51
274.34179
  0
CIRCLE
  8
0
  6
CONTINUOUS
 62
     7
 10
-27
 20
12.5
 40
1.6
  0
CIRCLE
  8
0
  6
CONTINUOUS
 62
     7
 10
27
 20
12.5
 40
1.6
  0
CIRCLE
  8
0
  6
CONTINUOUS
 62
     7
 10
137.5
 20
67.5
 40
1.8
  0
CIRCLE
  8
0
  6
CONTINUOUS
 62
     7
 10
137.5
 20
67.5
 40
2
  0
CIRCLE
  8
0
  6
CONTINUOUS
 62
     7
 10
95
 20
78.5
 40
4
  0
CIRCLE
  8
0
  6
CONTINUOUS
 62
     7
 10
95
 20
78.5
 40
2.25
  0
CIRCLE
  8
0
  6
CONTINUOUS
 62
     7
 10
95
 20
101.5
 40
4
  0
CIRCLE
  8
0
  6
CONTINUOUS
 62
     7
 10
95
 20
101.5
 40
2.25
  0
CIRCLE
  8
0
  6
CONTINUOUS
 62
     7
 10
0
 20
12.5
 40
0.90149999
  0
CIRCLE
  8
0
  6
CONTINUOUS
 62
     7
 10
0
 20
12.5
 40
1.75
  0
CIRCLE
  8
0
  6
CONTINUOUS
 62
     7
 10
0
 20
12.5
 40
2.25
  0
ARC
  8
0
  6
CONTINUOUS
 62
     7
 10
116.49999
 20
12.5
 40
1.75
 50
90.000003
 51
270
  0
ARC
  8
0
  6
CONTINUOUS
 62
     7
 10
116.5
 20
90
 40
1.75
 50
90.000003
 51
270
  0
TEXT
  8
0
  6
CONTINUOUS
 62
     7
 10
-1.285875
 20
-16.8
 40
3.5999999
 41
0.84634979
  1
ＲＳＲ１５ＷＮ
  0
ENDSEC
  0
EOF
