  0
SECTION
  2
HEADER
  0
ENDSEC
  0
SECTION
  2
TABLES
  0
TABLE
  2
LTYPE
 70
    22
  0
LTYPE
  2
CONTINUOUS
 70
    64
  3
Solid line
 72
    65
 73
     0
 40
0.000000
  0
LTYPE
  2
DASHED
 70
    64
  3
__ __ __ __ __ __ __ __ __ __ __ __ __ __ __
 72
    65
 73
     2
 40
3.500000
 49
2.000000
 49
-1.500000
  0
LTYPE
  2
CENTER
 70
    64
  3
____ _ ____ _ ____ _ ____ _ ____ _ ____ _ ____
 72
    65
 73
     4
 40
17.500000
 49
13.000000
 49
-1.500000
 49
1.500000
 49
-1.500000
  0
LTYPE
  2
PHANTOM
 70
    64
  3
_____ _ _ _____ _ _ _____ _ _ _____ _ _ ____  
 72
    65
 73
     6
 40
15.500000
 49
8.000000
 49
-1.500000
 49
1.500000
 49
-1.500000
 49
1.500000
 49
-1.500000
  0
LTYPE
  2
DOT
 70
    64
  3
. . . . . . . . . . . . . . . . . . . . . . . .
 72
    65
 73
     2
 40
0.25
 49
0.0
 49
-0.25
  0
ENDTAB
  0
TABLE
  2
LAYER
 70
     1
  0
LAYER
  2
0
 70
     0
 62
     7
  6
CONTINUOUS
  0
ENDTAB
  0
TABLE
  2
STYLE
 70
     1
  0
STYLE
  2
STANDARD
 70
     0
 40
0.000000
 41
1.000000
 50
0.000000
 71
     0
 42
0.200000
  3
txt
  0
ENDTAB
  0
TABLE
  2
VIEW
 70
     0
  0
ENDTAB
  0
ENDSEC
  0
SECTION
  2
BLOCKS
  0
ENDSEC
  0
SECTION
  2
ENTITIES
  0
LINE
  8
0
  6
CENTER
 62
     7
 10
0
 20
18.22743225097656
 11
0
 21
-0.6988754272460938
  0
LINE
  8
0
  6
CONTINUOUS
 62
     7
 10
136.9318389892578
 20
15.99998474121094
 11
136.9318389892578
 21
10.19999694824219
  0
LINE
  8
0
  6
CONTINUOUS
 62
     7
 10
136.9318389892578
 20
15.99998474121094
 11
176.2318420410156
 21
15.99998474121094
  0
LINE
  8
0
  6
CONTINUOUS
 62
     7
 10
128.8318328857422
 20
3.999992370605469
 11
130.8318328857422
 21
3.999992370605469
  0
LINE
  8
0
  6
CONTINUOUS
 62
     7
 10
136.4318389892578
 20
10.86526489257813
 11
136.4318389892578
 21
6.194671630859375
  0
LINE
  8
0
  6
CONTINUOUS
 62
     7
 10
129.7318420410156
 20
15.19999694824219
 11
136.9318389892578
 21
15.19999694824219
  0
LINE
  8
0
  6
CENTER
 62
     7
 10
146.5818328857422
 20
17.10475158691406
 11
146.5818328857422
 21
9.0531005859375
  0
LINE
  8
0
  6
CONTINUOUS
 62
     7
 10
133.9318389892578
 20
10.86526489257813
 11
136.4318389892578
 21
10.86526489257813
  0
LINE
  8
0
  6
CONTINUOUS
 62
     7
 10
133.9318389892578
 20
6.194671630859375
 11
136.4318389892578
 21
6.194671630859375
  0
LINE
  8
0
  6
CONTINUOUS
 62
     7
 10
133.9318389892578
 20
15.19999694824219
 11
133.9318389892578
 21
10.86526489257813
  0
LINE
  8
0
  6
CONTINUOUS
 62
     7
 10
133.9318389892578
 20
6.194671630859375
 11
133.9318389892578
 21
5.399993896484375
  0
LINE
  8
0
  6
CONTINUOUS
 62
     7
 10
133.9318389892578
 20
14.69999694824219
 11
136.9318389892578
 21
14.69999694824219
  0
LINE
  8
0
  6
CONTINUOUS
 62
     7
 10
133.9318542480469
 20
15.19999313354492
 11
136.9318389892578
 21
15.7999906539917
  0
LINE
  8
0
  6
CONTINUOUS
 62
     7
 10
130.8318328857422
 20
13.74998474121094
 11
130.8318328857422
 21
11.24998474121094
  0
LINE
  8
0
  6
CONTINUOUS
 62
     7
 10
176.2318420410156
 20
15.99998474121094
 11
176.2318420410156
 21
10.19999694824219
  0
LINE
  8
0
  6
CONTINUOUS
 62
     7
 10
176.7318420410156
 20
10.86526489257813
 11
176.7318420410156
 21
6.194671630859375
  0
LINE
  8
0
  6
CONTINUOUS
 62
     7
 10
179.2318420410156
 20
15.19999694824219
 11
176.2318420410156
 21
15.19999694824219
  0
LINE
  8
0
  6
CONTINUOUS
 62
     7
 10
182.3318481445313
 20
13.74998474121094
 11
182.3318481445313
 21
11.24998474121094
  0
LINE
  8
0
  6
CENTER
 62
     7
 10
166.5818328857422
 20
17.10475158691406
 11
166.5818328857422
 21
9.0531005859375
  0
LINE
  8
0
  6
CONTINUOUS
 62
     7
 10
179.2318420410156
 20
6.194671630859375
 11
176.7318420410156
 21
6.194671630859375
  0
LINE
  8
0
  6
CONTINUOUS
 62
     7
 10
179.2318420410156
 20
15.19999694824219
 11
179.2318420410156
 21
10.91801452636719
  0
LINE
  8
0
  6
CONTINUOUS
 62
     7
 10
179.2318420410156
 20
14.69999694824219
 11
176.2318420410156
 21
14.69999694824219
  0
LINE
  8
0
  6
CONTINUOUS
 62
     7
 10
179.2318420410156
 20
15.2000036239624
 11
176.2318420410156
 21
15.8000020980835
  0
LINE
  8
0
  6
CENTER
 62
     7
 10
156.5818328857422
 20
3.915116786956787
 11
156.5818328857422
 21
-1.873207092285156
  0
LINE
  8
0
  6
CONTINUOUS
 62
     7
 10
-10.5
 20
15.20000743865967
 11
-9.800003051757813
 21
15.90000343322754
  0
LINE
  8
0
  6
CONTINUOUS
 62
     7
 10
-9.79998779296875
 20
15.89999389648438
 11
0
 21
15.89999389648438
  0
LINE
  8
0
  6
CONTINUOUS
 62
     7
 10
101.5818328857422
 20
0
 11
211.5818481445313
 21
0
  0
LINE
  8
0
  6
CONTINUOUS
 62
     7
 10
101.5818328857422
 20
9.499984741210938
 11
128.8318328857422
 21
9.499984741210938
  0
LINE
  8
0
  6
CONTINUOUS
 62
     7
 10
101.5818328857422
 20
9.499984741210938
 11
101.5818328857422
 21
0
  0
LINE
  8
0
  6
CENTER
 62
     7
 10
116.5818328857422
 20
10.64999389648438
 11
116.5818328857422
 21
-1.511634826660156
  0
LINE
  8
0
  6
CONTINUOUS
 62
     7
 10
211.5818481445313
 20
9.499984741210938
 11
211.5818481445313
 21
0
  0
LINE
  8
0
  6
CONTINUOUS
 62
     7
 10
128.8318328857422
 20
9.79998779296875
 11
128.8318328857422
 21
3.999992370605469
  0
LINE
  8
0
  6
CONTINUOUS
 62
     7
 10
184.3318481445313
 20
9.79998779296875
 11
184.3318481445313
 21
3.999992370605469
  0
LINE
  8
0
  6
CONTINUOUS
 62
     7
 10
184.3318481445313
 20
9.499984741210938
 11
211.5818481445313
 21
9.499984741210938
  0
LINE
  8
0
  6
CONTINUOUS
 62
     7
 10
130.8318328857422
 20
15.19999694824219
 11
130.8318328857422
 21
3.999992370605469
  0
LINE
  8
0
  6
CONTINUOUS
 62
     7
 10
129.7318420410156
 20
10.43000221252441
 11
128.8318328857422
 21
9.799995422363281
  0
LINE
  8
0
  6
CONTINUOUS
 62
     7
 10
183.4318389892578
 20
10.42999744415283
 11
184.3318328857422
 21
9.799999237060547
  0
LINE
  8
0
  6
CONTINUOUS
 62
     7
 10
30
 20
15.39999389648438
 11
30
 21
10.30000019073486
  0
LINE
  8
0
  6
CONTINUOUS
 62
     7
 10
12.30001831054688
 20
16
 11
29.4000244140625
 21
16
  0
LINE
  8
0
  6
CONTINUOUS
 62
     7
 10
21.00003051757813
 20
4
 11
29.4000244140625
 21
4
  0
LINE
  8
0
  6
CENTER
 62
     7
 10
-11.5
 20
10.65000915527344
 11
-11.5
 21
-1.511634826660156
  0
LINE
  8
0
  6
CONTINUOUS
 62
     7
 10
-20.99996948242188
 20
3.857078552246094
 11
-20.99996948242188
 21
0.5
  0
LINE
  8
0
  6
CONTINUOUS
 62
     7
 10
-20.49996948242188
 20
0
 11
-8
 21
0
  0
LINE
  8
0
  6
CONTINUOUS
 62
     7
 10
0
 20
9.5
 11
20.0050048828125
 21
9.5
  0
LINE
  8
0
  6
CONTINUOUS
 62
     7
 10
21.00003051757813
 20
3.857078552246094
 11
21.00003051757813
 21
0.5
  0
LINE
  8
0
  6
DASHED
 62
     7
 10
-15.5
 20
9.5
 11
-15.5
 21
5
  0
LINE
  8
0
  6
DASHED
 62
     7
 10
-15.5
 20
5
 11
-7.5
 21
5
  0
LINE
  8
0
  6
DASHED
 62
     7
 10
-13.75
 20
5
 11
-13.75
 21
0
  0
LINE
  8
0
  6
DASHED
 62
     7
 10
-9.25
 20
5
 11
-9.25
 21
0
  0
LINE
  8
0
  6
DASHED
 62
     7
 10
-7.5
 20
9.5
 11
-7.5
 21
5
  0
LINE
  8
0
  6
CONTINUOUS
 62
     7
 10
0
 20
0.5
 11
7.5
 21
0.5
  0
LINE
  8
0
  6
CONTINUOUS
 62
     7
 10
7.999998092651367
 20
6.406321062968345E-006
 11
7.500008583068848
 21
0.499996155500412
  0
LINE
  8
0
  6
CONTINUOUS
 62
     7
 10
8
 20
0
 11
20.50003051757813
 21
0
  0
LINE
  8
0
  6
CONTINUOUS
 62
     7
 10
-20.4999885559082
 20
6.933155873412034E-006
 11
-20.99997901916504
 21
0.499996691942215
  0
LINE
  8
0
  6
CONTINUOUS
 62
     7
 10
20.5000114440918
 20
8.956205419963226E-006
 11
21.0000114440918
 21
0.5000095367431641
  0
LINE
  8
0
  6
CONTINUOUS
 62
     7
 10
-20.99996757507324
 20
3.857062339782715
 11
-20.72527122497559
 21
5.414938449859619
  0
LINE
  8
0
  6
CONTINUOUS
 62
     7
 10
-20.17559432983398
 20
8.532314300537109
 11
-20.00496673583984
 21
9.499991416931152
  0
LINE
  8
0
  6
CONTINUOUS
 62
     7
 10
21.00000381469727
 20
3.857080936431885
 11
20.72531127929688
 21
5.414942264556885
  0
LINE
  8
0
  6
CONTINUOUS
 62
     7
 10
20.17563438415527
 20
8.532318115234375
 11
20.00500679016113
 21
9.499995231628418
  0
LINE
  8
0
  6
CONTINUOUS
 62
     7
 10
21.99023056030273
 20
3.999998807907105
 11
20.8441047668457
 21
10.50000667572022
  0
LINE
  8
0
  6
CENTER
 62
     7
 10
22.50003051757813
 20
16.93629455566406
 11
22.50003051757813
 21
9.138748168945313
  0
LINE
  8
0
  6
CONTINUOUS
 62
     7
 10
0
 20
10.5
 11
20.8441162109375
 21
10.5
  0
LINE
  8
0
  6
CONTINUOUS
 62
     7
 10
101.5818328857422
 20
8.532318115234375
 11
128.8318328857422
 21
8.532318115234375
  0
LINE
  8
0
  6
CONTINUOUS
 62
     7
 10
101.5818328857422
 20
5.414932250976563
 11
128.8318328857422
 21
5.414932250976563
  0
LINE
  8
0
  6
CONTINUOUS
 62
     7
 10
101.5818328857422
 20
3.857078552246094
 11
129.7318420410156
 21
3.857078552246094
  0
LINE
  8
0
  6
CONTINUOUS
 62
     7
 10
184.3318481445313
 20
8.532318115234375
 11
211.5818481445313
 21
8.532318115234375
  0
LINE
  8
0
  6
CONTINUOUS
 62
     7
 10
184.3318481445313
 20
5.414932250976563
 11
211.5818481445313
 21
5.414932250976563
  0
LINE
  8
0
  6
CENTER
 62
     7
 10
196.5818481445313
 20
10.64999389648438
 11
196.5818481445313
 21
-1.511634826660156
  0
LINE
  8
0
  6
CONTINUOUS
 62
     7
 10
0
 20
0.5
 11
-7.5
 21
0.5
  0
LINE
  8
0
  6
CONTINUOUS
 62
     7
 10
-7.99998664855957
 20
-4.383272425911855E-006
 11
-7.499986171722412
 21
0.499996155500412
  0
LINE
  8
0
  6
CONTINUOUS
 62
     7
 10
0
 20
9.5
 11
-20.00497436523438
 21
9.5
  0
LINE
  8
0
  6
DASHED
 62
     7
 10
7.5
 20
9.5
 11
7.5
 21
5
  0
LINE
  8
0
  6
DASHED
 62
     7
 10
15.50003051757813
 20
9.5
 11
15.50003051757813
 21
5
  0
LINE
  8
0
  6
CENTER
 62
     7
 10
11.50003051757813
 20
10.65000915527344
 11
11.50003051757813
 21
-1.511634826660156
  0
LINE
  8
0
  6
DASHED
 62
     7
 10
15.50003051757813
 20
5
 11
7.5
 21
5
  0
LINE
  8
0
  6
DASHED
 62
     7
 10
13.75003051757813
 20
5
 11
13.75003051757813
 21
0
  0
LINE
  8
0
  6
DASHED
 62
     7
 10
9.250030517578125
 20
5
 11
9.250030517578125
 21
0
  0
LINE
  8
0
  6
CONTINUOUS
 62
     7
 10
182.3318481445313
 20
15.19998168945313
 11
182.3318481445313
 21
3.999992370605469
  0
LINE
  8
0
  6
CONTINUOUS
 62
     7
 10
176.7318420410156
 20
10.91801452636719
 11
176.7318420410156
 21
6.194671630859375
  0
LINE
  8
0
  6
CONTINUOUS
 62
     7
 10
182.3318481445313
 20
3.999992370605469
 11
184.3318481445313
 21
3.999992370605469
  0
LINE
  8
0
  6
CONTINUOUS
 62
     7
 10
179.2318420410156
 20
6.194671630859375
 11
179.2318420410156
 21
5.399993896484375
  0
LINE
  8
0
  6
CONTINUOUS
 62
     7
 10
176.7318420410156
 20
10.91801452636719
 11
179.2318420410156
 21
10.91801452636719
  0
LINE
  8
0
  6
CONTINUOUS
 62
     7
 10
179.2318420410156
 20
15.19998168945313
 11
183.4318237304688
 21
15.19998168945313
  0
LINE
  8
0
  6
CONTINUOUS
 62
     7
 10
29.60000610351563
 20
14.5
 11
29.60000610351563
 21
4.199996948242188
  0
LINE
  8
0
  6
CONTINUOUS
 62
     7
 10
9.800018310546875
 20
15.89999389648438
 11
0
 21
15.89999389648438
  0
LINE
  8
0
  6
CONTINUOUS
 62
     7
 10
28.9000244140625
 20
15.19999694824219
 11
0.471710205078125
 21
15.19999694824219
  0
LINE
  8
0
  6
CONTINUOUS
 62
     7
 10
10.50003433227539
 20
15.1999979019165
 11
9.800026893615723
 21
15.90000438690186
  0
LINE
  8
0
  6
CONTINUOUS
 62
     7
 10
12.30001831054688
 20
16.00000190734863
 11
11.79291820526123
 21
15.49290275573731
  0
LINE
  8
0
  6
CONTINUOUS
 62
     7
 10
28.9000244140625
 20
15.19998550415039
 11
29.60000991821289
 21
14.5
  0
LINE
  8
0
  6
CONTINUOUS
 62
     7
 10
29.60000610351563
 20
9.999997138977051
 11
29.70001220703125
 21
9.999997138977051
  0
LINE
  8
0
  6
DASHED
 62
     7
 10
118.8318328857422
 20
5
 11
118.8318328857422
 21
0
  0
LINE
  8
0
  6
DASHED
 62
     7
 10
120.5818328857422
 20
5
 11
112.5818328857422
 21
5
  0
LINE
  8
0
  6
DASHED
 62
     7
 10
120.5818328857422
 20
9.499984741210938
 11
120.5818328857422
 21
5
  0
LINE
  8
0
  6
DASHED
 62
     7
 10
112.5818328857422
 20
9.499984741210938
 11
112.5818328857422
 21
5
  0
LINE
  8
0
  6
DASHED
 62
     7
 10
114.3318328857422
 20
5
 11
114.3318328857422
 21
0
  0
LINE
  8
0
  6
CONTINUOUS
 62
     7
 10
129.7318420410156
 20
15.24998474121094
 11
129.7318420410156
 21
3.3999924659729
  0
LINE
  8
0
  6
CONTINUOUS
 62
     7
 10
183.4318237304688
 20
15.19998168945313
 11
183.4318237304688
 21
3.3999924659729
  0
LINE
  8
0
  6
CONTINUOUS
 62
     7
 10
129.2318267822266
 20
69.72616577148438
 11
129.2318267822266
 21
65.22616577148438
  0
LINE
  8
0
  6
CONTINUOUS
 62
     7
 10
126.9818267822266
 20
69.22616577148438
 11
129.2318267822266
 21
69.22616577148438
  0
LINE
  8
0
  6
CONTINUOUS
 62
     7
 10
126.9818267822266
 20
65.72616577148438
 11
129.2318267822266
 21
65.72616577148438
  0
LINE
  8
0
  6
CONTINUOUS
 62
     7
 10
129.2318267822266
 20
69.72616577148438
 11
130.2318267822266
 21
69.72616577148438
  0
LINE
  8
0
  6
CONTINUOUS
 62
     7
 10
129.2318267822266
 20
65.22616577148438
 11
130.2318267822266
 21
65.22616577148438
  0
LINE
  8
0
  6
DASHED
 62
     7
 10
144.9318389892578
 20
10.49998950958252
 11
146.5818481445313
 21
9.547360420227051
  0
LINE
  8
0
  6
DASHED
 62
     7
 10
148.2318420410156
 20
10.89376640319824
 11
148.5818481445313
 21
11.49998760223389
  0
LINE
  8
0
  6
DASHED
 62
     7
 10
144.5818328857422
 20
11.49998474121094
 11
144.9318389892578
 21
10.89377021789551
  0
LINE
  8
0
  6
DASHED
 62
     7
 10
146.5818328857422
 20
9.547354698181152
 11
148.2318420410156
 21
10.49998378753662
  0
LINE
  8
0
  6
DASHED
 62
     7
 10
148.5818328857422
 20
15.99998474121094
 11
148.5818328857422
 21
11.49998474121094
  0
LINE
  8
0
  6
DASHED
 62
     7
 10
144.5818328857422
 20
15.99998474121094
 11
144.5818328857422
 21
11.49998474121094
  0
LINE
  8
0
  6
DASHED
 62
     7
 10
148.2318420410156
 20
15.99998474121094
 11
148.2318420410156
 21
10.49998474121094
  0
LINE
  8
0
  6
DASHED
 62
     7
 10
144.9318389892578
 20
15.99998474121094
 11
144.9318389892578
 21
10.49998474121094
  0
LINE
  8
0
  6
DASHED
 62
     7
 10
144.5818328857422
 20
11.49998474121094
 11
148.5818328857422
 21
11.49998474121094
  0
LINE
  8
0
  6
DASHED
 62
     7
 10
144.9318389892578
 20
10.49998474121094
 11
148.2318420410156
 21
10.49998474121094
  0
LINE
  8
0
  6
CONTINUOUS
 62
     7
 10
29.40001106262207
 20
16.00000190734863
 11
30.00002098083496
 21
15.39999294281006
  0
LINE
  8
0
  6
CONTINUOUS
 62
     7
 10
29.60002136230469
 20
4.200005531311035
 11
29.4000129699707
 21
3.999999046325684
  0
LINE
  8
0
  6
CONTINUOUS
 62
     7
 10
22.28010940551758
 20
3.526955366134644
 11
21.10355186462402
 21
3.211697340011597
  0
LINE
  8
0
  6
CONTINUOUS
 62
     7
 10
22.5000057220459
 20
3.400005340576172
 11
22.28009033203125
 21
3.526973724365234
  0
LINE
  8
0
  6
CONTINUOUS
 62
     7
 10
22.5
 20
4
 11
22.5
 21
3.400001525878906
  0
LINE
  8
0
  6
CONTINUOUS
 62
     7
 10
22.50000953674316
 20
3.99999737739563
 11
21.00002098083496
 21
3.598076581954956
  0
LINE
  8
0
  6
CONTINUOUS
 62
     7
 10
21.00002098083496
 20
3.598076581954956
 11
21.10355186462402
 21
3.211697340011597
  0
LINE
  8
0
  6
CONTINUOUS
 62
     7
 10
22.5
 20
3.400001525878906
 11
26.39999389648438
 21
3.400001525878906
  0
LINE
  8
0
  6
CONTINUOUS
 62
     7
 10
130.2318420410156
 20
15.19999694824219
 11
130.2318420410156
 21
3.999992370605469
  0
LINE
  8
0
  6
CONTINUOUS
 62
     7
 10
128.8318328857422
 20
5.899993896484375
 11
129.7318420410156
 21
5.899993896484375
  0
LINE
  8
0
  6
CONTINUOUS
 62
     7
 10
183.4318237304688
 20
3.857078552246094
 11
211.5818481445313
 21
3.857078552246094
  0
LINE
  8
0
  6
CONTINUOUS
 62
     7
 10
182.9318389892578
 20
15.19998168945313
 11
182.9318389892578
 21
3.999992370605469
  0
LINE
  8
0
  6
CONTINUOUS
 62
     7
 10
130.8318328857422
 20
5.399993896484375
 11
182.3318481445313
 21
5.399993896484375
  0
LINE
  8
0
  6
CONTINUOUS
 62
     7
 10
130.8318328857422
 20
4.699996948242188
 11
182.3318481445313
 21
4.699996948242188
  0
LINE
  8
0
  6
CONTINUOUS
 62
     7
 10
101.5818328857422
 20
46.47529602050781
 11
128.8318328857422
 21
46.47529602050781
  0
LINE
  8
0
  6
CONTINUOUS
 62
     7
 10
101.5818328857422
 20
88.47529602050781
 11
128.8318328857422
 21
88.47529602050781
  0
LINE
  8
0
  6
CENTER
 62
     7
 10
90.881103515625
 20
67.47529602050781
 11
220.6539916992188
 21
67.47529602050781
  0
LINE
  8
0
  6
CONTINUOUS
 62
     7
 10
101.5818328857422
 20
88.47529602050781
 11
101.5818328857422
 21
46.47529602050781
  0
LINE
  8
0
  6
CONTINUOUS
 62
     7
 10
211.5818481445313
 20
88.47529602050781
 11
211.5818481445313
 21
46.47529602050781
  0
LINE
  8
0
  6
CONTINUOUS
 62
     7
 10
136.9318389892578
 20
97.47529602050781
 11
136.9318389892578
 21
77.97529602050781
  0
LINE
  8
0
  6
CONTINUOUS
 62
     7
 10
176.2318420410156
 20
97.47529602050781
 11
176.2318420410156
 21
77.97529602050781
  0
LINE
  8
0
  6
CONTINUOUS
 62
     7
 10
136.9318389892578
 20
97.47529602050781
 11
176.2318420410156
 21
97.47529602050781
  0
LINE
  8
0
  6
CONTINUOUS
 62
     7
 10
136.9318389892578
 20
37.47529602050781
 11
176.2318420410156
 21
37.47529602050781
  0
LINE
  8
0
  6
CENTER
 62
     7
 10
121.5818328857422
 20
78.97529602050781
 11
111.5818328857422
 21
78.97529602050781
  0
LINE
  8
0
  6
CENTER
 62
     7
 10
116.5818328857422
 20
83.97529602050781
 11
116.5818328857422
 21
73.97529602050781
  0
LINE
  8
0
  6
CENTER
 62
     7
 10
201.5818481445313
 20
78.97529602050781
 11
191.5818481445313
 21
78.97529602050781
  0
LINE
  8
0
  6
CENTER
 62
     7
 10
196.5818481445313
 20
83.97529602050781
 11
196.5818481445313
 21
73.97529602050781
  0
LINE
  8
0
  6
CENTER
 62
     7
 10
116.5818328857422
 20
60.97529602050781
 11
116.5818328857422
 21
50.97529602050781
  0
LINE
  8
0
  6
CENTER
 62
     7
 10
111.5818328857422
 20
55.97529602050781
 11
121.5818328857422
 21
55.97529602050781
  0
LINE
  8
0
  6
CENTER
 62
     7
 10
196.5818481445313
 20
60.97529602050781
 11
196.5818481445313
 21
50.97529602050781
  0
LINE
  8
0
  6
CENTER
 62
     7
 10
191.5818481445313
 20
55.97529602050781
 11
201.5818481445313
 21
55.97529602050781
  0
LINE
  8
0
  6
CENTER
 62
     7
 10
156.5818328857422
 20
60.97529602050781
 11
156.5818328857422
 21
50.97529602050781
  0
LINE
  8
0
  6
CENTER
 62
     7
 10
151.5818328857422
 20
55.97529602050781
 11
161.5818328857422
 21
55.97529602050781
  0
LINE
  8
0
  6
CENTER
 62
     7
 10
156.5818328857422
 20
83.97529602050781
 11
156.5818328857422
 21
73.97529602050781
  0
LINE
  8
0
  6
CENTER
 62
     7
 10
151.5818328857422
 20
78.97529602050781
 11
161.5818328857422
 21
78.97529602050781
  0
LINE
  8
0
  6
CENTER
 62
     7
 10
149.3318328857422
 20
44.97529602050781
 11
143.8318328857422
 21
44.97529602050781
  0
LINE
  8
0
  6
CENTER
 62
     7
 10
146.5818328857422
 20
47.72529602050781
 11
146.5818328857422
 21
42.22529602050781
  0
LINE
  8
0
  6
CENTER
 62
     7
 10
169.3318328857422
 20
44.97529602050781
 11
163.8318328857422
 21
44.97529602050781
  0
LINE
  8
0
  6
CENTER
 62
     7
 10
166.5818328857422
 20
47.72529602050781
 11
166.5818328857422
 21
42.22529602050781
  0
LINE
  8
0
  6
CENTER
 62
     7
 10
169.3318328857422
 20
89.97529602050781
 11
163.8318328857422
 21
89.97529602050781
  0
LINE
  8
0
  6
CENTER
 62
     7
 10
166.5818328857422
 20
92.72529602050781
 11
166.5818328857422
 21
87.22529602050781
  0
LINE
  8
0
  6
CENTER
 62
     7
 10
149.3318328857422
 20
89.97529602050781
 11
143.8318328857422
 21
89.97529602050781
  0
LINE
  8
0
  6
CENTER
 62
     7
 10
146.5818328857422
 20
92.72529602050781
 11
146.5818328857422
 21
87.22529602050781
  0
LINE
  8
0
  6
CONTINUOUS
 62
     7
 10
133.9318389892578
 20
97.07528686523438
 11
133.9318389892578
 21
37.87528991699219
  0
LINE
  8
0
  6
CONTINUOUS
 62
     7
 10
130.8318328857422
 20
97.07528686523438
 11
130.8318328857422
 21
37.87528991699219
  0
LINE
  8
0
  6
CONTINUOUS
 62
     7
 10
130.8318328857422
 20
97.07528686523438
 11
136.9318389892578
 21
97.07528686523438
  0
LINE
  8
0
  6
CONTINUOUS
 62
     7
 10
130.8318328857422
 20
37.87528991699219
 11
136.9318389892578
 21
37.87528991699219
  0
LINE
  8
0
  6
CONTINUOUS
 62
     7
 10
130.2318267822266
 20
96.87528991699219
 11
130.2318267822266
 21
38.07528686523438
  0
LINE
  8
0
  6
CONTINUOUS
 62
     7
 10
129.7318267822266
 20
96.87528991699219
 11
129.7318267822266
 21
69.97529602050781
  0
LINE
  8
0
  6
CONTINUOUS
 62
     7
 10
128.8318328857422
 20
89.46529388427734
 11
128.8318328857422
 21
69.22616577148438
  0
LINE
  8
0
  6
CONTINUOUS
 62
     7
 10
129.7318267822266
 20
96.87528991699219
 11
130.8318328857422
 21
96.87528991699219
  0
LINE
  8
0
  6
CONTINUOUS
 62
     7
 10
129.7318267822266
 20
38.07528686523438
 11
130.8318328857422
 21
38.07528686523438
  0
LINE
  8
0
  6
CONTINUOUS
 62
     7
 10
129.7318267822266
 20
69.97529602050781
 11
130.2318267822266
 21
69.97529602050781
  0
LINE
  8
0
  6
CONTINUOUS
 62
     7
 10
129.7318267822266
 20
64.97529602050781
 11
130.2318267822266
 21
64.97529602050781
  0
LINE
  8
0
  6
CONTINUOUS
 62
     7
 10
179.2318420410156
 20
97.07528686523438
 11
179.2318420410156
 21
37.87528991699219
  0
LINE
  8
0
  6
CONTINUOUS
 62
     7
 10
129.7318267822266
 20
64.97529602050781
 11
129.7318267822266
 21
38.07528686523438
  0
LINE
  8
0
  6
CONTINUOUS
 62
     7
 10
133.9318389892578
 20
56.97529602050781
 11
179.2318420410156
 21
56.97529602050781
  0
LINE
  8
0
  6
CONTINUOUS
 62
     7
 10
133.9318389892578
 20
77.97529602050781
 11
179.2318420410156
 21
77.97529602050781
  0
LINE
  8
0
  6
CONTINUOUS
 62
     7
 10
136.9318389892578
 20
55.97529602050781
 11
176.2318420410156
 21
55.97529602050781
  0
LINE
  8
0
  6
CONTINUOUS
 62
     7
 10
136.9318389892578
 20
78.97529602050781
 11
176.2318420410156
 21
78.97529602050781
  0
LINE
  8
0
  6
CONTINUOUS
 62
     7
 10
136.9318389892578
 20
56.97529602050781
 11
136.9318389892578
 21
37.47529602050781
  0
LINE
  8
0
  6
CONTINUOUS
 62
     7
 10
176.2318420410156
 20
56.97529602050781
 11
176.2318420410156
 21
37.47529602050781
  0
LINE
  8
0
  6
CONTINUOUS
 62
     7
 10
126.9818420410156
 20
11.24998474121094
 11
128.7318420410156
 21
11.24998474121094
  0
LINE
  8
0
  6
CONTINUOUS
 62
     7
 10
126.9818420410156
 20
14.74998474121094
 11
128.7318420410156
 21
14.74998474121094
  0
LINE
  8
0
  6
CONTINUOUS
 62
     7
 10
128.7318420410156
 20
15.24998474121094
 11
128.7318420410156
 21
10.74998474121094
  0
LINE
  8
0
  6
CONTINUOUS
 62
     7
 10
128.7318420410156
 20
15.24998474121094
 11
129.7318420410156
 21
15.24998474121094
  0
LINE
  8
0
  6
CONTINUOUS
 62
     7
 10
128.7318420410156
 20
10.74998474121094
 11
129.646484375
 21
10.74998474121094
  0
LINE
  8
0
  6
CONTINUOUS
 62
     7
 10
182.3318481445313
 20
97.07528686523438
 11
182.3318481445313
 21
37.87528991699219
  0
LINE
  8
0
  6
CONTINUOUS
 62
     7
 10
182.3318481445313
 20
37.87528991699219
 11
176.2318420410156
 21
37.87528991699219
  0
LINE
  8
0
  6
CONTINUOUS
 62
     7
 10
182.9318389892578
 20
96.87528991699219
 11
182.9318389892578
 21
38.07528686523438
  0
LINE
  8
0
  6
CONTINUOUS
 62
     7
 10
183.4318389892578
 20
96.87528991699219
 11
183.4318389892578
 21
69.97529602050781
  0
LINE
  8
0
  6
CONTINUOUS
 62
     7
 10
184.3318481445313
 20
89.46529388427734
 11
184.3318481445313
 21
45.48529434204102
  0
LINE
  8
0
  6
CONTINUOUS
 62
     7
 10
183.4318389892578
 20
38.07528686523438
 11
182.3318481445313
 21
38.07528686523438
  0
LINE
  8
0
  6
CONTINUOUS
 62
     7
 10
183.4318389892578
 20
69.97529602050781
 11
182.9318389892578
 21
69.97529602050781
  0
LINE
  8
0
  6
CONTINUOUS
 62
     7
 10
183.4318389892578
 20
64.97529602050781
 11
182.9318389892578
 21
64.97529602050781
  0
LINE
  8
0
  6
CONTINUOUS
 62
     7
 10
183.4318389892578
 20
64.97529602050781
 11
183.4318389892578
 21
38.07528686523438
  0
LINE
  8
0
  6
CONTINUOUS
 62
     7
 10
183.4318389892578
 20
96.87528991699219
 11
182.3318481445313
 21
96.87528991699219
  0
LINE
  8
0
  6
CONTINUOUS
 62
     7
 10
182.3318481445313
 20
97.07528686523438
 11
176.2318420410156
 21
97.07528686523438
  0
LINE
  8
0
  6
CENTER
 62
     7
 10
156.5818328857422
 20
60.97529602050781
 11
156.5818328857422
 21
50.97529602050781
  0
LINE
  8
0
  6
CONTINUOUS
 62
     7
 10
-30
 20
15.39999389648438
 11
-30
 21
10.30000019073486
  0
LINE
  8
0
  6
CONTINUOUS
 62
     7
 10
-12.29998779296875
 20
16
 11
-29.39999389648438
 21
16
  0
LINE
  8
0
  6
CONTINUOUS
 62
     7
 10
-21
 20
4
 11
-29.39999389648438
 21
4
  0
LINE
  8
0
  6
CONTINUOUS
 62
     7
 10
-21.99018859863281
 20
4.000002861022949
 11
-20.84406471252441
 21
10.50000095367432
  0
LINE
  8
0
  6
CENTER
 62
     7
 10
-22.5
 20
16.93629455566406
 11
-22.5
 21
9.138748168945313
  0
LINE
  8
0
  6
CONTINUOUS
 62
     7
 10
0
 20
10.5
 11
-20.84408569335938
 21
10.5
  0
LINE
  8
0
  6
CONTINUOUS
 62
     7
 10
-29.60000610351563
 20
14.5
 11
-29.60000610351563
 21
4.199996948242188
  0
LINE
  8
0
  6
CONTINUOUS
 62
     7
 10
-28.89999389648438
 20
15.19999694824219
 11
-0.4716796875
 21
15.19999694824219
  0
LINE
  8
0
  6
CONTINUOUS
 62
     7
 10
-28.89998054504395
 20
15.19998645782471
 11
-29.5999755859375
 21
14.49999046325684
  0
LINE
  8
0
  6
CONTINUOUS
 62
     7
 10
-29.60000610351563
 20
9.999997138977051
 11
-29.70001220703125
 21
9.999997138977051
  0
LINE
  8
0
  6
CONTINUOUS
 62
     7
 10
-29.39999008178711
 20
16.00000190734863
 11
-29.9999885559082
 21
15.40000438690186
  0
LINE
  8
0
  6
CONTINUOUS
 62
     7
 10
-29.59999847412109
 20
4.20000696182251
 11
-29.39998054504395
 21
3.99998950958252
  0
LINE
  8
0
  6
CONTINUOUS
 62
     7
 10
-22.28006553649902
 20
3.526954650878906
 11
-21.1035213470459
 21
3.211700677871704
  0
LINE
  8
0
  6
CONTINUOUS
 62
     7
 10
-22.49999237060547
 20
3.400001049041748
 11
-22.28007698059082
 21
3.526969432830811
  0
LINE
  8
0
  6
CONTINUOUS
 62
     7
 10
-22.5
 20
4
 11
-22.5
 21
3.400001525878906
  0
LINE
  8
0
  6
CONTINUOUS
 62
     7
 10
-22.4999942779541
 20
4.000000953674316
 11
-20.99999237060547
 21
3.598076105117798
  0
LINE
  8
0
  6
CONTINUOUS
 62
     7
 10
-20.99999237060547
 20
3.598076105117798
 11
-21.1035213470459
 21
3.211700677871704
  0
LINE
  8
0
  6
CONTINUOUS
 62
     7
 10
-22.5
 20
3.400001525878906
 11
-26.39999389648438
 21
3.400001525878906
  0
LINE
  8
0
  6
CONTINUOUS
 62
     7
 10
-12.29999542236328
 20
16.00000190734863
 11
-11.79288482666016
 21
15.49289131164551
  0
LINE
  8
0
  6
CONTINUOUS
 62
     7
 10
101.5818328857422
 20
87.48028564453125
 11
128.8318328857422
 21
87.48028564453125
  0
LINE
  8
0
  6
CONTINUOUS
 62
     7
 10
101.5818328857422
 20
47.47029113769531
 11
128.8318328857422
 21
47.47029113769531
  0
LINE
  8
0
  6
CENTER
 62
     7
 10
156.5818328857422
 20
83.97529602050781
 11
156.5818328857422
 21
73.97529602050781
  0
LINE
  8
0
  6
CONTINUOUS
 62
     7
 10
128.8318328857422
 20
65.72616577148438
 11
128.8318328857422
 21
45.48529434204102
  0
LINE
  8
0
  6
CONTINUOUS
 62
     7
 10
184.3318481445313
 20
88.47529602050781
 11
211.5818481445313
 21
88.47529602050781
  0
LINE
  8
0
  6
CONTINUOUS
 62
     7
 10
184.3318481445313
 20
87.48028564453125
 11
211.5818481445313
 21
87.48028564453125
  0
LINE
  8
0
  6
CONTINUOUS
 62
     7
 10
184.3318481445313
 20
47.47029113769531
 11
211.5818481445313
 21
47.47029113769531
  0
LINE
  8
0
  6
CONTINUOUS
 62
     7
 10
184.3318481445313
 20
46.47529602050781
 11
211.5818481445313
 21
46.47529602050781
  0
LINE
  8
0
  6
CONTINUOUS
 62
     7
 10
128.8318328857422
 20
88.31929779052734
 11
129.7318267822266
 21
88.31929779052734
  0
LINE
  8
0
  6
CONTINUOUS
 62
     7
 10
128.8318328857422
 20
46.63129425048828
 11
129.7318267822266
 21
46.63129425048828
  0
LINE
  8
0
  6
CONTINUOUS
 62
     7
 10
128.8318328857422
 20
89.46529388427734
 11
129.7318267822266
 21
89.46529388427734
  0
LINE
  8
0
  6
CONTINUOUS
 62
     7
 10
128.8318328857422
 20
45.48529434204102
 11
129.7318267822266
 21
45.48529434204102
  0
LINE
  8
0
  6
CENTER
 62
     7
 10
156.5818328857422
 20
60.97529602050781
 11
156.5818328857422
 21
50.97529602050781
  0
LINE
  8
0
  6
CONTINUOUS
 62
     7
 10
184.3318328857422
 20
88.31929779052734
 11
183.4318389892578
 21
88.31929779052734
  0
LINE
  8
0
  6
CONTINUOUS
 62
     7
 10
184.3318328857422
 20
89.46529388427734
 11
183.4318389892578
 21
89.46529388427734
  0
LINE
  8
0
  6
CONTINUOUS
 62
     7
 10
184.3318328857422
 20
45.48529434204102
 11
183.4318389892578
 21
45.48529434204102
  0
LINE
  8
0
  6
CONTINUOUS
 62
     7
 10
184.3318328857422
 20
46.63129425048828
 11
183.4318389892578
 21
46.63129425048828
  0
LINE
  8
0
  6
CONTINUOUS
 62
     7
 10
-27.70710563659668
 20
11.792893409729
 11
-26.29289245605469
 21
13.207106590271
  0
LINE
  8
0
  6
CONTINUOUS
 62
     7
 10
-27.70710563659668
 20
13.207106590271
 11
-26.29289245605469
 21
11.792893409729
  0
LINE
  8
0
  6
CONTINUOUS
 62
     7
 10
129.7318420410156
 20
3.3999924659729
 11
183.4318237304688
 21
3.3999924659729
  0
LINE
  8
0
  6
CONTINUOUS
 62
     7
 10
29.60000610351563
 20
14.25
 11
27
 21
14.25
  0
LINE
  8
0
  6
CONTINUOUS
 62
     7
 10
29.60000610351563
 20
10.75
 11
27
 21
10.75
  0
LINE
  8
0
  6
CONTINUOUS
 62
     7
 10
-29.60000610351563
 20
14.25
 11
-27
 21
14.25
  0
LINE
  8
0
  6
CONTINUOUS
 62
     7
 10
-29.60000610351563
 20
10.75
 11
-27
 21
10.75
  0
LINE
  8
0
  6
CONTINUOUS
 62
     7
 10
136.4318389892578
 20
9.799997329711914
 11
176.7318420410156
 21
9.799997329711914
  0
LINE
  8
0
  6
CONTINUOUS
 62
     7
 10
136.4318389892578
 20
10.29999732971191
 11
176.7318420410156
 21
10.29999732971191
  0
LINE
  8
0
  6
DASHED
 62
     7
 10
-24.14998817443848
 20
10.50000476837158
 11
-22.49998474121094
 21
9.547375679016113
  0
LINE
  8
0
  6
DASHED
 62
     7
 10
-20.8499870300293
 20
10.89378070831299
 11
-20.49998474121094
 21
11.50000286102295
  0
LINE
  8
0
  6
DASHED
 62
     7
 10
-24.5
 20
11.50000095367432
 11
-24.15000152587891
 21
10.89378643035889
  0
LINE
  8
0
  6
DASHED
 62
     7
 10
-22.49999809265137
 20
9.547370910644531
 11
-20.84999656677246
 21
10.5
  0
LINE
  8
0
  6
DASHED
 62
     7
 10
-20.5
 20
16
 11
-20.5
 21
11.5
  0
LINE
  8
0
  6
DASHED
 62
     7
 10
-24.5
 20
16
 11
-24.5
 21
11.5
  0
LINE
  8
0
  6
DASHED
 62
     7
 10
-20.84999084472656
 20
16
 11
-20.84999084472656
 21
10.5
  0
LINE
  8
0
  6
DASHED
 62
     7
 10
-24.14999389648438
 20
16
 11
-24.14999389648438
 21
10.5
  0
LINE
  8
0
  6
DASHED
 62
     7
 10
-24.5
 20
11.5
 11
-20.5
 21
11.5
  0
LINE
  8
0
  6
DASHED
 62
     7
 10
-24.14999389648438
 20
10.5
 11
-20.84999084472656
 21
10.5
  0
LINE
  8
0
  6
CENTER
 62
     7
 10
-3.25
 20
13
 11
3.25
 21
13
  0
LINE
  8
0
  6
CENTER
 62
     7
 10
123.6533126831055
 20
12.99998474121094
 11
131.075439453125
 21
12.99998474121094
  0
ARC
  8
0
  6
CONTINUOUS
 62
     7
 10
-20.44512939453125
 20
5.276153564453125
 40
0.3000000119209301
 50
165.4301869809437
 51
169.9999660262757
  0
ARC
  8
0
  6
CONTINUOUS
 62
     7
 10
-19.86865234375
 20
8.545562744140625
 40
0.3000000119209292
 50
169.9999660262756
 51
174.5697997131213
  0
CIRCLE
  8
0
  6
CONTINUOUS
 62
     7
 10
27
 20
12.5
 40
1.59999942779541
  0
ARC
  8
0
  6
CONTINUOUS
 62
     7
 10
-20.5999755859375
 20
7
 40
1.589999198913574
 50
265.479962717915
 51
74.52004127899375
  0
ARC
  8
0
  6
CONTINUOUS
 62
     7
 10
20.60000610351563
 20
7
 40
1.589999198913574
 50
105.4799227488276
 51
274.5200559514197
  0
ARC
  8
0
  6
CONTINUOUS
 62
     7
 10
11.0858154296875
 20
16.19999694824219
 40
0.9999999999999992
 50
270.000004325711
 51
314.9999987477609
  0
ARC
  8
0
  6
CONTINUOUS
 62
     7
 10
0
 20
13
 40
1.5
 50
269.9999974955218
 51
90.00000250447815
  0
ARC
  8
0
  6
CONTINUOUS
 62
     7
 10
29.70001220703125
 20
10.30000019073486
 40
0.2999999821186068
 50
269.9999974955215
 51
8.651422046196813E-006
  0
ARC
  8
0
  6
CONTINUOUS
 62
     7
 10
181.7318420410156
 20
12.49998474121094
 40
2.499999999999998
 50
312.8436431399907
 51
47.15635686000929
  0
ARC
  8
0
  6
CONTINUOUS
 62
     7
 10
126.9818267822266
 20
67.47616577148438
 40
1.750000000000002
 50
90.00000250447801
 51
270.0000006832453
  0
ARC
  8
0
  6
CONTINUOUS
 62
     7
 10
0
 20
13
 40
2.25
 50
269.9999974955218
 51
90.00000250447815
  0
ARC
  8
0
  6
CONTINUOUS
 62
     7
 10
26.39999389648438
 20
4
 40
0.5999999642372129
 50
270.0000111559002
 51
4.325710683839194E-006
  0
CIRCLE
  8
0
  6
CONTINUOUS
 62
     7
 10
116.5818328857422
 20
55.97529602050781
 40
4
  0
CIRCLE
  8
0
  6
CONTINUOUS
 62
     7
 10
116.5818328857422
 20
55.97529602050781
 40
2.25
  0
CIRCLE
  8
0
  6
CONTINUOUS
 62
     7
 10
116.5818328857422
 20
78.97529602050781
 40
4
  0
CIRCLE
  8
0
  6
CONTINUOUS
 62
     7
 10
116.5818328857422
 20
78.97529602050781
 40
2.25
  0
CIRCLE
  8
0
  6
CONTINUOUS
 62
     7
 10
146.5818328857422
 20
44.97529602050781
 40
2
  0
CIRCLE
  8
0
  6
CONTINUOUS
 62
     7
 10
146.5818328857422
 20
44.97529602050781
 40
1.649999976158142
  0
ARC
  8
0
  6
CONTINUOUS
 62
     7
 10
126.9818420410156
 20
12.99998474121094
 40
1.75
 50
90.00000250447801
 51
270.0000006832453
  0
ARC
  8
0
  6
CONTINUOUS
 62
     7
 10
131.4318389892578
 20
12.49998474121094
 40
2.499999999999993
 50
132.8436413187578
 51
227.1563550387764
  0
ARC
  8
0
  6
CONTINUOUS
 62
     7
 10
131.4318237304688
 20
94.47499084472656
 40
2.499999999999988
 50
132.8436413187579
 51
227.1563550387762
  0
ARC
  8
0
  6
CONTINUOUS
 62
     7
 10
131.4318237304688
 20
40.4755859375
 40
2.499999999999993
 50
132.8436413187578
 51
227.1563550387764
  0
ARC
  8
0
  6
CONTINUOUS
 62
     7
 10
181.7318420410156
 20
94.47499084472656
 40
2.499999999999997
 50
312.8436465550853
 51
47.15636027510386
  0
ARC
  8
0
  6
CONTINUOUS
 62
     7
 10
181.7318420410156
 20
40.4755859375
 40
2.5
 50
312.8436397248962
 51
47.15635344491471
  0
ARC
  8
0
  6
CONTINUOUS
 62
     7
 10
-26.39999389648438
 20
4
 40
0.5999999642372128
 50
179.999991348578
 51
270.0000006832453
  0
ARC
  8
0
  6
CONTINUOUS
 62
     7
 10
-29.70001220703125
 20
10.30000019073486
 40
0.2999999821186064
 50
179.999991348578
 51
270.0000006832456
  0
CIRCLE
  8
0
  6
CONTINUOUS
 62
     7
 10
-27
 20
12.5
 40
1.59999942779541
  0
ARC
  8
0
  6
CONTINUOUS
 62
     7
 10
0
 20
13
 40
1.500000000000001
 50
89.999995674289
 51
270.0000006832453
  0
ARC
  8
0
  6
CONTINUOUS
 62
     7
 10
0
 20
13
 40
2.249999999999999
 50
89.999995674289
 51
270.0000006832453
  0
ARC
  8
0
  6
CONTINUOUS
 62
     7
 10
-11.08578491210938
 20
16.19999694824219
 40
1
 50
224.9999996583774
 51
269.9999974955218
  0
ARC
  8
0
  6
CONTINUOUS
 62
     7
 10
27
 20
12.5
 40
1.75
 50
90.00000250447812
 51
270.0000006832453
  0
ARC
  8
0
  6
CONTINUOUS
 62
     7
 10
-27
 20
12.5
 40
1.75
 50
269.9999974955219
 51
89.99999567428895
  0
TEXT
  8
0
  6
CONTINUOUS
 62
     7
 10
-1.14300000667572
 20
-21.60000002384186
 40
3.200000047683716
 41
1.006222825242692
  1
RSR15WZM
  0
ENDSEC
  0
EOF
