  0
SECTION
  2
HEADER
  0
ENDSEC
  0
SECTION
  2
TABLES
  0
TABLE
  2
LTYPE
 70
    22
  0
LTYPE
  2
CONTINUOUS
 70
    64
  3
Solid line
 72
    65
 73
     0
 40
0.000000
  0
LTYPE
  2
DASHED
 70
    64
  3
__ __ __ __ __ __ __ __ __ __ __ __ __ __ __
 72
    65
 73
     2
 40
3.500000
 49
2.000000
 49
-1.500000
  0
LTYPE
  2
CENTER
 70
    64
  3
____ _ ____ _ ____ _ ____ _ ____ _ ____ _ ____
 72
    65
 73
     4
 40
17.500000
 49
13.000000
 49
-1.500000
 49
1.500000
 49
-1.500000
  0
LTYPE
  2
PHANTOM
 70
    64
  3
_____ _ _ _____ _ _ _____ _ _ _____ _ _ ____  
 72
    65
 73
     6
 40
15.500000
 49
8.000000
 49
-1.500000
 49
1.500000
 49
-1.500000
 49
1.500000
 49
-1.500000
  0
LTYPE
  2
DOT
 70
    64
  3
. . . . . . . . . . . . . . . . . . . . . . . .
 72
    65
 73
     2
 40
0.25
 49
0.0
 49
-0.25
  0
ENDTAB
  0
TABLE
  2
LAYER
 70
     1
  0
LAYER
  2
0
 70
     0
 62
     7
  6
CONTINUOUS
  0
ENDTAB
  0
TABLE
  2
STYLE
 70
     1
  0
STYLE
  2
STANDARD
 70
     0
 40
0.000000
 41
1.000000
 50
0.000000
 71
     0
 42
0.200000
  3
txt
  0
ENDTAB
  0
TABLE
  2
VIEW
 70
     0
  0
ENDTAB
  0
ENDSEC
  0
SECTION
  2
BLOCKS
  0
ENDSEC
  0
SECTION
  2
ENTITIES
  0
LINE
  8
0
  6
CONTINUOUS
 62
     7
 10
-2.8999939
 20
0
 11
2.9000015
 21
0
  0
LINE
  8
0
  6
CONTINUOUS
 62
     7
 10
-2.8999939
 20
2.6000004
 11
2.9000015
 21
2.6000004
  0
LINE
  8
0
  6
CONTINUOUS
 62
     7
 10
-3
 20
2.5
 11
-3
 21
2.1208096
  0
LINE
  8
0
  6
CONTINUOUS
 62
     7
 10
3
 20
2.5
 11
3
 21
2.1208096
  0
LINE
  8
0
  6
CONTINUOUS
 62
     7
 10
-3
 20
1.3791904
 11
-3
 21
0.10000038
  0
LINE
  8
0
  6
CONTINUOUS
 62
     7
 10
3
 20
1.3791904
 11
3
 21
0.10000038
  0
LINE
  8
0
  6
CONTINUOUS
 62
     7
 10
3.3000031
 20
2.6000004
 11
3.3000031
 21
1
  0
LINE
  8
0
  6
CONTINUOUS
 62
     7
 10
6.0000038
 20
4.2000008
 11
6.0000038
 21
1.2999992
  0
LINE
  8
0
  6
CONTINUOUS
 62
     7
 10
5.6999998
 20
4.4999995
 11
5.9999962
 21
4.2000031
  0
LINE
  8
0
  6
CONTINUOUS
 62
     7
 10
5.6999989
 20
1.0000026
 11
5.9999995
 21
1.3000033
  0
LINE
  8
0
  6
CONTINUOUS
 62
     7
 10
5.9000015
 20
4
 11
5.9000015
 21
1.3999996
  0
LINE
  8
0
  6
CONTINUOUS
 62
     7
 10
3.1500015
 20
1
 11
5.7000046
 21
1
  0
LINE
  8
0
  6
CONTINUOUS
 62
     7
 10
5.8999982
 20
1.400001
 11
5.4999995
 21
1.0000025
  0
LINE
  8
0
  6
CONTINUOUS
 62
     7
 10
5.5000024
 20
4.4000001
 11
5.9000025
 21
4.0000005
  0
LINE
  8
0
  6
DASHED
 62
     7
 10
34.997128
 20
4.5
 11
34.997128
 21
2.8000007
  0
LINE
  8
0
  6
DASHED
 62
     7
 10
34.780628
 20
4.5
 11
34.780628
 21
2.8000007
  0
LINE
  8
0
  6
DASHED
 62
     7
 10
33.213631
 20
4.5
 11
33.213631
 21
2.8000007
  0
LINE
  8
0
  6
DASHED
 62
     7
 10
32.997128
 20
4.5
 11
32.997128
 21
2.8000007
  0
LINE
  8
0
  6
CONTINUOUS
 62
     7
 10
16.247952
 20
2.6000004
 11
28.828571
 21
2.6000004
  0
LINE
  8
0
  6
CONTINUOUS
 62
     7
 10
16.247952
 20
0
 11
56.246307
 21
0
  0
LINE
  8
0
  6
CONTINUOUS
 62
     7
 10
29.997128
 20
4.3999996
 11
29.997128
 21
1
  0
LINE
  8
0
  6
CONTINUOUS
 62
     7
 10
29.297127
 20
4.3999996
 11
31.997128
 21
4.3999996
  0
LINE
  8
0
  6
CONTINUOUS
 62
     7
 10
31.997128
 20
4.5
 11
36.247128
 21
4.5
  0
LINE
  8
0
  6
CONTINUOUS
 62
     7
 10
28.897129
 20
1
 11
36.247128
 21
1
  0
LINE
  8
0
  6
CONTINUOUS
 62
     7
 10
16.247952
 20
2.1208096
 11
28.897129
 21
2.1208096
  0
LINE
  8
0
  6
CONTINUOUS
 62
     7
 10
16.247952
 20
1.3791904
 11
28.897129
 21
1.3791904
  0
LINE
  8
0
  6
CONTINUOUS
 62
     7
 10
43.59713
 20
2.1208096
 11
56.246307
 21
2.1208096
  0
LINE
  8
0
  6
CONTINUOUS
 62
     7
 10
43.59713
 20
1.3791904
 11
56.246307
 21
1.3791904
  0
LINE
  8
0
  6
CONTINUOUS
 62
     7
 10
31.997128
 20
4.5
 11
31.997128
 21
1
  0
LINE
  8
0
  6
CENTER
 62
     7
 10
33.997128
 20
4.7252498
 11
33.997128
 21
2.3873503
  0
LINE
  8
0
  6
CENTER
 62
     7
 10
0
 20
5.254034
 11
0
 21
-0.63111877
  0
LINE
  8
0
  6
CONTINUOUS
 62
     7
 10
3.0000026
 20
1.1500036
 11
3.1499996
 21
1.0000067
  0
LINE
  8
0
  6
CONTINUOUS
 62
     7
 10
-3.0006819
 20
2.8999996
 11
3
 21
2.8999996
  0
LINE
  8
0
  6
CONTINUOUS
 62
     7
 10
42.497131
 20
4.3999996
 11
42.497131
 21
1
  0
LINE
  8
0
  6
CONTINUOUS
 62
     7
 10
43.197128
 20
4.3999996
 11
40.497131
 21
4.3999996
  0
LINE
  8
0
  6
CONTINUOUS
 62
     7
 10
40.497131
 20
4.5
 11
36.247128
 21
4.5
  0
LINE
  8
0
  6
CONTINUOUS
 62
     7
 10
43.59713
 20
1
 11
36.247128
 21
1
  0
LINE
  8
0
  6
CONTINUOUS
 62
     7
 10
40.497131
 20
4.5
 11
40.497131
 21
1
  0
LINE
  8
0
  6
CENTER
 62
     7
 10
38.497128
 20
4.7114496
 11
38.497128
 21
2.4942522
  0
LINE
  8
0
  6
CONTINUOUS
 62
     7
 10
43.665688
 20
2.6000004
 11
56.246307
 21
2.6000004
  0
LINE
  8
0
  6
DASHED
 62
     7
 10
0
 20
1.1000004
 11
2
 21
1.1000004
  0
LINE
  8
0
  6
DASHED
 62
     7
 10
0
 20
1.1000004
 11
-2
 21
1.1000004
  0
LINE
  8
0
  6
DASHED
 62
     7
 10
-2
 20
2.6000004
 11
-2
 21
1.1000004
  0
LINE
  8
0
  6
DASHED
 62
     7
 10
2
 20
2.6000004
 11
2
 21
1.1000004
  0
LINE
  8
0
  6
DASHED
 62
     7
 10
21.247532
 20
1.1000004
 11
23.247532
 21
1.1000004
  0
LINE
  8
0
  6
DASHED
 62
     7
 10
21.247532
 20
1.1000004
 11
19.247532
 21
1.1000004
  0
LINE
  8
0
  6
DASHED
 62
     7
 10
19.247532
 20
2.6000004
 11
19.247532
 21
1.1000004
  0
LINE
  8
0
  6
DASHED
 62
     7
 10
23.247532
 20
2.6000004
 11
23.247532
 21
1.1000004
  0
LINE
  8
0
  6
CONTINUOUS
 62
     7
 10
3.5500031
 20
4.3999996
 11
3.5500031
 21
3.2000008
  0
LINE
  8
0
  6
CONTINUOUS
 62
     7
 10
5.9000015
 20
2.1000004
 11
4.6500015
 21
2.1000004
  0
LINE
  8
0
  6
CONTINUOUS
 62
     7
 10
29.297127
 20
2.1196175
 11
29.297127
 21
1
  0
LINE
  8
0
  6
CONTINUOUS
 62
     7
 10
28.897129
 20
2.3029041
 11
28.897129
 21
1
  0
LINE
  8
0
  6
CONTINUOUS
 62
     7
 10
29.297127
 20
4.3999996
 11
29.297127
 21
4.280386
  0
LINE
  8
0
  6
CONTINUOUS
 62
     7
 10
43.197128
 20
4.3999996
 11
43.197128
 21
4.280386
  0
LINE
  8
0
  6
CONTINUOUS
 62
     7
 10
43.260925
 20
4.280386
 11
42.897129
 21
4.280386
  0
LINE
  8
0
  6
CONTINUOUS
 62
     7
 10
43.697128
 20
3.1999991
 11
43.660374
 21
3.9013186
  0
LINE
  8
0
  6
CONTINUOUS
 62
     7
 10
43.697128
 20
3.2000041
 11
43.660374
 21
2.4986846
  0
LINE
  8
0
  6
CONTINUOUS
 62
     7
 10
43.197128
 20
2.1196175
 11
43.197128
 21
1
  0
LINE
  8
0
  6
CONTINUOUS
 62
     7
 10
43.59713
 20
2.3029022
 11
43.59713
 21
1
  0
LINE
  8
0
  6
CONTINUOUS
 62
     7
 10
43.260925
 20
2.1196175
 11
42.897129
 21
2.1196175
  0
LINE
  8
0
  6
CONTINUOUS
 62
     7
 10
42.897129
 20
4.3999996
 11
42.897129
 21
2.1196175
  0
LINE
  8
0
  6
DASHED
 62
     7
 10
22.447529
 20
1.1000004
 11
22.447529
 21
0
  0
LINE
  8
0
  6
DASHED
 62
     7
 10
20.047531
 20
1.1000004
 11
20.047531
 21
0
  0
LINE
  8
0
  6
CONTINUOUS
 62
     7
 10
-2.9999952
 20
0.099999174
 11
-2.8999972
 21
1.2264734E-006
  0
LINE
  8
0
  6
CONTINUOUS
 62
     7
 10
2.9000013
 20
1.2222591E-007
 11
3.0000019
 21
0.10000078
  0
LINE
  8
0
  6
CONTINUOUS
 62
     7
 10
16.247952
 20
24.766098
 11
16.247952
 21
18.766098
  0
LINE
  8
0
  6
CONTINUOUS
 62
     7
 10
56.246307
 20
24.766098
 11
56.246307
 21
18.766098
  0
LINE
  8
0
  6
CONTINUOUS
 62
     7
 10
16.247952
 20
18.766098
 11
28.797127
 21
18.766098
  0
LINE
  8
0
  6
CONTINUOUS
 62
     7
 10
16.247952
 20
24.766098
 11
28.797127
 21
24.766098
  0
LINE
  8
0
  6
CENTER
 62
     7
 10
15.247952
 20
21.766098
 11
57.246307
 21
21.766098
  0
LINE
  8
0
  6
CONTINUOUS
 62
     7
 10
31.997128
 20
27.766098
 11
31.997128
 21
15.766098
  0
LINE
  8
0
  6
CONTINUOUS
 62
     7
 10
40.497131
 20
27.766098
 11
40.497131
 21
15.766098
  0
LINE
  8
0
  6
CONTINUOUS
 62
     7
 10
31.997128
 20
15.766098
 11
40.497131
 21
15.766098
  0
LINE
  8
0
  6
CONTINUOUS
 62
     7
 10
31.997128
 20
27.766098
 11
40.497131
 21
27.766098
  0
LINE
  8
0
  6
CONTINUOUS
 62
     7
 10
43.697132
 20
18.766098
 11
56.246307
 21
18.766098
  0
LINE
  8
0
  6
CONTINUOUS
 62
     7
 10
43.697132
 20
24.766098
 11
56.246307
 21
24.766098
  0
LINE
  8
0
  6
CENTER
 62
     7
 10
33.997128
 20
23.328423
 11
33.997128
 21
20.292496
  0
LINE
  8
0
  6
CENTER
 62
     7
 10
38.497128
 20
23.361423
 11
38.497128
 21
20.193501
  0
LINE
  8
0
  6
CONTINUOUS
 62
     7
 10
29.997128
 20
27.6661
 11
31.997128
 21
27.6661
  0
LINE
  8
0
  6
CONTINUOUS
 62
     7
 10
29.997128
 20
15.866096
 11
31.997128
 21
15.866096
  0
LINE
  8
0
  6
CONTINUOUS
 62
     7
 10
29.997128
 20
27.6661
 11
29.997128
 21
15.866096
  0
LINE
  8
0
  6
CONTINUOUS
 62
     7
 10
29.197128
 20
27.566097
 11
29.997128
 21
27.566097
  0
LINE
  8
0
  6
CONTINUOUS
 62
     7
 10
29.197128
 20
15.966099
 11
29.997128
 21
15.966099
  0
LINE
  8
0
  6
CONTINUOUS
 62
     7
 10
29.197128
 20
27.566097
 11
29.197128
 21
27.496597
  0
LINE
  8
0
  6
CONTINUOUS
 62
     7
 10
28.797127
 20
24.9161
 11
28.797127
 21
18.616096
  0
LINE
  8
0
  6
CONTINUOUS
 62
     7
 10
29.233334
 20
16.035828
 11
29.59713
 21
16.035828
  0
LINE
  8
0
  6
CONTINUOUS
 62
     7
 10
28.797129
 20
17.116213
 11
28.833883
 21
17.817532
  0
LINE
  8
0
  6
CONTINUOUS
 62
     7
 10
28.797129
 20
17.116217
 11
28.833883
 21
16.414896
  0
LINE
  8
0
  6
CONTINUOUS
 62
     7
 10
29.233334
 20
18.196598
 11
29.59713
 21
18.196598
  0
LINE
  8
0
  6
CONTINUOUS
 62
     7
 10
29.59713
 20
18.366096
 11
29.59713
 21
15.966099
  0
LINE
  8
0
  6
CONTINUOUS
 62
     7
 10
29.233337
 20
2.1196175
 11
29.59713
 21
2.1196175
  0
LINE
  8
0
  6
CONTINUOUS
 62
     7
 10
29.59713
 20
4.3999996
 11
29.59713
 21
2.1196175
  0
LINE
  8
0
  6
CONTINUOUS
 62
     7
 10
28.797131
 20
3.1999998
 11
28.833885
 21
3.9013193
  0
LINE
  8
0
  6
CONTINUOUS
 62
     7
 10
28.797131
 20
3.2000034
 11
28.833885
 21
2.4986839
  0
LINE
  8
0
  6
CONTINUOUS
 62
     7
 10
29.233337
 20
4.280386
 11
29.59713
 21
4.280386
  0
LINE
  8
0
  6
CONTINUOUS
 62
     7
 10
29.233334
 20
25.335827
 11
29.59713
 21
25.335827
  0
LINE
  8
0
  6
CONTINUOUS
 62
     7
 10
29.59713
 20
27.566097
 11
29.59713
 21
25.1661
  0
LINE
  8
0
  6
CONTINUOUS
 62
     7
 10
28.797129
 20
26.416212
 11
28.833883
 21
27.117531
  0
LINE
  8
0
  6
CONTINUOUS
 62
     7
 10
28.797127
 20
26.416214
 11
28.833881
 21
25.714895
  0
LINE
  8
0
  6
CONTINUOUS
 62
     7
 10
29.233334
 20
27.496597
 11
29.59713
 21
27.496597
  0
LINE
  8
0
  6
CONTINUOUS
 62
     7
 10
29.197128
 20
25.1661
 11
29.59713
 21
25.1661
  0
LINE
  8
0
  6
CONTINUOUS
 62
     7
 10
29.197128
 20
25.337471
 11
29.197128
 21
18.194958
  0
LINE
  8
0
  6
CONTINUOUS
 62
     7
 10
29.197128
 20
18.366096
 11
29.59713
 21
18.366096
  0
LINE
  8
0
  6
CONTINUOUS
 62
     7
 10
29.197128
 20
16.037472
 11
29.197128
 21
15.966099
  0
LINE
  8
0
  6
CONTINUOUS
 62
     7
 10
28.797127
 20
24.9161
 11
29.197128
 21
24.9161
  0
LINE
  8
0
  6
CONTINUOUS
 62
     7
 10
28.797127
 20
18.616096
 11
29.197128
 21
18.616096
  0
LINE
  8
0
  6
CONTINUOUS
 62
     7
 10
42.497131
 20
27.6661
 11
40.497131
 21
27.6661
  0
LINE
  8
0
  6
CONTINUOUS
 62
     7
 10
42.497131
 20
15.866096
 11
40.497131
 21
15.866096
  0
LINE
  8
0
  6
CONTINUOUS
 62
     7
 10
42.497131
 20
27.6661
 11
42.497131
 21
15.866096
  0
LINE
  8
0
  6
CONTINUOUS
 62
     7
 10
43.297131
 20
27.566097
 11
42.497131
 21
27.566097
  0
LINE
  8
0
  6
CONTINUOUS
 62
     7
 10
43.297131
 20
15.966099
 11
42.497131
 21
15.966099
  0
LINE
  8
0
  6
CONTINUOUS
 62
     7
 10
43.297131
 20
27.566097
 11
43.297131
 21
27.496597
  0
LINE
  8
0
  6
CONTINUOUS
 62
     7
 10
43.697132
 20
24.9161
 11
43.697132
 21
18.616096
  0
LINE
  8
0
  6
CONTINUOUS
 62
     7
 10
43.260925
 20
16.035828
 11
42.897133
 21
16.035828
  0
LINE
  8
0
  6
CONTINUOUS
 62
     7
 10
43.697132
 20
17.116209
 11
43.660378
 21
17.817533
  0
LINE
  8
0
  6
CONTINUOUS
 62
     7
 10
43.697128
 20
17.116215
 11
43.660374
 21
16.414894
  0
LINE
  8
0
  6
CONTINUOUS
 62
     7
 10
43.260925
 20
18.196598
 11
42.897133
 21
18.196598
  0
LINE
  8
0
  6
CONTINUOUS
 62
     7
 10
42.897133
 20
18.366096
 11
42.897133
 21
15.966099
  0
LINE
  8
0
  6
CONTINUOUS
 62
     7
 10
43.260925
 20
25.335827
 11
42.897133
 21
25.335827
  0
LINE
  8
0
  6
CONTINUOUS
 62
     7
 10
42.897133
 20
27.566097
 11
42.897133
 21
25.1661
  0
LINE
  8
0
  6
CONTINUOUS
 62
     7
 10
43.697128
 20
26.416212
 11
43.660374
 21
27.117531
  0
LINE
  8
0
  6
CONTINUOUS
 62
     7
 10
43.697128
 20
26.416218
 11
43.660374
 21
25.714895
  0
LINE
  8
0
  6
CONTINUOUS
 62
     7
 10
43.260925
 20
27.496597
 11
42.897133
 21
27.496597
  0
LINE
  8
0
  6
CONTINUOUS
 62
     7
 10
43.297131
 20
25.1661
 11
42.897133
 21
25.1661
  0
LINE
  8
0
  6
CONTINUOUS
 62
     7
 10
43.297131
 20
25.337471
 11
43.297131
 21
18.194958
  0
LINE
  8
0
  6
CONTINUOUS
 62
     7
 10
43.297131
 20
18.366096
 11
42.897133
 21
18.366096
  0
LINE
  8
0
  6
CONTINUOUS
 62
     7
 10
43.297131
 20
16.037472
 11
43.297131
 21
15.966099
  0
LINE
  8
0
  6
CONTINUOUS
 62
     7
 10
43.697132
 20
24.9161
 11
43.297131
 21
24.9161
  0
LINE
  8
0
  6
CONTINUOUS
 62
     7
 10
43.697132
 20
18.616096
 11
43.297131
 21
18.616096
  0
LINE
  8
0
  6
CENTER
 62
     7
 10
21.247532
 20
24.219402
 11
21.247532
 21
19.071526
  0
LINE
  8
0
  6
CONTINUOUS
 62
     7
 10
-2.9999943
 20
1.1500024
 11
-3.149991
 21
1.0000054
  0
LINE
  8
0
  6
CONTINUOUS
 62
     7
 10
-5.8999939
 20
2.1000004
 11
-4.6499939
 21
2.1000004
  0
LINE
  8
0
  6
CONTINUOUS
 62
     7
 10
5.6999993
 20
4.5
 11
-5.6999969
 21
4.5
  0
LINE
  8
0
  6
CONTINUOUS
 62
     7
 10
-6
 20
4.2000008
 11
-6
 21
1.2999992
  0
LINE
  8
0
  6
CONTINUOUS
 62
     7
 10
-5.6999912
 20
4.4999981
 11
-5.9999876
 21
4.2000012
  0
LINE
  8
0
  6
CONTINUOUS
 62
     7
 10
-5.6999946
 20
1.0000058
 11
-5.9999938
 21
1.3000051
  0
LINE
  8
0
  6
CONTINUOUS
 62
     7
 10
-5.8999939
 20
4
 11
-5.8999939
 21
1.3999996
  0
LINE
  8
0
  6
CONTINUOUS
 62
     7
 10
5.5000029
 20
4.3999996
 11
-5.5
 21
4.3999996
  0
LINE
  8
0
  6
CONTINUOUS
 62
     7
 10
-3.1499939
 20
1
 11
-5.6999969
 21
1
  0
LINE
  8
0
  6
CONTINUOUS
 62
     7
 10
-5.8999953
 20
1.3999994
 11
-5.4999981
 21
1.0000021
  0
LINE
  8
0
  6
CONTINUOUS
 62
     7
 10
-5.4999952
 20
4.4000001
 11
-5.8999953
 21
4
  0
LINE
  8
0
  6
CONTINUOUS
 62
     7
 10
-3.2999954
 20
2.6000004
 11
-3.2999954
 21
1
  0
LINE
  8
0
  6
CONTINUOUS
 62
     7
 10
-3.5499954
 20
4.3999996
 11
-3.5499954
 21
3.2000008
  0
LINE
  8
0
  6
CONTINUOUS
 62
     7
 10
16.247952
 20
2.6000004
 11
16.247952
 21
0
  0
LINE
  8
0
  6
CONTINUOUS
 62
     7
 10
56.246307
 20
2.6000004
 11
56.246307
 21
0
  0
LINE
  8
0
  6
CENTER
 62
     7
 10
21.247532
 20
3.3629055
 11
21.247532
 21
-0.73497963
  0
LINE
  8
0
  6
CENTER
 62
     7
 10
51.246738
 20
24.323036
 11
51.246738
 21
19.228367
  0
LINE
  8
0
  6
CENTER
 62
     7
 10
51.246738
 20
3.6951656
 11
51.246738
 21
-0.56884956
  0
LINE
  8
0
  6
CENTER
 62
     7
 10
36.247131
 20
1.6602927
 11
36.247131
 21
-0.70729256
  0
LINE
  8
0
  6
DASHED
 62
     7
 10
-1.1999969
 20
1.1000004
 11
-1.1999969
 21
0
  0
LINE
  8
0
  6
DASHED
 62
     7
 10
1.2000046
 20
1.1000004
 11
1.2000046
 21
0
  0
LINE
  8
0
  6
CONTINUOUS
 62
     7
 10
-5.1449685
 20
2.7050261
 11
-4.1550193
 21
3.6949756
  0
LINE
  8
0
  6
CONTINUOUS
 62
     7
 10
-5.1449685
 20
3.6949754
 11
-4.1550193
 21
2.7050259
  0
LINE
  8
0
  6
CENTER
 62
     7
 10
36.247532
 20
24.219402
 11
36.247532
 21
19.071526
  0
LINE
  8
0
  6
DASHED
 62
     7
 10
32.773132
 20
2.8000007
 11
35.183094
 21
2.8000007
  0
ARC
  8
0
  6
CONTINUOUS
 62
     7
 10
3.1500015
 20
1.75
 40
0.40000001
 50
112.02431
 51
247.9757
  0
ARC
  8
0
  6
CONTINUOUS
 62
     7
 10
2.9000015
 20
2.5
 40
0.1
 50
0
 51
90.000003
  0
ARC
  8
0
  6
CONTINUOUS
 62
     7
 10
-2.8999939
 20
2.5
 40
0.1
 50
90.000003
 51
180.00001
  0
CIRCLE
  8
0
  6
CONTINUOUS
 62
     7
 10
4.6500015
 20
3.2000008
 40
1.1
  0
ARC
  8
0
  6
CONTINUOUS
 62
     7
 10
3
 20
2.6000004
 40
0.30000001
 50
0
 51
90.000003
  0
ARC
  8
0
  6
CONTINUOUS
 62
     7
 10
43.260925
 20
2.5196171
 40
0.40000001
 50
270
 51
356.99999
  0
ARC
  8
0
  6
CONTINUOUS
 62
     7
 10
43.260925
 20
3.8803864
 40
0.40000001
 50
3.0000054
 51
90.000003
  0
CIRCLE
  8
0
  6
CONTINUOUS
 62
     7
 10
0
 20
3.7000008
 40
0.40000001
  0
ARC
  8
0
  6
CONTINUOUS
 62
     7
 10
0
 20
3.7000008
 40
0.5
 50
270
 51
90.000003
  0
CIRCLE
  8
0
  6
CONTINUOUS
 62
     7
 10
33.997128
 20
21.766098
 40
1
  0
CIRCLE
  8
0
  6
CONTINUOUS
 62
     7
 10
33.997128
 20
21.766098
 40
0.80000001
  0
ARC
  8
0
  6
CONTINUOUS
 62
     7
 10
29.233334
 20
17.796597
 40
0.40000001
 50
89.999996
 51
176.99999
  0
ARC
  8
0
  6
CONTINUOUS
 62
     7
 10
29.233334
 20
16.435829
 40
0.40000001
 50
183.00001
 51
270
  0
ARC
  8
0
  6
CONTINUOUS
 62
     7
 10
29.233337
 20
2.5196171
 40
0.40000001
 50
183.00001
 51
270
  0
ARC
  8
0
  6
CONTINUOUS
 62
     7
 10
29.233337
 20
3.8803864
 40
0.40000001
 50
89.999996
 51
176.99999
  0
ARC
  8
0
  6
CONTINUOUS
 62
     7
 10
29.233334
 20
25.735828
 40
0.40000001
 50
183.00001
 51
270
  0
ARC
  8
0
  6
CONTINUOUS
 62
     7
 10
29.233334
 20
27.0966
 40
0.40000001
 50
89.999996
 51
176.99999
  0
ARC
  8
0
  6
CONTINUOUS
 62
     7
 10
43.260925
 20
17.796597
 40
0.40000001
 50
3.0000054
 51
90.000003
  0
ARC
  8
0
  6
CONTINUOUS
 62
     7
 10
43.260925
 20
16.435829
 40
0.40000001
 50
270
 51
356.99999
  0
ARC
  8
0
  6
CONTINUOUS
 62
     7
 10
43.260925
 20
25.735828
 40
0.40000001
 50
270
 51
356.99999
  0
ARC
  8
0
  6
CONTINUOUS
 62
     7
 10
43.260925
 20
27.0966
 40
0.40000001
 50
3.0000054
 51
90.000003
  0
CIRCLE
  8
0
  6
CONTINUOUS
 62
     7
 10
21.247532
 20
21.766098
 40
2
  0
CIRCLE
  8
0
  6
CONTINUOUS
 62
     7
 10
21.247532
 20
21.766098
 40
1.2
  0
ARC
  8
0
  6
CONTINUOUS
 62
     7
 10
0
 20
3.7000008
 40
0.5
 50
89.999996
 51
270
  0
CIRCLE
  8
0
  6
CONTINUOUS
 62
     7
 10
-4.6499939
 20
3.2000008
 40
1.1
  0
ARC
  8
0
  6
CONTINUOUS
 62
     7
 10
-3.1499939
 20
1.75
 40
0.40000001
 50
292.0243
 51
67.975689
  0
ARC
  8
0
  6
CONTINUOUS
 62
     7
 10
-3
 20
2.6000004
 40
0.30000001
 50
89.999996
 51
180.00001
  0
TEXT
  8
0
  6
CONTINUOUS
 62
     7
 10
0.51729429
 20
-14.762009
 40
3.5999999
 41
1.0476191
  1
RSR3W
  0
TEXT
  8
0
  6
CONTINUOUS
 62
     7
 10
7.1831535
 20
-20.128295
 40
3.5999999
 41
1.0333334
  1
C =250N
  0
TEXT
  8
0
  6
CONTINUOUS
 62
     7
 10
7.5056938
 20
-25.127877
 40
3.5999999
 41
1.0333334
  1
C0=470N
  0
ENDSEC
  0
EOF
