  0
SECTION
  2
HEADER
  0
ENDSEC
  0
SECTION
  2
TABLES
  0
TABLE
  2
LTYPE
 70
    22
  0
LTYPE
  2
CONTINUOUS
 70
    64
  3
Solid line
 72
    65
 73
     0
 40
0.000000
  0
LTYPE
  2
DASHED
 70
    64
  3
__ __ __ __ __ __ __ __ __ __ __ __ __ __ __
 72
    65
 73
     2
 40
3.500000
 49
2.000000
 49
-1.500000
  0
LTYPE
  2
CENTER
 70
    64
  3
____ _ ____ _ ____ _ ____ _ ____ _ ____ _ ____
 72
    65
 73
     4
 40
17.500000
 49
13.000000
 49
-1.500000
 49
1.500000
 49
-1.500000
  0
LTYPE
  2
PHANTOM
 70
    64
  3
_____ _ _ _____ _ _ _____ _ _ _____ _ _ ____  
 72
    65
 73
     6
 40
15.500000
 49
8.000000
 49
-1.500000
 49
1.500000
 49
-1.500000
 49
1.500000
 49
-1.500000
  0
LTYPE
  2
DOT
 70
    64
  3
. . . . . . . . . . . . . . . . . . . . . . . .
 72
    65
 73
     2
 40
0.25
 49
0.0
 49
-0.25
  0
ENDTAB
  0
TABLE
  2
LAYER
 70
     1
  0
LAYER
  2
0
 70
     0
 62
     7
  6
CONTINUOUS
  0
ENDTAB
  0
TABLE
  2
STYLE
 70
     1
  0
STYLE
  2
STANDARD
 70
     0
 40
0.000000
 41
1.000000
 50
0.000000
 71
     0
 42
0.200000
  3
txt
  0
ENDTAB
  0
TABLE
  2
VIEW
 70
     0
  0
ENDTAB
  0
ENDSEC
  0
SECTION
  2
BLOCKS
  0
ENDSEC
  0
SECTION
  2
ENTITIES
  0
LINE
  8
0
  6
CONTINUOUS
 62
     7
 10
-2.899993896484375
 20
0
 11
2.900001525878906
 21
0
  0
LINE
  8
0
  6
CONTINUOUS
 62
     7
 10
-2.899993896484375
 20
2.600000381469727
 11
2.900001525878906
 21
2.600000381469727
  0
LINE
  8
0
  6
CONTINUOUS
 62
     7
 10
-3
 20
2.5
 11
-3
 21
2.120809555053711
  0
LINE
  8
0
  6
CONTINUOUS
 62
     7
 10
3
 20
2.5
 11
3
 21
2.120809555053711
  0
LINE
  8
0
  6
CONTINUOUS
 62
     7
 10
-3
 20
1.379190444946289
 11
-3
 21
0.1000003814697266
  0
LINE
  8
0
  6
CONTINUOUS
 62
     7
 10
3
 20
1.379190444946289
 11
3
 21
0.1000003814697266
  0
LINE
  8
0
  6
CONTINUOUS
 62
     7
 10
3.300003051757813
 20
2.600000381469727
 11
3.300003051757813
 21
1
  0
LINE
  8
0
  6
CONTINUOUS
 62
     7
 10
6.000003814697266
 20
4.200000762939453
 11
6.000003814697266
 21
1.299999237060547
  0
LINE
  8
0
  6
CONTINUOUS
 62
     7
 10
5.699999809265137
 20
4.499999523162842
 11
5.999996185302734
 21
4.200003147125244
  0
LINE
  8
0
  6
CONTINUOUS
 62
     7
 10
5.69999885559082
 20
1.00000262260437
 11
5.999999523162842
 21
1.300003290176392
  0
LINE
  8
0
  6
CONTINUOUS
 62
     7
 10
5.900001525878906
 20
4
 11
5.900001525878906
 21
1.399999618530273
  0
LINE
  8
0
  6
CONTINUOUS
 62
     7
 10
3.150001525878906
 20
1
 11
5.700004577636719
 21
1
  0
LINE
  8
0
  6
CONTINUOUS
 62
     7
 10
5.899998188018799
 20
1.400001049041748
 11
5.499999523162842
 21
1.000002503395081
  0
LINE
  8
0
  6
CONTINUOUS
 62
     7
 10
5.500002384185791
 20
4.400000095367432
 11
5.900002479553223
 21
4.000000476837158
  0
LINE
  8
0
  6
DASHED
 62
     7
 10
34.99712753295898
 20
4.5
 11
34.99712753295898
 21
2.800000667572022
  0
LINE
  8
0
  6
DASHED
 62
     7
 10
34.7806282043457
 20
4.5
 11
34.7806282043457
 21
2.800000667572022
  0
LINE
  8
0
  6
DASHED
 62
     7
 10
33.21363067626953
 20
4.5
 11
33.21363067626953
 21
2.800000667572022
  0
LINE
  8
0
  6
DASHED
 62
     7
 10
32.99712753295898
 20
4.5
 11
32.99712753295898
 21
2.800000667572022
  0
LINE
  8
0
  6
CONTINUOUS
 62
     7
 10
16.24795150756836
 20
2.600000381469727
 11
28.77857208251953
 21
2.600000381469727
  0
LINE
  8
0
  6
CONTINUOUS
 62
     7
 10
16.24795150756836
 20
0
 11
56.24630737304688
 21
0
  0
LINE
  8
0
  6
CONTINUOUS
 62
     7
 10
29.94712829589844
 20
4.399999618530273
 11
29.94712829589844
 21
1
  0
LINE
  8
0
  6
CONTINUOUS
 62
     7
 10
29.24712753295898
 20
4.399999618530273
 11
31.99712753295898
 21
4.399999618530273
  0
LINE
  8
0
  6
CONTINUOUS
 62
     7
 10
31.99712753295898
 20
4.5
 11
36.24712753295898
 21
4.5
  0
LINE
  8
0
  6
CONTINUOUS
 62
     7
 10
28.84712982177734
 20
1
 11
36.24712753295898
 21
1
  0
LINE
  8
0
  6
CONTINUOUS
 62
     7
 10
16.24795150756836
 20
2.120809555053711
 11
28.84712982177734
 21
2.120809555053711
  0
LINE
  8
0
  6
CONTINUOUS
 62
     7
 10
16.24795150756836
 20
1.379190444946289
 11
28.84712982177734
 21
1.379190444946289
  0
LINE
  8
0
  6
CONTINUOUS
 62
     7
 10
43.64712905883789
 20
2.120809555053711
 11
56.24630737304688
 21
2.120809555053711
  0
LINE
  8
0
  6
CONTINUOUS
 62
     7
 10
43.64712905883789
 20
1.379190444946289
 11
56.24630737304688
 21
1.379190444946289
  0
LINE
  8
0
  6
CONTINUOUS
 62
     7
 10
31.99712753295898
 20
4.5
 11
31.99712753295898
 21
1
  0
LINE
  8
0
  6
CENTER
 62
     7
 10
33.99712753295898
 20
4.725249767303467
 11
33.99712753295898
 21
2.38735032081604
  0
LINE
  8
0
  6
CENTER
 62
     7
 10
0
 20
5.254034042358398
 11
0
 21
-0.6311187744140625
  0
LINE
  8
0
  6
CONTINUOUS
 62
     7
 10
3.00000262260437
 20
1.150003552436829
 11
3.149999618530273
 21
1.000006675720215
  0
LINE
  8
0
  6
CONTINUOUS
 62
     7
 10
-3.000681877136231
 20
2.899999618530273
 11
3
 21
2.899999618530273
  0
LINE
  8
0
  6
CONTINUOUS
 62
     7
 10
42.5471305847168
 20
4.399999618530273
 11
42.5471305847168
 21
1
  0
LINE
  8
0
  6
CONTINUOUS
 62
     7
 10
43.24712753295898
 20
4.399999618530273
 11
40.49713134765625
 21
4.399999618530273
  0
LINE
  8
0
  6
CONTINUOUS
 62
     7
 10
40.49713134765625
 20
4.5
 11
36.24712753295898
 21
4.5
  0
LINE
  8
0
  6
CONTINUOUS
 62
     7
 10
43.64712905883789
 20
1
 11
36.24712753295898
 21
1
  0
LINE
  8
0
  6
CONTINUOUS
 62
     7
 10
40.49713134765625
 20
4.5
 11
40.49713134765625
 21
1
  0
LINE
  8
0
  6
CENTER
 62
     7
 10
38.49712753295898
 20
4.71144962310791
 11
38.49712753295898
 21
2.49425220489502
  0
LINE
  8
0
  6
CONTINUOUS
 62
     7
 10
43.7156867980957
 20
2.600000381469727
 11
56.24630737304688
 21
2.600000381469727
  0
LINE
  8
0
  6
DASHED
 62
     7
 10
0
 20
1.100000381469727
 11
2
 21
1.100000381469727
  0
LINE
  8
0
  6
DASHED
 62
     7
 10
0
 20
1.100000381469727
 11
-2
 21
1.100000381469727
  0
LINE
  8
0
  6
DASHED
 62
     7
 10
-2
 20
2.600000381469727
 11
-2
 21
1.100000381469727
  0
LINE
  8
0
  6
DASHED
 62
     7
 10
2
 20
2.600000381469727
 11
2
 21
1.100000381469727
  0
LINE
  8
0
  6
DASHED
 62
     7
 10
21.24753189086914
 20
1.100000381469727
 11
23.24753189086914
 21
1.100000381469727
  0
LINE
  8
0
  6
DASHED
 62
     7
 10
21.24753189086914
 20
1.100000381469727
 11
19.24753189086914
 21
1.100000381469727
  0
LINE
  8
0
  6
DASHED
 62
     7
 10
19.24753189086914
 20
2.600000381469727
 11
19.24753189086914
 21
1.100000381469727
  0
LINE
  8
0
  6
DASHED
 62
     7
 10
23.24753189086914
 20
2.600000381469727
 11
23.24753189086914
 21
1.100000381469727
  0
LINE
  8
0
  6
CONTINUOUS
 62
     7
 10
3.550003051757813
 20
4.399999618530273
 11
3.550003051757813
 21
3.200000762939453
  0
LINE
  8
0
  6
CONTINUOUS
 62
     7
 10
5.900001525878906
 20
2.100000381469727
 11
4.650001525878906
 21
2.100000381469727
  0
LINE
  8
0
  6
CONTINUOUS
 62
     7
 10
29.24712753295898
 20
2.119617462158203
 11
29.24712753295898
 21
1
  0
LINE
  8
0
  6
CONTINUOUS
 62
     7
 10
28.84712982177734
 20
2.30290412902832
 11
28.84712982177734
 21
1
  0
LINE
  8
0
  6
CONTINUOUS
 62
     7
 10
29.24712753295898
 20
4.399999618530273
 11
29.24712753295898
 21
4.280385971069336
  0
LINE
  8
0
  6
CONTINUOUS
 62
     7
 10
43.24712753295898
 20
4.399999618530273
 11
43.24712753295898
 21
4.280385971069336
  0
LINE
  8
0
  6
CONTINUOUS
 62
     7
 10
43.3109245300293
 20
4.280385971069336
 11
42.94712829589844
 21
4.280385971069336
  0
LINE
  8
0
  6
CONTINUOUS
 62
     7
 10
43.74712753295898
 20
3.199999094009399
 11
43.71037292480469
 21
3.901318550109863
  0
LINE
  8
0
  6
CONTINUOUS
 62
     7
 10
43.74713134765625
 20
3.200004100799561
 11
43.71037673950195
 21
2.498684644699097
  0
LINE
  8
0
  6
CONTINUOUS
 62
     7
 10
43.24712753295898
 20
2.119617462158203
 11
43.24712753295898
 21
1
  0
LINE
  8
0
  6
CONTINUOUS
 62
     7
 10
43.64712905883789
 20
2.302902221679688
 11
43.64712905883789
 21
1
  0
LINE
  8
0
  6
CONTINUOUS
 62
     7
 10
43.3109245300293
 20
2.119617462158203
 11
42.94712829589844
 21
2.119617462158203
  0
LINE
  8
0
  6
CONTINUOUS
 62
     7
 10
42.94712829589844
 20
4.399999618530273
 11
42.94712829589844
 21
2.119617462158203
  0
LINE
  8
0
  6
DASHED
 62
     7
 10
22.44752883911133
 20
1.100000381469727
 11
22.44752883911133
 21
0
  0
LINE
  8
0
  6
DASHED
 62
     7
 10
20.04753112792969
 20
1.100000381469727
 11
20.04753112792969
 21
0
  0
LINE
  8
0
  6
CONTINUOUS
 62
     7
 10
-2.999995231628418
 20
0.09999917447566986
 11
-2.899997234344482
 21
1.226473386850557E-006
  0
LINE
  8
0
  6
CONTINUOUS
 62
     7
 10
2.900001287460327
 20
1.222259129463055E-007
 11
3.000001907348633
 21
0.1000007763504982
  0
LINE
  8
0
  6
CONTINUOUS
 62
     7
 10
16.24795150756836
 20
24.76609802246094
 11
16.24795150756836
 21
18.76609802246094
  0
LINE
  8
0
  6
CONTINUOUS
 62
     7
 10
56.24630737304688
 20
24.76609802246094
 11
56.24630737304688
 21
18.76609802246094
  0
LINE
  8
0
  6
CONTINUOUS
 62
     7
 10
16.24795150756836
 20
18.76609802246094
 11
28.74712753295898
 21
18.76609802246094
  0
LINE
  8
0
  6
CONTINUOUS
 62
     7
 10
16.24795150756836
 20
24.76609802246094
 11
28.74712753295898
 21
24.76609802246094
  0
LINE
  8
0
  6
CENTER
 62
     7
 10
15.24795150756836
 20
21.76609802246094
 11
57.24630737304688
 21
21.76609802246094
  0
LINE
  8
0
  6
CONTINUOUS
 62
     7
 10
31.99712753295898
 20
27.76609802246094
 11
31.99712753295898
 21
15.76609802246094
  0
LINE
  8
0
  6
CONTINUOUS
 62
     7
 10
40.49713134765625
 20
27.76609802246094
 11
40.49713134765625
 21
15.76609802246094
  0
LINE
  8
0
  6
CONTINUOUS
 62
     7
 10
31.99712753295898
 20
15.76609802246094
 11
40.49713134765625
 21
15.76609802246094
  0
LINE
  8
0
  6
CONTINUOUS
 62
     7
 10
31.99712753295898
 20
27.76609802246094
 11
40.49713134765625
 21
27.76609802246094
  0
LINE
  8
0
  6
CONTINUOUS
 62
     7
 10
43.74713134765625
 20
18.76609802246094
 11
56.24630737304688
 21
18.76609802246094
  0
LINE
  8
0
  6
CONTINUOUS
 62
     7
 10
43.74713134765625
 20
24.76609802246094
 11
56.24630737304688
 21
24.76609802246094
  0
LINE
  8
0
  6
CENTER
 62
     7
 10
33.99712753295898
 20
23.32842254638672
 11
33.99712753295898
 21
20.29249572753906
  0
LINE
  8
0
  6
CENTER
 62
     7
 10
38.49712753295898
 20
23.36142349243164
 11
38.49712753295898
 21
20.19350051879883
  0
LINE
  8
0
  6
CONTINUOUS
 62
     7
 10
29.94712829589844
 20
27.66609954833984
 11
31.99712753295898
 21
27.66609954833984
  0
LINE
  8
0
  6
CONTINUOUS
 62
     7
 10
29.94712829589844
 20
15.86609649658203
 11
31.99712753295898
 21
15.86609649658203
  0
LINE
  8
0
  6
CONTINUOUS
 62
     7
 10
29.94712829589844
 20
27.66609954833984
 11
29.94712829589844
 21
15.86609649658203
  0
LINE
  8
0
  6
CONTINUOUS
 62
     7
 10
29.14712905883789
 20
27.56609725952148
 11
29.94712829589844
 21
27.56609725952148
  0
LINE
  8
0
  6
CONTINUOUS
 62
     7
 10
29.14712905883789
 20
15.96609878540039
 11
29.94712829589844
 21
15.96609878540039
  0
LINE
  8
0
  6
CONTINUOUS
 62
     7
 10
29.14712905883789
 20
27.56609725952148
 11
29.14712905883789
 21
27.49659729003906
  0
LINE
  8
0
  6
CONTINUOUS
 62
     7
 10
28.74712753295898
 20
24.91609954833984
 11
28.74712753295898
 21
18.61609649658203
  0
LINE
  8
0
  6
CONTINUOUS
 62
     7
 10
29.18333435058594
 20
16.03582763671875
 11
29.5471305847168
 21
16.03582763671875
  0
LINE
  8
0
  6
CONTINUOUS
 62
     7
 10
28.74712944030762
 20
17.11621284484863
 11
28.78388404846191
 21
17.81753158569336
  0
LINE
  8
0
  6
CONTINUOUS
 62
     7
 10
28.74712944030762
 20
17.1162166595459
 11
28.78388404846191
 21
16.41489601135254
  0
LINE
  8
0
  6
CONTINUOUS
 62
     7
 10
29.18333435058594
 20
18.19659805297852
 11
29.5471305847168
 21
18.19659805297852
  0
LINE
  8
0
  6
CONTINUOUS
 62
     7
 10
29.5471305847168
 20
18.36609649658203
 11
29.5471305847168
 21
15.96609878540039
  0
LINE
  8
0
  6
CONTINUOUS
 62
     7
 10
29.1833381652832
 20
2.119617462158203
 11
29.5471305847168
 21
2.119617462158203
  0
LINE
  8
0
  6
CONTINUOUS
 62
     7
 10
29.5471305847168
 20
4.399999618530273
 11
29.5471305847168
 21
2.119617462158203
  0
LINE
  8
0
  6
CONTINUOUS
 62
     7
 10
28.74713134765625
 20
3.199999809265137
 11
28.78388595581055
 21
3.901319265365601
  0
LINE
  8
0
  6
CONTINUOUS
 62
     7
 10
28.74713134765625
 20
3.200003385543823
 11
28.78388595581055
 21
2.498683929443359
  0
LINE
  8
0
  6
CONTINUOUS
 62
     7
 10
29.1833381652832
 20
4.280385971069336
 11
29.5471305847168
 21
4.280385971069336
  0
LINE
  8
0
  6
CONTINUOUS
 62
     7
 10
29.18333435058594
 20
25.3358268737793
 11
29.5471305847168
 21
25.3358268737793
  0
LINE
  8
0
  6
CONTINUOUS
 62
     7
 10
29.5471305847168
 20
27.56609725952148
 11
29.5471305847168
 21
25.16609954833984
  0
LINE
  8
0
  6
CONTINUOUS
 62
     7
 10
28.74712753295898
 20
26.41621208190918
 11
28.78388214111328
 21
27.11753082275391
  0
LINE
  8
0
  6
CONTINUOUS
 62
     7
 10
28.74712562561035
 20
26.41621398925781
 11
28.78388023376465
 21
25.71489524841309
  0
LINE
  8
0
  6
CONTINUOUS
 62
     7
 10
29.18333435058594
 20
27.49659729003906
 11
29.5471305847168
 21
27.49659729003906
  0
LINE
  8
0
  6
CONTINUOUS
 62
     7
 10
29.14712905883789
 20
25.16609954833984
 11
29.5471305847168
 21
25.16609954833984
  0
LINE
  8
0
  6
CONTINUOUS
 62
     7
 10
29.14712905883789
 20
25.33747100830078
 11
29.14712905883789
 21
18.1949577331543
  0
LINE
  8
0
  6
CONTINUOUS
 62
     7
 10
29.14712905883789
 20
18.36609649658203
 11
29.5471305847168
 21
18.36609649658203
  0
LINE
  8
0
  6
CONTINUOUS
 62
     7
 10
29.14712905883789
 20
16.03747177124023
 11
29.14712905883789
 21
15.96609878540039
  0
LINE
  8
0
  6
CONTINUOUS
 62
     7
 10
28.74712753295898
 20
24.91609954833984
 11
29.14712905883789
 21
24.91609954833984
  0
LINE
  8
0
  6
CONTINUOUS
 62
     7
 10
28.74712753295898
 20
18.61609649658203
 11
29.14712905883789
 21
18.61609649658203
  0
LINE
  8
0
  6
CONTINUOUS
 62
     7
 10
42.5471305847168
 20
27.66609954833984
 11
40.49713134765625
 21
27.66609954833984
  0
LINE
  8
0
  6
CONTINUOUS
 62
     7
 10
42.5471305847168
 20
15.86609649658203
 11
40.49713134765625
 21
15.86609649658203
  0
LINE
  8
0
  6
CONTINUOUS
 62
     7
 10
42.5471305847168
 20
27.66609954833984
 11
42.5471305847168
 21
15.86609649658203
  0
LINE
  8
0
  6
CONTINUOUS
 62
     7
 10
43.34712982177734
 20
27.56609725952148
 11
42.5471305847168
 21
27.56609725952148
  0
LINE
  8
0
  6
CONTINUOUS
 62
     7
 10
43.34712982177734
 20
15.96609878540039
 11
42.5471305847168
 21
15.96609878540039
  0
LINE
  8
0
  6
CONTINUOUS
 62
     7
 10
43.34712982177734
 20
27.56609725952148
 11
43.34712982177734
 21
27.49659729003906
  0
LINE
  8
0
  6
CONTINUOUS
 62
     7
 10
43.74713134765625
 20
24.91609954833984
 11
43.74713134765625
 21
18.61609649658203
  0
LINE
  8
0
  6
CONTINUOUS
 62
     7
 10
43.3109245300293
 20
16.03582763671875
 11
42.9471321105957
 21
16.03582763671875
  0
LINE
  8
0
  6
CONTINUOUS
 62
     7
 10
43.74713134765625
 20
17.11620903015137
 11
43.71037673950195
 21
17.81753349304199
  0
LINE
  8
0
  6
CONTINUOUS
 62
     7
 10
43.74713134765625
 20
17.11621475219727
 11
43.71037673950195
 21
16.41489410400391
  0
LINE
  8
0
  6
CONTINUOUS
 62
     7
 10
43.3109245300293
 20
18.19659805297852
 11
42.9471321105957
 21
18.19659805297852
  0
LINE
  8
0
  6
CONTINUOUS
 62
     7
 10
42.9471321105957
 20
18.36609649658203
 11
42.9471321105957
 21
15.96609878540039
  0
LINE
  8
0
  6
CONTINUOUS
 62
     7
 10
43.3109245300293
 20
25.3358268737793
 11
42.9471321105957
 21
25.3358268737793
  0
LINE
  8
0
  6
CONTINUOUS
 62
     7
 10
42.9471321105957
 20
27.56609725952148
 11
42.9471321105957
 21
25.16609954833984
  0
LINE
  8
0
  6
CONTINUOUS
 62
     7
 10
43.74712753295898
 20
26.41621208190918
 11
43.71037292480469
 21
27.11753082275391
  0
LINE
  8
0
  6
CONTINUOUS
 62
     7
 10
43.74713134765625
 20
26.41621780395508
 11
43.71037673950195
 21
25.71489524841309
  0
LINE
  8
0
  6
CONTINUOUS
 62
     7
 10
43.3109245300293
 20
27.49659729003906
 11
42.9471321105957
 21
27.49659729003906
  0
LINE
  8
0
  6
CONTINUOUS
 62
     7
 10
43.34712982177734
 20
25.16609954833984
 11
42.9471321105957
 21
25.16609954833984
  0
LINE
  8
0
  6
CONTINUOUS
 62
     7
 10
43.34712982177734
 20
25.33747100830078
 11
43.34712982177734
 21
18.1949577331543
  0
LINE
  8
0
  6
CONTINUOUS
 62
     7
 10
43.34712982177734
 20
18.36609649658203
 11
42.9471321105957
 21
18.36609649658203
  0
LINE
  8
0
  6
CONTINUOUS
 62
     7
 10
43.34712982177734
 20
16.03747177124023
 11
43.34712982177734
 21
15.96609878540039
  0
LINE
  8
0
  6
CONTINUOUS
 62
     7
 10
43.74713134765625
 20
24.91609954833984
 11
43.34712982177734
 21
24.91609954833984
  0
LINE
  8
0
  6
CONTINUOUS
 62
     7
 10
43.74713134765625
 20
18.61609649658203
 11
43.34712982177734
 21
18.61609649658203
  0
LINE
  8
0
  6
CENTER
 62
     7
 10
21.24753189086914
 20
24.21940231323242
 11
21.24753189086914
 21
19.07152557373047
  0
LINE
  8
0
  6
CONTINUOUS
 62
     7
 10
-2.999994277954102
 20
1.150002360343933
 11
-3.149991035461426
 21
1.00000536441803
  0
LINE
  8
0
  6
CONTINUOUS
 62
     7
 10
-5.899993896484375
 20
2.100000381469727
 11
-4.649993896484375
 21
2.100000381469727
  0
LINE
  8
0
  6
CONTINUOUS
 62
     7
 10
5.699999332427979
 20
4.5
 11
-5.699996948242188
 21
4.5
  0
LINE
  8
0
  6
CONTINUOUS
 62
     7
 10
-6
 20
4.200000762939453
 11
-6
 21
1.299999237060547
  0
LINE
  8
0
  6
CONTINUOUS
 62
     7
 10
-5.699991226196289
 20
4.499998092651367
 11
-5.999987602233887
 21
4.200001239776611
  0
LINE
  8
0
  6
CONTINUOUS
 62
     7
 10
-5.699994564056397
 20
1.000005841255188
 11
-5.999993801116943
 21
1.300005078315735
  0
LINE
  8
0
  6
CONTINUOUS
 62
     7
 10
-5.899993896484375
 20
4
 11
-5.899993896484375
 21
1.399999618530273
  0
LINE
  8
0
  6
CONTINUOUS
 62
     7
 10
5.500002861022949
 20
4.399999618530273
 11
-5.5
 21
4.399999618530273
  0
LINE
  8
0
  6
CONTINUOUS
 62
     7
 10
-3.149993896484375
 20
1
 11
-5.699996948242188
 21
1
  0
LINE
  8
0
  6
CONTINUOUS
 62
     7
 10
-5.89999532699585
 20
1.399999380111694
 11
-5.499998092651367
 21
1.000002145767212
  0
LINE
  8
0
  6
CONTINUOUS
 62
     7
 10
-5.499995231628418
 20
4.400000095367432
 11
-5.89999532699585
 21
4
  0
LINE
  8
0
  6
CONTINUOUS
 62
     7
 10
-3.299995422363281
 20
2.600000381469727
 11
-3.299995422363281
 21
1
  0
LINE
  8
0
  6
CONTINUOUS
 62
     7
 10
-3.549995422363281
 20
4.399999618530273
 11
-3.549995422363281
 21
3.200000762939453
  0
LINE
  8
0
  6
CONTINUOUS
 62
     7
 10
16.24795150756836
 20
2.600000381469727
 11
16.24795150756836
 21
0
  0
LINE
  8
0
  6
CONTINUOUS
 62
     7
 10
56.24630737304688
 20
2.600000381469727
 11
56.24630737304688
 21
0
  0
LINE
  8
0
  6
CENTER
 62
     7
 10
21.24753189086914
 20
3.362905502319336
 11
21.24753189086914
 21
-0.7349796295166016
  0
LINE
  8
0
  6
CENTER
 62
     7
 10
51.24673843383789
 20
24.32303619384766
 11
51.24673843383789
 21
19.22836685180664
  0
LINE
  8
0
  6
CENTER
 62
     7
 10
51.24673843383789
 20
3.695165634155273
 11
51.24673843383789
 21
-0.5688495635986328
  0
LINE
  8
0
  6
CENTER
 62
     7
 10
36.24713134765625
 20
1.660292744636536
 11
36.24713134765625
 21
-0.7072925567626953
  0
LINE
  8
0
  6
DASHED
 62
     7
 10
-1.199996948242188
 20
1.100000381469727
 11
-1.199996948242188
 21
0
  0
LINE
  8
0
  6
DASHED
 62
     7
 10
1.200004577636719
 20
1.100000381469727
 11
1.200004577636719
 21
0
  0
LINE
  8
0
  6
CONTINUOUS
 62
     7
 10
-5.144968509674072
 20
2.705026149749756
 11
-4.155019283294678
 21
3.69497561454773
  0
LINE
  8
0
  6
CONTINUOUS
 62
     7
 10
-5.144968509674072
 20
3.69497537612915
 11
-4.155019283294678
 21
2.705025911331177
  0
LINE
  8
0
  6
CENTER
 62
     7
 10
36.24753189086914
 20
24.21940231323242
 11
36.24753189086914
 21
19.07152557373047
  0
LINE
  8
0
  6
DASHED
 62
     7
 10
32.77313232421875
 20
2.800000667572022
 11
35.1830940246582
 21
2.800000667572022
  0
LINE
  8
0
  6
DASHED
 62
     7
 10
0.7835006713867188
 20
4.5
 11
0.7835006713867188
 21
2.800000667572022
  0
LINE
  8
0
  6
DASHED
 62
     7
 10
1
 20
4.5
 11
1
 21
2.800000667572022
  0
LINE
  8
0
  6
DASHED
 62
     7
 10
-0.7834968566894531
 20
4.5
 11
-0.7834968566894531
 21
2.800000667572022
  0
LINE
  8
0
  6
DASHED
 62
     7
 10
-1
 20
4.5
 11
-1
 21
2.800000667572022
  0
LINE
  8
0
  6
CENTER
 62
     7
 10
-1.5
 20
3.700000762939453
 11
1.5
 21
3.700000762939453
  0
ARC
  8
0
  6
CONTINUOUS
 62
     7
 10
3.150001525878906
 20
1.75
 40
0.4000000059604644
 50
112.0243094832103
 51
247.9757005347024
  0
ARC
  8
0
  6
CONTINUOUS
 62
     7
 10
2.900001525878906
 20
2.5
 40
0.1000000014901161
 50
0
 51
90.00000250447812
  0
ARC
  8
0
  6
CONTINUOUS
 62
     7
 10
-2.899993896484375
 20
2.5
 40
0.1000000014901162
 50
90.00000250447812
 51
180.0000050089562
  0
CIRCLE
  8
0
  6
CONTINUOUS
 62
     7
 10
4.650001525878906
 20
3.200000762939453
 40
1.100000023841858
  0
ARC
  8
0
  6
CONTINUOUS
 62
     7
 10
3
 20
2.600000381469727
 40
0.300000011920929
 50
0
 51
90.00000250447815
  0
ARC
  8
0
  6
CONTINUOUS
 62
     7
 10
43.3109245300293
 20
2.519617080688477
 40
0.4000000059604644
 50
269.9999974955214
 51
356.999994580432
  0
ARC
  8
0
  6
CONTINUOUS
 62
     7
 10
43.3109245300293
 20
3.880386352539063
 40
0.4000000059604622
 50
3.000005419567939
 51
90.00000250447864
  0
CIRCLE
  8
0
  6
CONTINUOUS
 62
     7
 10
0
 20
3.700000762939453
 40
0.4000000059604645
  0
ARC
  8
0
  6
CONTINUOUS
 62
     7
 10
0
 20
3.700000762939453
 40
0.5
 50
269.9999974955218
 51
90.00000250447815
  0
CIRCLE
  8
0
  6
CONTINUOUS
 62
     7
 10
33.99712753295898
 20
21.76609802246094
 40
1
  0
CIRCLE
  8
0
  6
CONTINUOUS
 62
     7
 10
33.99712753295898
 20
21.76609802246094
 40
0.800000011920929
  0
ARC
  8
0
  6
CONTINUOUS
 62
     7
 10
29.18333435058594
 20
17.79659652709961
 40
0.4000000059604656
 50
89.99999567428895
 51
176.9999946801899
  0
ARC
  8
0
  6
CONTINUOUS
 62
     7
 10
29.18333435058594
 20
16.43582916259766
 40
0.400000005960464
 50
183.0000053198101
 51
270.0000043257111
  0
ARC
  8
0
  6
CONTINUOUS
 62
     7
 10
29.1833381652832
 20
2.519617080688477
 40
0.400000005960464
 50
183.00000531981
 51
270.0000043257111
  0
ARC
  8
0
  6
CONTINUOUS
 62
     7
 10
29.1833381652832
 20
3.880386352539063
 40
0.4000000059604647
 50
89.99999567428895
 51
176.99999468019
  0
ARC
  8
0
  6
CONTINUOUS
 62
     7
 10
29.18333435058594
 20
25.7358283996582
 40
0.400000005960464
 50
183.0000053198101
 51
270.0000043257111
  0
ARC
  8
0
  6
CONTINUOUS
 62
     7
 10
29.18333435058594
 20
27.09659957885742
 40
0.4000000059604656
 50
89.99999567428895
 51
176.9999946801899
  0
ARC
  8
0
  6
CONTINUOUS
 62
     7
 10
43.3109245300293
 20
17.79659652709961
 40
0.4000000059604622
 50
3.000005419567939
 51
90.00000250447864
  0
ARC
  8
0
  6
CONTINUOUS
 62
     7
 10
43.3109245300293
 20
16.43582916259766
 40
0.4000000059604649
 50
269.9999974955214
 51
356.999994580432
  0
ARC
  8
0
  6
CONTINUOUS
 62
     7
 10
43.3109245300293
 20
25.7358283996582
 40
0.4000000059604649
 50
269.9999974955214
 51
356.999994580432
  0
ARC
  8
0
  6
CONTINUOUS
 62
     7
 10
43.3109245300293
 20
27.09659957885742
 40
0.4000000059604622
 50
3.000005419567939
 51
90.00000250447864
  0
CIRCLE
  8
0
  6
CONTINUOUS
 62
     7
 10
21.24753189086914
 20
21.76609802246094
 40
2
  0
CIRCLE
  8
0
  6
CONTINUOUS
 62
     7
 10
21.24753189086914
 20
21.76609802246094
 40
1.200000047683716
  0
ARC
  8
0
  6
CONTINUOUS
 62
     7
 10
0
 20
3.700000762939453
 40
0.4999999999999996
 50
89.999995674289
 51
270.0000006832453
  0
CIRCLE
  8
0
  6
CONTINUOUS
 62
     7
 10
-4.649993896484375
 20
3.200000762939453
 40
1.100000023841858
  0
ARC
  8
0
  6
CONTINUOUS
 62
     7
 10
-3.149993896484375
 20
1.75
 40
0.4000000059604646
 50
292.0242976440648
 51
67.97568869555686
  0
ARC
  8
0
  6
CONTINUOUS
 62
     7
 10
-3
 20
2.600000381469727
 40
0.300000011920929
 50
89.99999567428898
 51
180.0000050089563
  0
TEXT
  8
0
  6
CONTINUOUS
 62
     7
 10
-1.600000023841858
 20
-21.79999995231628
 40
3.599999904632568
 41
1.039215751203318
  1
RSR3WM
  0
ENDSEC
  0
EOF
