  0
SECTION
  2
HEADER
  0
ENDSEC
  0
SECTION
  2
TABLES
  0
TABLE
  2
LTYPE
 70
    22
  0
LTYPE
  2
CONTINUOUS
 70
    64
  3
Solid line
 72
    65
 73
     0
 40
0.000000
  0
LTYPE
  2
DASHED
 70
    64
  3
__ __ __ __ __ __ __ __ __ __ __ __ __ __ __
 72
    65
 73
     2
 40
3.500000
 49
2.000000
 49
-1.500000
  0
LTYPE
  2
CENTER
 70
    64
  3
____ _ ____ _ ____ _ ____ _ ____ _ ____ _ ____
 72
    65
 73
     4
 40
17.500000
 49
13.000000
 49
-1.500000
 49
1.500000
 49
-1.500000
  0
LTYPE
  2
PHANTOM
 70
    64
  3
_____ _ _ _____ _ _ _____ _ _ _____ _ _ ____  
 72
    65
 73
     6
 40
15.500000
 49
8.000000
 49
-1.500000
 49
1.500000
 49
-1.500000
 49
1.500000
 49
-1.500000
  0
LTYPE
  2
DOT
 70
    64
  3
. . . . . . . . . . . . . . . . . . . . . . . .
 72
    65
 73
     2
 40
0.25
 49
0.0
 49
-0.25
  0
ENDTAB
  0
TABLE
  2
LAYER
 70
     1
  0
LAYER
  2
0
 70
     0
 62
     7
  6
CONTINUOUS
  0
ENDTAB
  0
TABLE
  2
STYLE
 70
     1
  0
STYLE
  2
STANDARD
 70
     0
 40
0.000000
 41
1.000000
 50
0.000000
 71
     0
 42
0.200000
  3
txt
  0
ENDTAB
  0
TABLE
  2
VIEW
 70
     0
  0
ENDTAB
  0
ENDSEC
  0
SECTION
  2
BLOCKS
  0
ENDSEC
  0
SECTION
  2
ENTITIES
  0
LINE
  8
0
  6
CONTINUOUS
 62
     7
 10
-2.899993896484375
 20
0
 11
2.900001525878906
 21
0
  0
LINE
  8
0
  6
CONTINUOUS
 62
     7
 10
-2.899993896484375
 20
2.600000381469727
 11
2.900001525878906
 21
2.600000381469727
  0
LINE
  8
0
  6
CONTINUOUS
 62
     7
 10
-3
 20
2.5
 11
-3
 21
2.120811462402344
  0
LINE
  8
0
  6
CONTINUOUS
 62
     7
 10
3
 20
2.5
 11
3
 21
2.120811462402344
  0
LINE
  8
0
  6
CONTINUOUS
 62
     7
 10
-3
 20
1.379190444946289
 11
-3
 21
0.1000003814697266
  0
LINE
  8
0
  6
CONTINUOUS
 62
     7
 10
3
 20
1.379190444946289
 11
3
 21
0.1000003814697266
  0
LINE
  8
0
  6
CONTINUOUS
 62
     7
 10
3.300003051757813
 20
2.600000381469727
 11
3.300003051757813
 21
1
  0
LINE
  8
0
  6
CONTINUOUS
 62
     7
 10
6
 20
4.200000762939453
 11
6
 21
1.30000114440918
  0
LINE
  8
0
  6
CONTINUOUS
 62
     7
 10
5.699999332427979
 20
4.500001430511475
 11
5.999998092651367
 21
4.200002193450928
  0
LINE
  8
0
  6
CONTINUOUS
 62
     7
 10
5.699999332427979
 20
1.000005006790161
 11
5.999998569488525
 21
1.300004243850708
  0
LINE
  8
0
  6
CONTINUOUS
 62
     7
 10
-5.699996948242188
 20
1.000006198883057
 11
-5.999996185302734
 21
1.300005435943604
  0
LINE
  8
0
  6
CONTINUOUS
 62
     7
 10
-3.5
 20
1
 11
-5.699996948242188
 21
1
  0
LINE
  8
0
  6
CONTINUOUS
 62
     7
 10
5.900001525878906
 20
4
 11
5.900001525878906
 21
1.400001525878906
  0
LINE
  8
0
  6
CONTINUOUS
 62
     7
 10
3.150001525878906
 20
1
 11
5.700004577636719
 21
1
  0
LINE
  8
0
  6
CONTINUOUS
 62
     7
 10
5.899997711181641
 20
1.400002956390381
 11
5.500000476837158
 21
1.000005722045898
  0
LINE
  8
0
  6
CONTINUOUS
 62
     7
 10
5.500001907348633
 20
4.400002002716065
 11
5.900004386901856
 21
3.999999523162842
  0
LINE
  8
0
  6
DASHED
 62
     7
 10
33.24712753295898
 20
4.5
 11
33.24712753295898
 21
2.75
  0
LINE
  8
0
  6
DASHED
 62
     7
 10
33.0306282043457
 20
4.5
 11
33.0306282043457
 21
2.75
  0
LINE
  8
0
  6
DASHED
 62
     7
 10
31.46363067626953
 20
4.5
 11
31.46363067626953
 21
2.75
  0
LINE
  8
0
  6
DASHED
 62
     7
 10
31.24712753295898
 20
4.5
 11
31.24712753295898
 21
2.75
  0
LINE
  8
0
  6
CONTINUOUS
 62
     7
 10
-3.299995422363281
 20
1
 11
-5.5
 21
1
  0
LINE
  8
0
  6
CONTINUOUS
 62
     7
 10
16.24795150756836
 20
2.600000381469727
 11
26.27857398986816
 21
2.600000381469727
  0
LINE
  8
0
  6
CONTINUOUS
 62
     7
 10
16.24795150756836
 20
0
 11
56.24630355834961
 21
0
  0
LINE
  8
0
  6
CONTINUOUS
 62
     7
 10
27.44713020324707
 20
4.400001525878906
 11
27.44713020324707
 21
1
  0
LINE
  8
0
  6
CONTINUOUS
 62
     7
 10
26.74712944030762
 20
4.400001525878906
 11
29.59712982177734
 21
4.400001525878906
  0
LINE
  8
0
  6
CONTINUOUS
 62
     7
 10
29.59712982177734
 20
4.5
 11
42.89712905883789
 21
4.5
  0
LINE
  8
0
  6
CONTINUOUS
 62
     7
 10
26.34713172912598
 20
1
 11
36.34712982177734
 21
1
  0
LINE
  8
0
  6
CONTINUOUS
 62
     7
 10
16.24795150756836
 20
2.120811462402344
 11
26.34713172912598
 21
2.120811462402344
  0
LINE
  8
0
  6
CONTINUOUS
 62
     7
 10
16.24795150756836
 20
1.379190444946289
 11
26.34713172912598
 21
1.379190444946289
  0
LINE
  8
0
  6
CONTINUOUS
 62
     7
 10
46.14712905883789
 20
2.120811462402344
 11
56.24630355834961
 21
2.120811462402344
  0
LINE
  8
0
  6
CONTINUOUS
 62
     7
 10
46.14712905883789
 20
1.379190444946289
 11
56.24630355834961
 21
1.379190444946289
  0
LINE
  8
0
  6
CONTINUOUS
 62
     7
 10
29.59712982177734
 20
4.5
 11
29.59712982177734
 21
1
  0
LINE
  8
0
  6
CENTER
 62
     7
 10
32.24712753295898
 20
5.007211208343506
 11
32.24712753295898
 21
2.524459838867188
  0
LINE
  8
0
  6
CONTINUOUS
 62
     7
 10
26.24712944030762
 20
25.82835578918457
 11
26.28388404846191
 21
26.52967643737793
  0
LINE
  8
0
  6
CENTER
 62
     7
 10
0
 20
5.254035949707031
 11
0
 21
-0.6311187744140625
  0
LINE
  8
0
  6
CONTINUOUS
 62
     7
 10
3.000001907348633
 20
1.150004982948303
 11
3.149998903274536
 21
1.00000810623169
  0
LINE
  8
0
  6
CONTINUOUS
 62
     7
 10
26.24713134765625
 20
25.8283576965332
 11
26.28388595581055
 21
25.12703895568848
  0
LINE
  8
0
  6
CONTINUOUS
 62
     7
 10
0
 20
2.900001525878906
 11
3
 21
2.900001525878906
  0
LINE
  8
0
  6
CONTINUOUS
 62
     7
 10
45.0471305847168
 20
4.400001525878906
 11
45.0471305847168
 21
1
  0
LINE
  8
0
  6
CONTINUOUS
 62
     7
 10
45.74712753295898
 20
4.400001525878906
 11
42.89712905883789
 21
4.400001525878906
  0
LINE
  8
0
  6
CONTINUOUS
 62
     7
 10
46.14712905883789
 20
1
 11
36.14712524414063
 21
1
  0
LINE
  8
0
  6
CONTINUOUS
 62
     7
 10
42.89712905883789
 20
4.5
 11
42.89712905883789
 21
1
  0
LINE
  8
0
  6
CENTER
 62
     7
 10
40.24712753295898
 20
5.003535747528076
 11
40.24712753295898
 21
2.556527137756348
  0
LINE
  8
0
  6
CONTINUOUS
 62
     7
 10
46.2156867980957
 20
2.600000381469727
 11
56.24630355834961
 21
2.600000381469727
  0
LINE
  8
0
  6
DASHED
 62
     7
 10
0
 20
1.100000381469727
 11
2
 21
1.100000381469727
  0
LINE
  8
0
  6
DASHED
 62
     7
 10
0
 20
1.100000381469727
 11
-2
 21
1.100000381469727
  0
LINE
  8
0
  6
DASHED
 62
     7
 10
-2
 20
2.600000381469727
 11
-2
 21
1.100000381469727
  0
LINE
  8
0
  6
DASHED
 62
     7
 10
2
 20
2.600000381469727
 11
2
 21
1.100000381469727
  0
LINE
  8
0
  6
DASHED
 62
     7
 10
23.24752807617188
 20
1.100000381469727
 11
19.24752807617188
 21
1.100000381469727
  0
LINE
  8
0
  6
DASHED
 62
     7
 10
19.24752807617188
 20
2.600000381469727
 11
19.24752807617188
 21
1.100000381469727
  0
LINE
  8
0
  6
DASHED
 62
     7
 10
23.24752807617188
 20
2.600000381469727
 11
23.24752807617188
 21
1.100000381469727
  0
LINE
  8
0
  6
CONTINUOUS
 62
     7
 10
3.550003051757813
 20
4.400001525878906
 11
3.550003051757813
 21
3.200000762939453
  0
LINE
  8
0
  6
CONTINUOUS
 62
     7
 10
5.900001525878906
 20
2.100000381469727
 11
4.650001525878906
 21
2.100000381469727
  0
LINE
  8
0
  6
CONTINUOUS
 62
     7
 10
26.74712944030762
 20
2.119617462158203
 11
26.74712944030762
 21
1
  0
LINE
  8
0
  6
CONTINUOUS
 62
     7
 10
26.34713172912598
 20
2.302902221679688
 11
26.34713172912598
 21
1
  0
LINE
  8
0
  6
CONTINUOUS
 62
     7
 10
26.68333625793457
 20
24.74797058105469
 11
27.04713249206543
 21
24.74797058105469
  0
LINE
  8
0
  6
CONTINUOUS
 62
     7
 10
27.04713249206543
 20
26.97824096679688
 11
27.04713249206543
 21
24.57824325561523
  0
LINE
  8
0
  6
CONTINUOUS
 62
     7
 10
26.74712944030762
 20
4.400001525878906
 11
26.74712944030762
 21
4.280387878417969
  0
LINE
  8
0
  6
CONTINUOUS
 62
     7
 10
26.68333625793457
 20
26.90874099731445
 11
27.04713249206543
 21
26.90874099731445
  0
LINE
  8
0
  6
CONTINUOUS
 62
     7
 10
45.74712753295898
 20
4.400001525878906
 11
45.74712753295898
 21
4.280387878417969
  0
LINE
  8
0
  6
CONTINUOUS
 62
     7
 10
45.8109245300293
 20
4.280387878417969
 11
45.44712829589844
 21
4.280387878417969
  0
LINE
  8
0
  6
CONTINUOUS
 62
     7
 10
46.24712753295898
 20
3.199998140335083
 11
46.21037292480469
 21
3.901319742202759
  0
LINE
  8
0
  6
CONTINUOUS
 62
     7
 10
46.24713134765625
 20
3.200005054473877
 11
46.21037673950195
 21
2.498685359954834
  0
LINE
  8
0
  6
CONTINUOUS
 62
     7
 10
45.74712753295898
 20
2.119617462158203
 11
45.74712753295898
 21
1
  0
LINE
  8
0
  6
CONTINUOUS
 62
     7
 10
46.14712905883789
 20
2.302902221679688
 11
46.14712905883789
 21
1
  0
LINE
  8
0
  6
CONTINUOUS
 62
     7
 10
45.8109245300293
 20
2.119617462158203
 11
45.44712829589844
 21
2.119617462158203
  0
LINE
  8
0
  6
CONTINUOUS
 62
     7
 10
45.44712829589844
 20
4.400001525878906
 11
45.44712829589844
 21
2.119617462158203
  0
LINE
  8
0
  6
CONTINUOUS
 62
     7
 10
-3.299995422363281
 20
2.400001525878906
 11
-3.299995422363281
 21
2.120811462402344
  0
LINE
  8
0
  6
DASHED
 62
     7
 10
22.44752883911133
 20
1.100000381469727
 11
22.44752883911133
 21
0
  0
LINE
  8
0
  6
DASHED
 62
     7
 10
20.04752731323242
 20
1.100000381469727
 11
20.04752731323242
 21
0
  0
LINE
  8
0
  6
CONTINUOUS
 62
     7
 10
-2.99999737739563
 20
0.09999900311231613
 11
-2.899993896484375
 21
-4.336910478741629E-006
  0
LINE
  8
0
  6
CONTINUOUS
 62
     7
 10
3.000005483627319
 20
0.09999984502792358
 11
2.900004863739014
 21
-7.965756481098651E-007
  0
LINE
  8
0
  6
DASHED
 62
     7
 10
33.40448760986328
 20
2.75
 11
31.06575202941895
 21
2.75
  0
LINE
  8
0
  6
CONTINUOUS
 62
     7
 10
16.24795150756836
 20
24.17824172973633
 11
16.24795150756836
 21
18.17824172973633
  0
LINE
  8
0
  6
CONTINUOUS
 62
     7
 10
16.24795150756836
 20
18.17824172973633
 11
26.24712944030762
 21
18.17824172973633
  0
LINE
  8
0
  6
CONTINUOUS
 62
     7
 10
16.24795150756836
 20
24.17824172973633
 11
26.24712944030762
 21
24.17824172973633
  0
LINE
  8
0
  6
CENTER
 62
     7
 10
15.24795150756836
 20
21.17824172973633
 11
57.98930358886719
 21
21.17824172973633
  0
LINE
  8
0
  6
CONTINUOUS
 62
     7
 10
29.59712982177734
 20
27.17824172973633
 11
29.59712982177734
 21
15.17824172973633
  0
LINE
  8
0
  6
CONTINUOUS
 62
     7
 10
42.89712905883789
 20
27.17824172973633
 11
42.89712905883789
 21
15.17824172973633
  0
LINE
  8
0
  6
CONTINUOUS
 62
     7
 10
27.44713020324707
 20
27.07824325561523
 11
27.44713020324707
 21
15.27824020385742
  0
LINE
  8
0
  6
CONTINUOUS
 62
     7
 10
26.24712944030762
 20
3.200001955032349
 11
26.28388404846191
 21
3.901323318481445
  0
LINE
  8
0
  6
CONTINUOUS
 62
     7
 10
26.24713134765625
 20
3.200005054473877
 11
26.28388595581055
 21
2.49868369102478
  0
LINE
  8
0
  6
CONTINUOUS
 62
     7
 10
26.68333625793457
 20
4.280387878417969
 11
27.04713249206543
 21
4.280387878417969
  0
LINE
  8
0
  6
CONTINUOUS
 62
     7
 10
26.68333625793457
 20
2.119617462158203
 11
27.04713249206543
 21
2.119617462158203
  0
LINE
  8
0
  6
CONTINUOUS
 62
     7
 10
27.04713249206543
 20
4.400001525878906
 11
27.04713249206543
 21
2.119617462158203
  0
LINE
  8
0
  6
CONTINUOUS
 62
     7
 10
26.24712944030762
 20
16.52835655212402
 11
26.28388404846191
 21
17.22967529296875
  0
LINE
  8
0
  6
CONTINUOUS
 62
     7
 10
26.24712944030762
 20
16.52835845947266
 11
26.28388404846191
 21
15.82703876495361
  0
LINE
  8
0
  6
CONTINUOUS
 62
     7
 10
26.68333625793457
 20
17.60874176025391
 11
27.04713249206543
 21
17.60874176025391
  0
LINE
  8
0
  6
CONTINUOUS
 62
     7
 10
26.68333625793457
 20
15.44797134399414
 11
27.04713249206543
 21
15.44797134399414
  0
LINE
  8
0
  6
CONTINUOUS
 62
     7
 10
27.04713249206543
 20
17.72835540771484
 11
27.04713249206543
 21
15.44797134399414
  0
LINE
  8
0
  6
CONTINUOUS
 62
     7
 10
26.64713096618652
 20
24.57824325561523
 11
27.04713249206543
 21
24.57824325561523
  0
LINE
  8
0
  6
CONTINUOUS
 62
     7
 10
27.04713249206543
 20
17.77824020385742
 11
27.04713249206543
 21
15.3449821472168
  0
LINE
  8
0
  6
CONTINUOUS
 62
     7
 10
26.64713096618652
 20
17.77824020385742
 11
27.04713249206543
 21
17.77824020385742
  0
LINE
  8
0
  6
CONTINUOUS
 62
     7
 10
26.22836875915527
 20
24.32824325561523
 11
26.62837028503418
 21
24.32824325561523
  0
LINE
  8
0
  6
CONTINUOUS
 62
     7
 10
26.24712944030762
 20
18.02824020385742
 11
26.62837028503418
 21
18.02824020385742
  0
LINE
  8
0
  6
CONTINUOUS
 62
     7
 10
45.04712677001953
 20
27.07824325561523
 11
45.04712677001953
 21
15.27824020385742
  0
LINE
  8
0
  6
CONTINUOUS
 62
     7
 10
27.44713020324707
 20
15.27824020385742
 11
29.59712982177734
 21
15.27824020385742
  0
LINE
  8
0
  6
CONTINUOUS
 62
     7
 10
27.44713020324707
 20
27.07824325561523
 11
29.59712982177734
 21
27.07824325561523
  0
LINE
  8
0
  6
CONTINUOUS
 62
     7
 10
42.89712905883789
 20
27.07824325561523
 11
45.04712677001953
 21
27.07824325561523
  0
LINE
  8
0
  6
CONTINUOUS
 62
     7
 10
42.89712905883789
 20
15.27824020385742
 11
45.04712677001953
 21
15.27824020385742
  0
LINE
  8
0
  6
CONTINUOUS
 62
     7
 10
29.59712982177734
 20
27.17824172973633
 11
42.89712905883789
 21
27.17824172973633
  0
LINE
  8
0
  6
CONTINUOUS
 62
     7
 10
29.59712982177734
 20
15.17824172973633
 11
42.89712905883789
 21
15.17824172973633
  0
LINE
  8
0
  6
CONTINUOUS
 62
     7
 10
26.64713096618652
 20
15.3449821472168
 11
27.42836952209473
 21
15.3449821472168
  0
LINE
  8
0
  6
CONTINUOUS
 62
     7
 10
26.64713096618652
 20
26.97824096679688
 11
27.42836952209473
 21
26.97824096679688
  0
LINE
  8
0
  6
CONTINUOUS
 62
     7
 10
26.64713096618652
 20
26.97824096679688
 11
26.64713096618652
 21
26.90874099731445
  0
LINE
  8
0
  6
CONTINUOUS
 62
     7
 10
26.64713096618652
 20
24.74797058105469
 11
26.64713096618652
 21
17.60874176025391
  0
LINE
  8
0
  6
CONTINUOUS
 62
     7
 10
26.64713096618652
 20
15.44961547851563
 11
26.64713096618652
 21
15.3449821472168
  0
LINE
  8
0
  6
CONTINUOUS
 62
     7
 10
26.24712944030762
 20
24.32824325561523
 11
26.24712944030762
 21
18.02824020385742
  0
LINE
  8
0
  6
CONTINUOUS
 62
     7
 10
46.24712753295898
 20
25.8283576965332
 11
46.21037292480469
 21
26.52967834472656
  0
LINE
  8
0
  6
CONTINUOUS
 62
     7
 10
46.24713134765625
 20
25.82835960388184
 11
46.21037673950195
 21
25.12703895568848
  0
LINE
  8
0
  6
CONTINUOUS
 62
     7
 10
45.81092071533203
 20
24.74797058105469
 11
45.44712829589844
 21
24.74797058105469
  0
LINE
  8
0
  6
CONTINUOUS
 62
     7
 10
45.44712829589844
 20
26.97824096679688
 11
45.44712829589844
 21
24.57824325561523
  0
LINE
  8
0
  6
CONTINUOUS
 62
     7
 10
45.81092071533203
 20
26.90874099731445
 11
45.44712829589844
 21
26.90874099731445
  0
LINE
  8
0
  6
CONTINUOUS
 62
     7
 10
45.84712600708008
 20
15.44961547851563
 11
45.84712600708008
 21
15.3449821472168
  0
LINE
  8
0
  6
CONTINUOUS
 62
     7
 10
46.24712753295898
 20
16.52835845947266
 11
46.21037292480469
 21
17.22967910766602
  0
LINE
  8
0
  6
CONTINUOUS
 62
     7
 10
46.24713134765625
 20
16.52836036682129
 11
46.21037673950195
 21
15.82703971862793
  0
LINE
  8
0
  6
CONTINUOUS
 62
     7
 10
45.81092071533203
 20
17.60874176025391
 11
45.44712829589844
 21
17.60874176025391
  0
LINE
  8
0
  6
CONTINUOUS
 62
     7
 10
45.81092071533203
 20
15.44797134399414
 11
45.44712829589844
 21
15.44797134399414
  0
LINE
  8
0
  6
CONTINUOUS
 62
     7
 10
45.44712829589844
 20
17.72835540771484
 11
45.44712829589844
 21
15.44797134399414
  0
LINE
  8
0
  6
CONTINUOUS
 62
     7
 10
45.84712600708008
 20
24.57824325561523
 11
45.44712829589844
 21
24.57824325561523
  0
LINE
  8
0
  6
CONTINUOUS
 62
     7
 10
45.44712829589844
 20
17.77824020385742
 11
45.44712829589844
 21
15.3449821472168
  0
LINE
  8
0
  6
CONTINUOUS
 62
     7
 10
45.84712600708008
 20
17.77824020385742
 11
45.44712829589844
 21
17.77824020385742
  0
LINE
  8
0
  6
CONTINUOUS
 62
     7
 10
46.24712753295898
 20
24.32824325561523
 11
45.84712600708008
 21
24.32824325561523
  0
LINE
  8
0
  6
CONTINUOUS
 62
     7
 10
46.24712753295898
 20
18.02824020385742
 11
45.84712600708008
 21
18.02824020385742
  0
LINE
  8
0
  6
CONTINUOUS
 62
     7
 10
46.24712753295898
 20
24.32824325561523
 11
46.24712753295898
 21
18.02824020385742
  0
LINE
  8
0
  6
CONTINUOUS
 62
     7
 10
45.84712600708008
 20
15.3449821472168
 11
45.04712677001953
 21
15.3449821472168
  0
LINE
  8
0
  6
CONTINUOUS
 62
     7
 10
45.84712600708008
 20
26.97824096679688
 11
45.04712677001953
 21
26.97824096679688
  0
LINE
  8
0
  6
CONTINUOUS
 62
     7
 10
45.84712600708008
 20
26.97824096679688
 11
45.84712600708008
 21
26.90874099731445
  0
LINE
  8
0
  6
CONTINUOUS
 62
     7
 10
45.84712600708008
 20
24.74797058105469
 11
45.84712600708008
 21
17.60874176025391
  0
LINE
  8
0
  6
CONTINUOUS
 62
     7
 10
-5.899993896484375
 20
4
 11
-5.899993896484375
 21
1.400001525878906
  0
LINE
  8
0
  6
CONTINUOUS
 62
     7
 10
-3.299995422363281
 20
2.600000381469727
 11
-3.299995422363281
 21
1
  0
LINE
  8
0
  6
CONTINUOUS
 62
     7
 10
5.700000762939453
 20
4.5
 11
-5.699996948242188
 21
4.5
  0
LINE
  8
0
  6
CONTINUOUS
 62
     7
 10
5.500002384185791
 20
4.400001525878906
 11
-5.5
 21
4.400001525878906
  0
LINE
  8
0
  6
CONTINUOUS
 62
     7
 10
-3.149993896484375
 20
1
 11
-5.699996948242188
 21
1
  0
LINE
  8
0
  6
CONTINUOUS
 62
     7
 10
-5.899994373321533
 20
1.400001883506775
 11
-5.499997138977051
 21
1.000004768371582
  0
LINE
  8
0
  6
CONTINUOUS
 62
     7
 10
-5.49999475479126
 20
4.400002479553223
 11
-5.899994850158691
 21
4.000002384185791
  0
LINE
  8
0
  6
CONTINUOUS
 62
     7
 10
-5.899993896484375
 20
2.100000381469727
 11
-4.649993896484375
 21
2.100000381469727
  0
LINE
  8
0
  6
CONTINUOUS
 62
     7
 10
-2.99999737739563
 20
0.09999900311231613
 11
-2.899999380111694
 21
1.057885924637958E-006
  0
LINE
  8
0
  6
CONTINUOUS
 62
     7
 10
-3.549995422363281
 20
4.400001525878906
 11
-3.549995422363281
 21
3.200000762939453
  0
LINE
  8
0
  6
CONTINUOUS
 62
     7
 10
-6
 20
4.200000762939453
 11
-6
 21
1.30000114440918
  0
LINE
  8
0
  6
CONTINUOUS
 62
     7
 10
-5.699991703033447
 20
1.000000834465027
 11
-5.999996185302734
 21
1.300005435943604
  0
LINE
  8
0
  6
CONTINUOUS
 62
     7
 10
0
 20
2.900001525878906
 11
-3
 21
2.900001525878906
  0
LINE
  8
0
  6
CONTINUOUS
 62
     7
 10
-5.699990749359131
 20
4.500000476837158
 11
-5.999989986419678
 21
4.200001239776611
  0
LINE
  8
0
  6
CONTINUOUS
 62
     7
 10
-2.999996423721314
 20
1.150002360343933
 11
-3.149993419647217
 21
1.000005483627319
  0
LINE
  8
0
  6
CONTINUOUS
 62
     7
 10
56.24630355834961
 20
24.17824172973633
 11
56.24630355834961
 21
18.17824172973633
  0
LINE
  8
0
  6
CONTINUOUS
 62
     7
 10
56.24630355834961
 20
18.17824172973633
 11
46.24712753295898
 21
18.17824172973633
  0
LINE
  8
0
  6
CONTINUOUS
 62
     7
 10
56.24630355834961
 20
24.17824172973633
 11
46.24712753295898
 21
24.17824172973633
  0
LINE
  8
0
  6
CENTER
 62
     7
 10
36.24712753295898
 20
1.594509720802307
 11
36.24712753295898
 21
-0.9837684631347656
  0
LINE
  8
0
  6
CONTINUOUS
 62
     7
 10
16.24795150756836
 20
2.600000381469727
 11
16.24795150756836
 21
0
  0
LINE
  8
0
  6
CONTINUOUS
 62
     7
 10
56.24630355834961
 20
2.600000381469727
 11
56.24630355834961
 21
0
  0
LINE
  8
0
  6
CENTER
 62
     7
 10
21.24752807617188
 20
3.414871215820313
 11
21.24752807617188
 21
-1.322126388549805
  0
LINE
  8
0
  6
CENTER
 62
     7
 10
51.24672698974609
 20
3.584049224853516
 11
51.24672698974609
 21
-1.322126388549805
  0
LINE
  8
0
  6
DASHED
 62
     7
 10
-1.199996948242188
 20
1.100000381469727
 11
-1.199996948242188
 21
0
  0
LINE
  8
0
  6
DASHED
 62
     7
 10
1.200004577636719
 20
1.100000381469727
 11
1.200004577636719
 21
0
  0
LINE
  8
0
  6
CONTINUOUS
 62
     7
 10
-5.144968509674072
 20
3.69497537612915
 11
-4.155019283294678
 21
2.705025911331177
  0
LINE
  8
0
  6
CONTINUOUS
 62
     7
 10
-5.144968509674072
 20
2.705026149749756
 11
-4.155019283294678
 21
3.69497561454773
  0
LINE
  8
0
  6
CENTER
 62
     7
 10
32.24712753295898
 20
22.31324195861816
 11
32.24712753295898
 21
20.04324150085449
  0
LINE
  8
0
  6
CENTER
 62
     7
 10
40.24712753295898
 20
22.31324195861816
 11
40.24712753295898
 21
20.04324150085449
  0
LINE
  8
0
  6
CENTER
 62
     7
 10
21.24752807617188
 20
23.31324195861816
 11
21.24752807617188
 21
19.04324150085449
  0
LINE
  8
0
  6
CENTER
 62
     7
 10
36.24752807617188
 20
23.31324195861816
 11
36.24752807617188
 21
19.04324150085449
  0
LINE
  8
0
  6
CENTER
 62
     7
 10
51.24752807617188
 20
23.31324195861816
 11
51.24752807617188
 21
19.04324150085449
  0
LINE
  8
0
  6
DASHED
 62
     7
 10
0.7835006713867188
 20
4.5
 11
0.7835006713867188
 21
2.75
  0
LINE
  8
0
  6
DASHED
 62
     7
 10
-1
 20
4.5
 11
-1
 21
2.75
  0
LINE
  8
0
  6
DASHED
 62
     7
 10
1
 20
4.5
 11
1
 21
2.75
  0
LINE
  8
0
  6
DASHED
 62
     7
 10
-0.7834968566894531
 20
4.5
 11
-0.7834968566894531
 21
2.75
  0
LINE
  8
0
  6
CENTER
 62
     7
 10
-1.5
 20
3.700000762939453
 11
1.5
 21
3.700000762939453
  0
ARC
  8
0
  6
CONTINUOUS
 62
     7
 10
3.150001525878906
 20
1.75
 40
0.4000000059604644
 50
112.0243094832103
 51
247.9757005347024
  0
ARC
  8
0
  6
CONTINUOUS
 62
     7
 10
2.900001525878906
 20
2.5
 40
0.1000000014901161
 50
0
 51
90.00000250447812
  0
ARC
  8
0
  6
CONTINUOUS
 62
     7
 10
-2.899993896484375
 20
2.5
 40
0.1000000014901162
 50
90.00000250447812
 51
180.0000050089562
  0
CIRCLE
  8
0
  6
CONTINUOUS
 62
     7
 10
4.650001525878906
 20
3.200000762939453
 40
1.100000023841858
  0
ARC
  8
0
  6
CONTINUOUS
 62
     7
 10
26.68333625793457
 20
26.50874328613281
 40
0.4000000059604649
 50
90.00000250447812
 51
176.9999946801899
  0
ARC
  8
0
  6
CONTINUOUS
 62
     7
 10
26.68333625793457
 20
25.14797210693359
 40
0.400000005960464
 50
183.0000053198101
 51
269.9999974955219
  0
ARC
  8
0
  6
CONTINUOUS
 62
     7
 10
3
 20
2.600000381469727
 40
0.300000011920929
 50
0
 51
90.00000250447815
  0
ARC
  8
0
  6
CONTINUOUS
 62
     7
 10
45.8109245300293
 20
2.519617080688477
 40
0.4000000059604644
 50
269.9999974955214
 51
356.999994580432
  0
ARC
  8
0
  6
CONTINUOUS
 62
     7
 10
45.8109245300293
 20
3.880386352539063
 40
0.4000000059604622
 50
3.000005419567939
 51
90.00000250447864
  0
ARC
  8
0
  6
CONTINUOUS
 62
     7
 10
0
 20
3.700000762939453
 40
0.5
 50
269.9999974955218
 51
90.00000250447815
  0
CIRCLE
  8
0
  6
CONTINUOUS
 62
     7
 10
21.24752807617188
 20
21.17824172973633
 40
2
  0
CIRCLE
  8
0
  6
CONTINUOUS
 62
     7
 10
21.24752807617188
 20
21.17824172973633
 40
1.200000047683716
  0
CIRCLE
  8
0
  6
CONTINUOUS
 62
     7
 10
32.24712753295898
 20
21.17824172973633
 40
1
  0
ARC
  8
0
  6
CONTINUOUS
 62
     7
 10
26.68333625793457
 20
3.880386352539063
 40
0.4000000059604649
 50
90.00000250447812
 51
176.99999468019
  0
ARC
  8
0
  6
CONTINUOUS
 62
     7
 10
26.68333625793457
 20
2.519617080688477
 40
0.400000005960464
 50
183.00000531981
 51
269.9999974955219
  0
ARC
  8
0
  6
CONTINUOUS
 62
     7
 10
26.68333625793457
 20
17.208740234375
 40
0.4000000059604649
 50
90.00000250447812
 51
176.9999946801899
  0
ARC
  8
0
  6
CONTINUOUS
 62
     7
 10
26.68333625793457
 20
15.84797286987305
 40
0.400000005960464
 50
183.0000053198101
 51
269.9999974955219
  0
ARC
  8
0
  6
CONTINUOUS
 62
     7
 10
45.81092071533203
 20
15.84797286987305
 40
0.4000000059604639
 50
270.0000043257111
 51
356.999994580432
  0
ARC
  8
0
  6
CONTINUOUS
 62
     7
 10
45.81092071533203
 20
25.14797210693359
 40
0.4000000059604656
 50
270.0000043257111
 51
356.999994580432
  0
ARC
  8
0
  6
CONTINUOUS
 62
     7
 10
45.81092071533203
 20
17.208740234375
 40
0.4000000059604622
 50
3.000005419567939
 51
89.99999567428895
  0
ARC
  8
0
  6
CONTINUOUS
 62
     7
 10
45.81092071533203
 20
26.50874328613281
 40
0.4000000059604622
 50
3.000005419567939
 51
89.99999567428895
  0
ARC
  8
0
  6
CONTINUOUS
 62
     7
 10
-3.149993896484375
 20
1.75
 40
0.4000000059604646
 50
292.0242976440648
 51
67.97568869555686
  0
ARC
  8
0
  6
CONTINUOUS
 62
     7
 10
-2.899993896484375
 20
2.5
 40
0.100000001490116
 50
89.99999567428895
 51
180.0000050089562
  0
CIRCLE
  8
0
  6
CONTINUOUS
 62
     7
 10
0
 20
3.700000762939453
 40
0.4000000059604645
  0
ARC
  8
0
  6
CONTINUOUS
 62
     7
 10
-3
 20
2.600000381469727
 40
0.300000011920929
 50
89.99999567428898
 51
180.0000050089563
  0
CIRCLE
  8
0
  6
CONTINUOUS
 62
     7
 10
-4.649993896484375
 20
3.200000762939453
 40
1.100000023841858
  0
ARC
  8
0
  6
CONTINUOUS
 62
     7
 10
0
 20
3.700000762939453
 40
0.4999999999999996
 50
89.999995674289
 51
270.0000006832453
  0
CIRCLE
  8
0
  6
CONTINUOUS
 62
     7
 10
32.24712753295898
 20
21.17824172973633
 40
0.800000011920929
  0
TEXT
  8
0
  6
CONTINUOUS
 62
     7
 10
1.81465756893158
 20
-15.87046122550964
 40
3.599999904632568
 41
1.039215751203318
  1
RSR3WN
  0
ENDSEC
  0
EOF
