  0
SECTION
  2
HEADER
  0
ENDSEC
  0
SECTION
  2
TABLES
  0
TABLE
  2
LTYPE
 70
    22
  0
LTYPE
  2
CONTINUOUS
 70
    64
  3
Solid line
 72
    65
 73
     0
 40
0.000000
  0
LTYPE
  2
DASHED
 70
    64
  3
__ __ __ __ __ __ __ __ __ __ __ __ __ __ __
 72
    65
 73
     2
 40
3.500000
 49
2.000000
 49
-1.500000
  0
LTYPE
  2
CENTER
 70
    64
  3
____ _ ____ _ ____ _ ____ _ ____ _ ____ _ ____
 72
    65
 73
     4
 40
17.500000
 49
13.000000
 49
-1.500000
 49
1.500000
 49
-1.500000
  0
LTYPE
  2
PHANTOM
 70
    64
  3
_____ _ _ _____ _ _ _____ _ _ _____ _ _ ____  
 72
    65
 73
     6
 40
15.500000
 49
8.000000
 49
-1.500000
 49
1.500000
 49
-1.500000
 49
1.500000
 49
-1.500000
  0
LTYPE
  2
DOT
 70
    64
  3
. . . . . . . . . . . . . . . . . . . . . . . .
 72
    65
 73
     2
 40
0.25
 49
0.0
 49
-0.25
  0
ENDTAB
  0
TABLE
  2
LAYER
 70
     1
  0
LAYER
  2
0
 70
     0
 62
     7
  6
CONTINUOUS
  0
ENDTAB
  0
TABLE
  2
STYLE
 70
     1
  0
STYLE
  2
STANDARD
 70
     0
 40
0.000000
 41
1.000000
 50
0.000000
 71
     0
 42
0.200000
  3
txt
  0
ENDTAB
  0
TABLE
  2
VIEW
 70
     0
  0
ENDTAB
  0
ENDSEC
  0
SECTION
  2
BLOCKS
  0
ENDSEC
  0
SECTION
  2
ENTITIES
  0
LINE
  8
0
  6
CONTINUOUS
 62
     7
 10
5
 20
3.899993896484375
 11
5
 21
3.204498291015625
  0
LINE
  8
0
  6
CONTINUOUS
 62
     7
 10
4.899986743927002
 20
3.999992370605469
 11
4.999984741210938
 21
3.899994611740112
  0
LINE
  8
0
  6
CONTINUOUS
 62
     7
 10
4.999995231628418
 20
0.0999968945980072
 11
4.899997711181641
 21
-1.049456386681413E-006
  0
LINE
  8
0
  6
CONTINUOUS
 62
     7
 10
5
 20
2.195510864257813
 11
5
 21
0.100006103515625
  0
LINE
  8
0
  6
CONTINUOUS
 62
     7
 10
8.199983596801758
 20
6.500005722045898
 11
8.499978065490723
 21
6.200011730194092
  0
LINE
  8
0
  6
CONTINUOUS
 62
     7
 10
8.5
 20
6.20001220703125
 11
8.5
 21
1.800003051757813
  0
LINE
  8
0
  6
CONTINUOUS
 62
     7
 10
8.199982643127441
 20
1.50001072883606
 11
8.499977111816406
 21
1.800004601478577
  0
LINE
  8
0
  6
CONTINUOUS
 62
     7
 10
8.20001220703125
 20
1.5
 11
5
 21
1.5
  0
LINE
  8
0
  6
CONTINUOUS
 62
     7
 10
5.399993896484375
 20
3.800003051757813
 11
5.399993896484375
 21
1.5
  0
LINE
  8
0
  6
CONTINUOUS
 62
     7
 10
16.64999389648438
 20
0
 11
66.64999389648438
 21
0
  0
LINE
  8
0
  6
CONTINUOUS
 62
     7
 10
16.64999389648438
 20
2.195510864257813
 11
30.64998626708984
 21
2.195510864257813
  0
LINE
  8
0
  6
CONTINUOUS
 62
     7
 10
16.64999389648438
 20
3.204498291015625
 11
30.64998626708984
 21
3.204498291015625
  0
LINE
  8
0
  6
CONTINUOUS
 62
     7
 10
16.64999389648438
 20
4
 11
30.64998626708984
 21
4
  0
LINE
  8
0
  6
CONTINUOUS
 62
     7
 10
34.89998626708984
 20
1.5
 11
48.39998626708984
 21
1.5
  0
LINE
  8
0
  6
CONTINUOUS
 62
     7
 10
34.89998626708984
 20
6.5
 11
48.39998626708984
 21
6.5
  0
LINE
  8
0
  6
CONTINUOUS
 62
     7
 10
52.64998626708984
 20
4
 11
66.64999389648438
 21
4
  0
LINE
  8
0
  6
CONTINUOUS
 62
     7
 10
52.64998626708984
 20
3.204498291015625
 11
66.64999389648438
 21
3.204498291015625
  0
LINE
  8
0
  6
CONTINUOUS
 62
     7
 10
52.64998626708984
 20
2.195510864257813
 11
66.64999389648438
 21
2.195510864257813
  0
LINE
  8
0
  6
CONTINUOUS
 62
     7
 10
34.89998626708984
 20
6.5
 11
34.89998626708984
 21
1.5
  0
LINE
  8
0
  6
CONTINUOUS
 62
     7
 10
48.39998626708984
 20
6.5
 11
48.39998626708984
 21
1.5
  0
LINE
  8
0
  6
CONTINUOUS
 62
     7
 10
51.14998626708984
 20
6.399993896484375
 11
51.14998626708984
 21
1.600006103515625
  0
LINE
  8
0
  6
CONTINUOUS
 62
     7
 10
31.14998626708984
 20
6.399993896484375
 11
34.89998626708984
 21
6.399993896484375
  0
LINE
  8
0
  6
CONTINUOUS
 62
     7
 10
30.64998626708984
 20
1.600006103515625
 11
34.89998626708984
 21
1.600006103515625
  0
LINE
  8
0
  6
CONTINUOUS
 62
     7
 10
48.39998626708984
 20
6.399993896484375
 11
52.14998626708984
 21
6.399993896484375
  0
LINE
  8
0
  6
CONTINUOUS
 62
     7
 10
48.39998626708984
 20
1.600006103515625
 11
52.64998626708984
 21
1.600006103515625
  0
LINE
  8
0
  6
CENTER
 62
     7
 10
44.89999389648438
 20
6.951522827148438
 11
44.89999389648438
 21
3.59405517578125
  0
LINE
  8
0
  6
CONTINUOUS
 62
     7
 10
-5
 20
3.899993896484375
 11
-5
 21
3.204498291015625
  0
LINE
  8
0
  6
CONTINUOUS
 62
     7
 10
4.899979114532471
 20
4
 11
-4.9000244140625
 21
4
  0
LINE
  8
0
  6
CONTINUOUS
 62
     7
 10
-4.900007724761963
 20
4.000002384185791
 11
-5.00000524520874
 21
3.900004148483276
  0
LINE
  8
0
  6
CONTINUOUS
 62
     7
 10
-5.00000524520874
 20
0.09999571740627289
 11
-4.900007247924805
 21
-2.229568508482771E-006
  0
LINE
  8
0
  6
CONTINUOUS
 62
     7
 10
-5
 20
2.195510864257813
 11
-5
 21
0.100006103515625
  0
LINE
  8
0
  6
CONTINUOUS
 62
     7
 10
4.899998664855957
 20
0
 11
-4.9000244140625
 21
0
  0
LINE
  8
0
  6
CONTINUOUS
 62
     7
 10
32.14998626708984
 20
6.399993896484375
 11
32.14998626708984
 21
1.600006103515625
  0
LINE
  8
0
  6
CONTINUOUS
 62
     7
 10
30.64998626708984
 20
4.399993896484375
 11
30.64998626708984
 21
1.600006103515625
  0
LINE
  8
0
  6
CONTINUOUS
 62
     7
 10
30.64998626708984
 20
4.399993896484375
 11
31.14998626708984
 21
4.399993896484375
  0
LINE
  8
0
  6
CONTINUOUS
 62
     7
 10
52.14998626708984
 20
6.399993896484375
 11
52.14998626708984
 21
1.600006103515625
  0
LINE
  8
0
  6
CONTINUOUS
 62
     7
 10
52.64998626708984
 20
4.399993896484375
 11
52.64998626708984
 21
1.600006103515625
  0
LINE
  8
0
  6
CONTINUOUS
 62
     7
 10
52.64998626708984
 20
4.399993896484375
 11
52.14998626708984
 21
4.399993896484375
  0
LINE
  8
0
  6
CENTER
 62
     7
 10
0
 20
6.9515380859375
 11
0
 21
-0.84539794921875
  0
LINE
  8
0
  6
CENTER
 62
     7
 10
38.39999389648438
 20
6.951522827148438
 11
38.39999389648438
 21
3.773330688476563
  0
LINE
  8
0
  6
DASHED
 62
     7
 10
36.89999389648438
 20
6.5
 11
36.89999389648438
 21
4.199934005737305
  0
LINE
  8
0
  6
DASHED
 62
     7
 10
37.14999389648438
 20
6.5
 11
37.14999389648438
 21
4.199934005737305
  0
LINE
  8
0
  6
DASHED
 62
     7
 10
39.64999389648438
 20
6.5
 11
39.64999389648438
 21
4.199934005737305
  0
LINE
  8
0
  6
DASHED
 62
     7
 10
39.89999389648438
 20
6.5
 11
39.89999389648438
 21
4.199934005737305
  0
LINE
  8
0
  6
DASHED
 62
     7
 10
-2.75
 20
4
 11
-2.75
 21
1
  0
LINE
  8
0
  6
DASHED
 62
     7
 10
-2.707489013671875
 20
1
 11
2.75
 21
1
  0
LINE
  8
0
  6
DASHED
 62
     7
 10
2.75
 20
4
 11
2.75
 21
1
  0
LINE
  8
0
  6
DASHED
 62
     7
 10
18.89999389648438
 20
4
 11
18.89999389648438
 21
1
  0
LINE
  8
0
  6
DASHED
 62
     7
 10
18.94252014160156
 20
1
 11
24.39999389648438
 21
1
  0
LINE
  8
0
  6
DASHED
 62
     7
 10
20.14999389648438
 20
1
 11
20.14999389648438
 21
0
  0
LINE
  8
0
  6
DASHED
 62
     7
 10
23.14999389648438
 20
1
 11
23.14999389648438
 21
0
  0
LINE
  8
0
  6
DASHED
 62
     7
 10
24.39999389648438
 20
4
 11
24.39999389648438
 21
1
  0
LINE
  8
0
  6
DASHED
 62
     7
 10
-1.5
 20
1
 11
-1.5
 21
0
  0
LINE
  8
0
  6
DASHED
 62
     7
 10
1.5
 20
1
 11
1.5
 21
0
  0
LINE
  8
0
  6
CONTINUOUS
 62
     7
 10
16.64999389648438
 20
27.60968017578125
 11
16.64999389648438
 21
17.60968017578125
  0
LINE
  8
0
  6
CONTINUOUS
 62
     7
 10
66.64999389648438
 20
27.60968017578125
 11
66.64999389648438
 21
17.60968017578125
  0
LINE
  8
0
  6
CONTINUOUS
 62
     7
 10
16.64999389648438
 20
17.60968017578125
 11
30.64998626708984
 21
17.60968017578125
  0
LINE
  8
0
  6
CONTINUOUS
 62
     7
 10
16.64999389648438
 20
27.60968017578125
 11
30.64998626708984
 21
27.60968017578125
  0
LINE
  8
0
  6
CONTINUOUS
 62
     7
 10
34.89998626708984
 20
31.10968017578125
 11
34.89998626708984
 21
14.10968017578125
  0
LINE
  8
0
  6
CONTINUOUS
 62
     7
 10
48.39998626708984
 20
31.10968017578125
 11
48.39998626708984
 21
14.10968017578125
  0
LINE
  8
0
  6
CENTER
 62
     7
 10
15.25691223144531
 20
22.60968017578125
 11
67.64999389648438
 21
22.60968017578125
  0
LINE
  8
0
  6
CONTINUOUS
 62
     7
 10
34.89998626708984
 20
31.10968017578125
 11
48.39998626708984
 21
31.10968017578125
  0
LINE
  8
0
  6
CONTINUOUS
 62
     7
 10
34.89998626708984
 20
14.10968017578125
 11
48.39998626708984
 21
14.10968017578125
  0
LINE
  8
0
  6
CENTER
 62
     7
 10
21.64999389648438
 20
26.8056640625
 11
21.64999389648438
 21
18.48994445800781
  0
LINE
  8
0
  6
CENTER
 62
     7
 10
61.64999389648438
 20
26.412353515625
 11
61.64999389648438
 21
18.77088928222656
  0
LINE
  8
0
  6
CONTINUOUS
 62
     7
 10
32.14998626708984
 20
31.00967407226563
 11
32.14998626708984
 21
14.20968627929688
  0
LINE
  8
0
  6
CONTINUOUS
 62
     7
 10
32.14998626708984
 20
31.00967407226563
 11
34.89998626708984
 21
31.00967407226563
  0
LINE
  8
0
  6
CONTINUOUS
 62
     7
 10
32.14998626708984
 20
14.20968627929688
 11
34.89998626708984
 21
14.20968627929688
  0
LINE
  8
0
  6
CONTINUOUS
 62
     7
 10
30.64998626708984
 20
27.70968627929688
 11
30.64998626708984
 21
17.50967407226563
  0
LINE
  8
0
  6
CONTINUOUS
 62
     7
 10
31.14998626708984
 20
30.80967712402344
 11
32.14998626708984
 21
30.80967712402344
  0
LINE
  8
0
  6
CONTINUOUS
 62
     7
 10
31.14998626708984
 20
14.40968322753906
 11
32.14998626708984
 21
14.40968322753906
  0
LINE
  8
0
  6
CONTINUOUS
 62
     7
 10
31.14998626708984
 20
30.80967712402344
 11
31.14998626708984
 21
28.20968627929688
  0
LINE
  8
0
  6
CONTINUOUS
 62
     7
 10
31.64998626708984
 20
30.80967712402344
 11
31.64998626708984
 21
14.40968322753906
  0
LINE
  8
0
  6
CONTINUOUS
 62
     7
 10
31.14998626708984
 20
6.399993896484375
 11
31.14998626708984
 21
1.600006103515625
  0
LINE
  8
0
  6
CONTINUOUS
 62
     7
 10
31.14998626708984
 20
30.40968322753906
 11
31.64998626708984
 21
30.40968322753906
  0
LINE
  8
0
  6
CONTINUOUS
 62
     7
 10
31.14998626708984
 20
28.20968627929688
 11
31.64998626708984
 21
28.20968627929688
  0
LINE
  8
0
  6
CONTINUOUS
 62
     7
 10
31.14998626708984
 20
14.80967712402344
 11
31.64998626708984
 21
14.80967712402344
  0
LINE
  8
0
  6
CONTINUOUS
 62
     7
 10
31.14998626708984
 20
17.00967407226563
 11
31.64998626708984
 21
17.00967407226563
  0
LINE
  8
0
  6
CONTINUOUS
 62
     7
 10
31.14998626708984
 20
28.20968627929688
 11
31.14998626708984
 21
17.00967407226563
  0
LINE
  8
0
  6
CONTINUOUS
 62
     7
 10
31.14998626708984
 20
17.00967407226563
 11
31.14998626708984
 21
14.40968322753906
  0
LINE
  8
0
  6
CONTINUOUS
 62
     7
 10
30.64998626708984
 20
17.50967407226563
 11
31.14998626708984
 21
17.50967407226563
  0
LINE
  8
0
  6
CONTINUOUS
 62
     7
 10
30.64998626708984
 20
27.70968627929688
 11
31.14998626708984
 21
27.70968627929688
  0
LINE
  8
0
  6
CONTINUOUS
 62
     7
 10
52.64998626708984
 20
27.60968017578125
 11
66.64999389648438
 21
27.60968017578125
  0
LINE
  8
0
  6
CONTINUOUS
 62
     7
 10
52.64998626708984
 20
17.60968017578125
 11
66.64999389648438
 21
17.60968017578125
  0
LINE
  8
0
  6
CONTINUOUS
 62
     7
 10
51.14998626708984
 20
31.00967407226563
 11
51.14998626708984
 21
14.20968627929688
  0
LINE
  8
0
  6
CONTINUOUS
 62
     7
 10
52.64998626708984
 20
27.70968627929688
 11
52.64998626708984
 21
17.50967407226563
  0
LINE
  8
0
  6
CONTINUOUS
 62
     7
 10
52.14998626708984
 20
28.20968627929688
 11
51.64998626708984
 21
28.20968627929688
  0
LINE
  8
0
  6
CONTINUOUS
 62
     7
 10
52.14998626708984
 20
28.20968627929688
 11
52.14998626708984
 21
17.00967407226563
  0
LINE
  8
0
  6
CONTINUOUS
 62
     7
 10
52.64998626708984
 20
27.70968627929688
 11
52.14998626708984
 21
27.70968627929688
  0
LINE
  8
0
  6
CONTINUOUS
 62
     7
 10
51.64998626708984
 20
30.80967712402344
 11
51.64998626708984
 21
14.40968322753906
  0
LINE
  8
0
  6
CONTINUOUS
 62
     7
 10
52.14998626708984
 20
30.80967712402344
 11
52.14998626708984
 21
28.20968627929688
  0
LINE
  8
0
  6
CONTINUOUS
 62
     7
 10
52.14998626708984
 20
14.80967712402344
 11
51.64998626708984
 21
14.80967712402344
  0
LINE
  8
0
  6
CONTINUOUS
 62
     7
 10
52.14998626708984
 20
17.00967407226563
 11
51.64998626708984
 21
17.00967407226563
  0
LINE
  8
0
  6
CONTINUOUS
 62
     7
 10
52.14998626708984
 20
17.00967407226563
 11
52.14998626708984
 21
14.40968322753906
  0
LINE
  8
0
  6
CONTINUOUS
 62
     7
 10
52.64998626708984
 20
17.50967407226563
 11
52.14998626708984
 21
17.50967407226563
  0
LINE
  8
0
  6
CONTINUOUS
 62
     7
 10
52.14998626708984
 20
14.40968322753906
 11
51.14998626708984
 21
14.40968322753906
  0
LINE
  8
0
  6
CONTINUOUS
 62
     7
 10
51.14998626708984
 20
14.20968627929688
 11
48.39998626708984
 21
14.20968627929688
  0
LINE
  8
0
  6
CONTINUOUS
 62
     7
 10
51.14998626708984
 20
31.00967407226563
 11
48.39998626708984
 21
31.00967407226563
  0
LINE
  8
0
  6
CONTINUOUS
 62
     7
 10
52.14998626708984
 20
30.80967712402344
 11
51.14998626708984
 21
30.80967712402344
  0
LINE
  8
0
  6
CONTINUOUS
 62
     7
 10
52.14998626708984
 20
30.40968322753906
 11
51.64998626708984
 21
30.40968322753906
  0
LINE
  8
0
  6
CONTINUOUS
 62
     7
 10
0
 20
6.5
 11
-8.20001220703125
 21
6.5
  0
LINE
  8
0
  6
CONTINUOUS
 62
     7
 10
-8.200015068054199
 20
6.500004291534424
 11
-8.500008583068848
 21
6.200010299682617
  0
LINE
  8
0
  6
CONTINUOUS
 62
     7
 10
-8.5
 20
6.20001220703125
 11
-8.5
 21
1.800003051757813
  0
LINE
  8
0
  6
CONTINUOUS
 62
     7
 10
-8.200003623962402
 20
1.500001311302185
 11
-8.500019073486328
 21
1.800016760826111
  0
LINE
  8
0
  6
CONTINUOUS
 62
     7
 10
-8.20001220703125
 20
1.5
 11
-5
 21
1.5
  0
LINE
  8
0
  6
CONTINUOUS
 62
     7
 10
-5.4000244140625
 20
3.800003051757813
 11
-5.4000244140625
 21
1.5
  0
LINE
  8
0
  6
CONTINUOUS
 62
     7
 10
4.796669006347656
 20
4.399993896484375
 11
-4.800018310546875
 21
4.399993896484375
  0
LINE
  8
0
  6
CONTINUOUS
 62
     7
 10
8.199990272521973
 20
6.5
 11
-8.20001220703125
 21
6.5
  0
LINE
  8
0
  6
CONTINUOUS
 62
     7
 10
16.64999389648438
 20
4
 11
16.64999389648438
 21
0
  0
LINE
  8
0
  6
CONTINUOUS
 62
     7
 10
66.64999389648438
 20
4
 11
66.64999389648438
 21
0
  0
LINE
  8
0
  6
CENTER
 62
     7
 10
21.64999389648438
 20
4.9500732421875
 11
21.64999389648438
 21
-0.9928131103515625
  0
LINE
  8
0
  6
CENTER
 62
     7
 10
61.64999389648438
 20
4.637283325195313
 11
61.64999389648438
 21
-0.9928131103515625
  0
LINE
  8
0
  6
CENTER
 62
     7
 10
41.64999389648438
 20
5.219619750976563
 11
41.64999389648438
 21
-0.972198486328125
  0
LINE
  8
0
  6
CONTINUOUS
 62
     7
 10
-8.20001220703125
 20
5.399993896484375
 11
-8.20001220703125
 21
2
  0
LINE
  8
0
  6
CONTINUOUS
 62
     7
 10
8.20001220703125
 20
5.399993896484375
 11
8.20001220703125
 21
2
  0
LINE
  8
0
  6
CONTINUOUS
 62
     7
 10
-7.70001220703125
 20
5.899993896484375
 11
7.70001220703125
 21
5.899993896484375
  0
LINE
  8
0
  6
CONTINUOUS
 62
     7
 10
-8.200004577636719
 20
5.400001525878906
 11
-7.700003623962402
 21
5.900002002716065
  0
LINE
  8
0
  6
CONTINUOUS
 62
     7
 10
-8.199993133544922
 20
1.999995470046997
 11
-7.700003147125244
 21
1.500005722045898
  0
LINE
  8
0
  6
CONTINUOUS
 62
     7
 10
7.700009822845459
 20
1.49998950958252
 11
8.200010299682617
 21
1.999989986419678
  0
LINE
  8
0
  6
CONTINUOUS
 62
     7
 10
7.69998836517334
 20
5.900006771087647
 11
8.199999809265137
 21
5.39999532699585
  0
LINE
  8
0
  6
CENTER
 62
     7
 10
38.39999389648438
 20
24.24468040466309
 11
38.39999389648438
 21
20.97467994689941
  0
LINE
  8
0
  6
CENTER
 62
     7
 10
44.89999389648438
 20
24.24468040466309
 11
44.89999389648438
 21
20.97467994689941
  0
LINE
  8
0
  6
CENTER
 62
     7
 10
41.64999389648438
 20
26.8056640625
 11
41.64999389648438
 21
18.48994445800781
  0
LINE
  8
0
  6
DASHED
 62
     7
 10
36.56755828857422
 20
4.199934005737305
 11
40.2108154296875
 21
4.199934005737305
  0
LINE
  8
0
  6
DASHED
 62
     7
 10
1.5
 20
6.5
 11
1.5
 21
4.199934005737305
  0
LINE
  8
0
  6
DASHED
 62
     7
 10
-1.5
 20
6.5
 11
-1.5
 21
4.199934005737305
  0
LINE
  8
0
  6
DASHED
 62
     7
 10
-1.25
 20
6.5
 11
-1.25
 21
4.199934005737305
  0
LINE
  8
0
  6
DASHED
 62
     7
 10
1.25
 20
6.5
 11
1.25
 21
4.199934005737305
  0
LINE
  8
0
  6
CENTER
 62
     7
 10
-1.5
 20
5.399993896484375
 11
1.5
 21
5.399993896484375
  0
ARC
  8
0
  6
CONTINUOUS
 62
     7
 10
5.17071533203125
 20
2.770721435546875
 40
0.6000000238418577
 50
186.768097741501
 51
253.4699698172288
  0
ARC
  8
0
  6
CONTINUOUS
 62
     7
 10
5.17071533203125
 20
2.629287719726563
 40
0.6000000238418577
 50
106.5300301827711
 51
173.231902258499
  0
CIRCLE
  8
0
  6
CONTINUOUS
 62
     7
 10
6.699981689453125
 20
4.70001220703125
 40
1
  0
ARC
  8
0
  6
CONTINUOUS
 62
     7
 10
4.79998779296875
 20
3.800003051757813
 40
0.6000000238418579
 50
0
 51
90.00000250447815
  0
ARC
  8
0
  6
CONTINUOUS
 62
     7
 10
33.99997711181641
 20
15.90968322753906
 40
2.5
 50
165.5224901573872
 51
194.4775062001472
  0
ARC
  8
0
  6
CONTINUOUS
 62
     7
 10
32.06348419189453
 20
16.40968322753906
 40
0.499999999999998
 50
145.793229192617
 51
165.5224901573871
  0
ARC
  8
0
  6
CONTINUOUS
 62
     7
 10
32.06348419189453
 20
15.40968322753906
 40
0.5000000000000004
 50
194.4775098426127
 51
214.2067708073832
  0
ARC
  8
0
  6
CONTINUOUS
 62
     7
 10
-5.17071533203125
 20
2.770721435546875
 40
0.6000000238418577
 50
286.5300320040039
 51
353.2319023721846
  0
ARC
  8
0
  6
CONTINUOUS
 62
     7
 10
-5.17071533203125
 20
2.629287719726563
 40
0.6000000238418584
 50
6.768097627815465
 51
73.47011826015775
  0
ARC
  8
0
  6
CONTINUOUS
 62
     7
 10
51.73648834228516
 20
5.800003051757813
 40
0.5000000000000028
 50
14.47750972892715
 51
34.20676898615038
  0
ARC
  8
0
  6
CONTINUOUS
 62
     7
 10
51.73648834228516
 20
4.800003051757813
 40
0.4999999999999985
 50
325.7932310138496
 51
345.5224902710728
  0
ARC
  8
0
  6
CONTINUOUS
 62
     7
 10
49.79999542236328
 20
5.300003051757813
 40
2.499999999999997
 50
345.5224936861673
 51
14.47750972892725
  0
CIRCLE
  8
0
  6
CONTINUOUS
 62
     7
 10
38.39999389648438
 20
22.60968017578125
 40
1.5
  0
CIRCLE
  8
0
  6
CONTINUOUS
 62
     7
 10
38.39999389648438
 20
22.60968017578125
 40
1.25
  0
CIRCLE
  8
0
  6
CONTINUOUS
 62
     7
 10
21.64999389648438
 20
22.60968017578125
 40
2.75
  0
CIRCLE
  8
0
  6
CONTINUOUS
 62
     7
 10
21.64999389648438
 20
22.60968017578125
 40
1.5
  0
ARC
  8
0
  6
CONTINUOUS
 62
     7
 10
32.06348419189453
 20
28.80967712402344
 40
0.5000000000000009
 50
194.4775098426129
 51
214.2067708073831
  0
ARC
  8
0
  6
CONTINUOUS
 62
     7
 10
33.99997711181641
 20
29.30967712402344
 40
2.5
 50
165.5224901573872
 51
194.4775062001471
  0
ARC
  8
0
  6
CONTINUOUS
 62
     7
 10
32.06348419189453
 20
29.80967712402344
 40
0.499999999999998
 50
145.793229192617
 51
165.5224901573871
  0
ARC
  8
0
  6
CONTINUOUS
 62
     7
 10
33.49997711181641
 20
5.300003051757813
 40
2.5
 50
165.5224901573872
 51
194.4775062001472
  0
ARC
  8
0
  6
CONTINUOUS
 62
     7
 10
31.56348419189453
 20
5.800003051757813
 40
0.499999999999999
 50
145.7932291926168
 51
165.5224901573872
  0
ARC
  8
0
  6
CONTINUOUS
 62
     7
 10
31.56348419189453
 20
4.800003051757813
 40
0.5000000000000007
 50
194.4775098426128
 51
214.2067708073832
  0
ARC
  8
0
  6
CONTINUOUS
 62
     7
 10
51.23648834228516
 20
28.80967712402344
 40
0.5000000000000012
 50
325.7932275987552
 51
345.5224902710726
  0
ARC
  8
0
  6
CONTINUOUS
 62
     7
 10
49.29999542236328
 20
29.30967712402344
 40
2.499999999999997
 50
345.5224936861673
 51
19.94905815980859
  0
ARC
  8
0
  6
CONTINUOUS
 62
     7
 10
49.29999542236328
 20
15.90968322753906
 40
2.499999999999996
 50
340.0509418401913
 51
19.94905815980859
  0
CIRCLE
  8
0
  6
CONTINUOUS
 62
     7
 10
-6.70001220703125
 20
4.70001220703125
 40
1
  0
ARC
  8
0
  6
CONTINUOUS
 62
     7
 10
-4.800018310546875
 20
3.800003051757813
 40
0.6000000238418579
 50
89.99999567428898
 51
180.0000050089564
  0
CIRCLE
  8
0
  6
CONTINUOUS
 62
     7
 10
0
 20
5.399993896484375
 40
0.5
  0
CIRCLE
  8
0
  6
CONTINUOUS
 62
     7
 10
0
 20
5.399993896484375
 40
0.4000000059604645
  0
TEXT
  8
0
  6
CONTINUOUS
 62
     7
 10
-1.600000023841858
 20
-21.79999995231628
 40
3.599999904632568
 41
1.039215751203318
  1
RSR5WM
  0
ENDSEC
  0
EOF
