  0
SECTION
  2
HEADER
  0
ENDSEC
  0
SECTION
  2
TABLES
  0
TABLE
  2
LTYPE
 70
    22
  0
LTYPE
  2
CONTINUOUS
 70
    64
  3
Solid line
 72
    65
 73
     0
 40
0.000000
  0
LTYPE
  2
DASHED
 70
    64
  3
__ __ __ __ __ __ __ __ __ __ __ __ __ __ __
 72
    65
 73
     2
 40
3.500000
 49
2.000000
 49
-1.500000
  0
LTYPE
  2
CENTER
 70
    64
  3
____ _ ____ _ ____ _ ____ _ ____ _ ____ _ ____
 72
    65
 73
     4
 40
17.500000
 49
13.000000
 49
-1.500000
 49
1.500000
 49
-1.500000
  0
LTYPE
  2
PHANTOM
 70
    64
  3
_____ _ _ _____ _ _ _____ _ _ _____ _ _ ____  
 72
    65
 73
     6
 40
15.500000
 49
8.000000
 49
-1.500000
 49
1.500000
 49
-1.500000
 49
1.500000
 49
-1.500000
  0
LTYPE
  2
DOT
 70
    64
  3
. . . . . . . . . . . . . . . . . . . . . . . .
 72
    65
 73
     2
 40
0.25
 49
0.0
 49
-0.25
  0
ENDTAB
  0
TABLE
  2
LAYER
 70
     1
  0
LAYER
  2
0
 70
     0
 62
     7
  6
CONTINUOUS
  0
ENDTAB
  0
TABLE
  2
STYLE
 70
     1
  0
STYLE
  2
STANDARD
 70
     0
 40
0.000000
 41
1.000000
 50
0.000000
 71
     0
 42
0.200000
  3
txt
  0
ENDTAB
  0
TABLE
  2
VIEW
 70
     0
  0
ENDTAB
  0
ENDSEC
  0
SECTION
  2
BLOCKS
  0
ENDSEC
  0
SECTION
  2
ENTITIES
  0
LINE
  8
0
  6
CENTER
 62
     7
 10
100
 20
6.6757498
 11
100
 21
-1.4203644
  0
LINE
  8
0
  6
DASHED
 62
     7
 10
66
 20
9
 11
66
 21
5.5
  0
LINE
  8
0
  6
DASHED
 62
     7
 10
61.999985
 20
9
 11
61.999985
 21
5.5
  0
LINE
  8
0
  6
DASHED
 62
     7
 10
62.299988
 20
9
 11
62.299988
 21
5.5
  0
LINE
  8
0
  6
DASHED
 62
     7
 10
65.699997
 20
9
 11
65.699997
 21
5.5
  0
LINE
  8
0
  6
CONTINUOUS
 62
     7
 10
59.799988
 20
9
 11
59.799988
 21
2
  0
LINE
  8
0
  6
CONTINUOUS
 62
     7
 10
80.199997
 20
9
 11
80.199997
 21
2
  0
LINE
  8
0
  6
CONTINUOUS
 62
     7
 10
59.799988
 20
9
 11
80.199997
 21
9
  0
LINE
  8
0
  6
CONTINUOUS
 62
     7
 10
55.999985
 20
8.6999989
 11
55.999985
 21
2
  0
LINE
  8
0
  6
CONTINUOUS
 62
     7
 10
54.999985
 20
8.6999989
 11
54.999985
 21
2
  0
LINE
  8
0
  6
CONTINUOUS
 62
     7
 10
54.499985
 20
5.7999992
 11
54.499985
 21
2
  0
LINE
  8
0
  6
CONTINUOUS
 62
     7
 10
110
 20
5.1999998
 11
110
 21
0
  0
LINE
  8
0
  6
CONTINUOUS
 62
     7
 10
29.999985
 20
5.1999998
 11
29.999985
 21
0
  0
LINE
  8
0
  6
CONTINUOUS
 62
     7
 10
54.499985
 20
5.7999992
 11
54.775192
 21
5.7999992
  0
LINE
  8
0
  6
CONTINUOUS
 62
     7
 10
54.499985
 20
2
 11
85.5
 21
2
  0
LINE
  8
0
  6
CONTINUOUS
 62
     7
 10
54.999985
 20
8.6999989
 11
59.799988
 21
8.6999989
  0
LINE
  8
0
  6
CONTINUOUS
 62
     7
 10
84
 20
2
 11
84
 21
8.6999989
  0
LINE
  8
0
  6
CONTINUOUS
 62
     7
 10
85
 20
2
 11
85
 21
8.6999989
  0
LINE
  8
0
  6
CONTINUOUS
 62
     7
 10
85.5
 20
2
 11
85.5
 21
5.7999992
  0
LINE
  8
0
  6
CONTINUOUS
 62
     7
 10
85.224777
 20
5.7999992
 11
85.5
 21
5.7999992
  0
LINE
  8
0
  6
CONTINUOUS
 62
     7
 10
80.199997
 20
8.6999989
 11
85
 21
8.6999989
  0
LINE
  8
0
  6
CONTINUOUS
 62
     7
 10
29.999985
 20
5.1999998
 11
54.499985
 21
5.1999998
  0
LINE
  8
0
  6
CONTINUOUS
 62
     7
 10
29.999985
 20
4.389636
 11
54.499985
 21
4.389636
  0
LINE
  8
0
  6
CONTINUOUS
 62
     7
 10
29.999985
 20
2.8103609
 11
54.499985
 21
2.8103609
  0
LINE
  8
0
  6
CONTINUOUS
 62
     7
 10
29.999985
 20
0
 11
110
 21
0
  0
LINE
  8
0
  6
CONTINUOUS
 62
     7
 10
85.5
 20
5.1999998
 11
110
 21
5.1999998
  0
LINE
  8
0
  6
CONTINUOUS
 62
     7
 10
85.5
 20
4.389636
 11
110
 21
4.389636
  0
LINE
  8
0
  6
CONTINUOUS
 62
     7
 10
85.5
 20
2.8103609
 11
110
 21
2.8103609
  0
LINE
  8
0
  6
CENTER
 62
     7
 10
63.999985
 20
10.150826
 11
63.999985
 21
4.9548998
  0
LINE
  8
0
  6
CENTER
 62
     7
 10
39.999985
 20
6.7547188
 11
39.999985
 21
-1.4203644
  0
LINE
  8
0
  6
DASHED
 62
     7
 10
38.249985
 20
1.999999
 11
38.249985
 21
0
  0
LINE
  8
0
  6
DASHED
 62
     7
 10
41.749985
 20
1.999999
 11
41.749985
 21
0
  0
LINE
  8
0
  6
DASHED
 62
     7
 10
42.999985
 20
5.1999998
 11
42.999985
 21
1.999999
  0
LINE
  8
0
  6
DASHED
 62
     7
 10
36.999985
 20
5.1999998
 11
36.999985
 21
1.999999
  0
LINE
  8
0
  6
DASHED
 62
     7
 10
36.999985
 20
1.999999
 11
42.999985
 21
1.999999
  0
LINE
  8
0
  6
CENTER
 62
     7
 10
70
 20
5.9678164
 11
70
 21
-1.4203644
  0
LINE
  8
0
  6
CENTER
 62
     7
 10
76
 20
10.150826
 11
76
 21
5.0776691
  0
LINE
  8
0
  6
CONTINUOUS
 62
     7
 10
-6.6999989
 20
0
 11
6.6999979
 21
0
  0
LINE
  8
0
  6
CONTINUOUS
 62
     7
 10
7
 20
4.8999987
 11
7
 21
4.3797016
  0
LINE
  8
0
  6
CONTINUOUS
 62
     7
 10
-7
 20
4.8999987
 11
-7
 21
4.3797016
  0
LINE
  8
0
  6
CONTINUOUS
 62
     7
 10
-6.6999998
 20
5.1999998
 11
6.6999998
 21
5.1999998
  0
LINE
  8
0
  6
CONTINUOUS
 62
     7
 10
6.6999993
 20
5.2000003
 11
6.9999995
 21
4.8999991
  0
LINE
  8
0
  6
CONTINUOUS
 62
     7
 10
-6.6999993
 20
5.2000003
 11
-6.9999995
 21
4.8999991
  0
LINE
  8
0
  6
CONTINUOUS
 62
     7
 10
-6.9999995
 20
0.29999965
 11
-6.6999984
 21
-3.9617737E-007
  0
LINE
  8
0
  6
CONTINUOUS
 62
     7
 10
6.9999995
 20
0.29999965
 11
6.6999984
 21
-3.9617737E-007
  0
LINE
  8
0
  6
CONTINUOUS
 62
     7
 10
-7
 20
2.8202963
 11
-7
 21
0.30000019
  0
LINE
  8
0
  6
CONTINUOUS
 62
     7
 10
7
 20
2.8202963
 11
7
 21
0.30000019
  0
LINE
  8
0
  6
CONTINUOUS
 62
     7
 10
-12.2
 20
9
 11
12.2
 21
9
  0
LINE
  8
0
  6
CONTINUOUS
 62
     7
 10
12.5
 20
8.6999998
 11
12.5
 21
2.3000002
  0
LINE
  8
0
  6
CONTINUOUS
 62
     7
 10
-12.5
 20
8.6999998
 11
-12.5
 21
2.2999992
  0
LINE
  8
0
  6
CONTINUOUS
 62
     7
 10
-12.2
 20
2
 11
-7.2999992
 21
2
  0
LINE
  8
0
  6
CONTINUOUS
 62
     7
 10
-12.2
 20
9
 11
-12.5
 21
8.6999998
  0
LINE
  8
0
  6
CONTINUOUS
 62
     7
 10
12.2
 20
9
 11
12.5
 21
8.6999998
  0
LINE
  8
0
  6
CONTINUOUS
 62
     7
 10
-12.5
 20
2.3000002
 11
-12.2
 21
2.0000002
  0
LINE
  8
0
  6
CONTINUOUS
 62
     7
 10
12.5
 20
2.3000002
 11
12.2
 21
2.0000002
  0
LINE
  8
0
  6
CONTINUOUS
 62
     7
 10
-11.299998
 20
8.6999989
 11
11.299999
 21
8.6999989
  0
LINE
  8
0
  6
CONTINUOUS
 62
     7
 10
7.5999994
 20
4.5999985
 11
7.5999994
 21
2
  0
LINE
  8
0
  6
CONTINUOUS
 62
     7
 10
-7.5999994
 20
4.5999985
 11
-7.5999994
 21
2
  0
LINE
  8
0
  6
CONTINUOUS
 62
     7
 10
-6.3999987
 20
5.7999992
 11
6.3999987
 21
5.7999992
  0
LINE
  8
0
  6
CONTINUOUS
 62
     7
 10
7.2999992
 20
2
 11
12.2
 21
2
  0
LINE
  8
0
  6
CONTINUOUS
 62
     7
 10
-7.2999992
 20
2.0000002
 11
-6.999999
 21
2.3
  0
LINE
  8
0
  6
CONTINUOUS
 62
     7
 10
6.999999
 20
2.2999995
 11
7.2999988
 21
1.9999994
  0
LINE
  8
0
  6
CONTINUOUS
 62
     7
 10
12.299999
 20
7.6999979
 11
12.299999
 21
2.5
  0
LINE
  8
0
  6
CONTINUOUS
 62
     7
 10
-12.299999
 20
7.6999989
 11
-12.299999
 21
2.5
  0
LINE
  8
0
  6
CONTINUOUS
 62
     7
 10
-12.299998
 20
7.6999984
 11
-11.299998
 21
8.6999989
  0
LINE
  8
0
  6
CONTINUOUS
 62
     7
 10
11.299999
 20
8.6999989
 11
12.299999
 21
7.6999989
  0
LINE
  8
0
  6
CONTINUOUS
 62
     7
 10
-12.299999
 20
2.5
 11
-11.799998
 21
1.9999998
  0
LINE
  8
0
  6
CONTINUOUS
 62
     7
 10
12.299999
 20
2.5
 11
11.799998
 21
1.9999998
  0
LINE
  8
0
  6
DASHED
 62
     7
 10
-1.75
 20
1.999999
 11
-1.75
 21
0
  0
LINE
  8
0
  6
DASHED
 62
     7
 10
1.75
 20
1.999999
 11
1.75
 21
0
  0
LINE
  8
0
  6
DASHED
 62
     7
 10
3
 20
5.1999998
 11
3
 21
1.999999
  0
LINE
  8
0
  6
DASHED
 62
     7
 10
-3
 20
5.1999998
 11
-3
 21
1.999999
  0
LINE
  8
0
  6
DASHED
 62
     7
 10
-3
 20
1.999999
 11
3
 21
1.999999
  0
LINE
  8
0
  6
CENTER
 62
     7
 10
0
 20
10.150826
 11
0
 21
-1.4203644
  0
LINE
  8
0
  6
CONTINUOUS
 62
     7
 10
59.799988
 20
62.5
 11
80.199997
 21
62.5
  0
LINE
  8
0
  6
CONTINUOUS
 62
     7
 10
59.799988
 20
37.5
 11
80.199997
 21
37.5
  0
LINE
  8
0
  6
CENTER
 62
     7
 10
27.074799
 20
50
 11
112.49696
 21
50
  0
LINE
  8
0
  6
CONTINUOUS
 62
     7
 10
59.799988
 20
62.5
 11
59.799988
 21
37.5
  0
LINE
  8
0
  6
CONTINUOUS
 62
     7
 10
80.199997
 20
62.5
 11
80.199997
 21
37.5
  0
LINE
  8
0
  6
CONTINUOUS
 62
     7
 10
55.999985
 20
62.299988
 11
55.999985
 21
37.699982
  0
LINE
  8
0
  6
CONTINUOUS
 62
     7
 10
55.999985
 20
62.299988
 11
59.799988
 21
62.299988
  0
LINE
  8
0
  6
CONTINUOUS
 62
     7
 10
55.999985
 20
37.699982
 11
59.799988
 21
37.699982
  0
LINE
  8
0
  6
CONTINUOUS
 62
     7
 10
54.499985
 20
57.599991
 11
54.499985
 21
42.399994
  0
LINE
  8
0
  6
CONTINUOUS
 62
     7
 10
54.999985
 20
62
 11
54.999985
 21
38
  0
LINE
  8
0
  6
CONTINUOUS
 62
     7
 10
54.999985
 20
62
 11
55.999985
 21
62
  0
LINE
  8
0
  6
CONTINUOUS
 62
     7
 10
54.999985
 20
38
 11
55.999985
 21
38
  0
LINE
  8
0
  6
CONTINUOUS
 62
     7
 10
54.499985
 20
57.599991
 11
54.999985
 21
57.599991
  0
LINE
  8
0
  6
CONTINUOUS
 62
     7
 10
54.499985
 20
42.399994
 11
54.999985
 21
42.399994
  0
LINE
  8
0
  6
CONTINUOUS
 62
     7
 10
84
 20
37.699982
 11
84
 21
62.299988
  0
LINE
  8
0
  6
CONTINUOUS
 62
     7
 10
80.199997
 20
62.299988
 11
84
 21
62.299988
  0
LINE
  8
0
  6
CONTINUOUS
 62
     7
 10
80.199997
 20
37.699982
 11
84
 21
37.699982
  0
LINE
  8
0
  6
CONTINUOUS
 62
     7
 10
85.5
 20
42.399994
 11
85.5
 21
57.599991
  0
LINE
  8
0
  6
CONTINUOUS
 62
     7
 10
85
 20
38
 11
85
 21
62
  0
LINE
  8
0
  6
CONTINUOUS
 62
     7
 10
84
 20
62
 11
85
 21
62
  0
LINE
  8
0
  6
CONTINUOUS
 62
     7
 10
84
 20
38
 11
85
 21
38
  0
LINE
  8
0
  6
CONTINUOUS
 62
     7
 10
85
 20
57.599991
 11
85.5
 21
57.599991
  0
LINE
  8
0
  6
CONTINUOUS
 62
     7
 10
85
 20
42.399994
 11
85.5
 21
42.399994
  0
LINE
  8
0
  6
CONTINUOUS
 62
     7
 10
29.999985
 20
57
 11
29.999985
 21
43
  0
LINE
  8
0
  6
CONTINUOUS
 62
     7
 10
110
 20
57
 11
110
 21
43
  0
LINE
  8
0
  6
CONTINUOUS
 62
     7
 10
29.999985
 20
57
 11
54.499985
 21
57
  0
LINE
  8
0
  6
CONTINUOUS
 62
     7
 10
29.999985
 20
43
 11
54.499985
 21
43
  0
LINE
  8
0
  6
CONTINUOUS
 62
     7
 10
85.5
 20
57
 11
110
 21
57
  0
LINE
  8
0
  6
CONTINUOUS
 62
     7
 10
85.5
 20
43
 11
110
 21
43
  0
LINE
  8
0
  6
CENTER
 62
     7
 10
100
 20
53.5
 11
100
 21
46.5
  0
LINE
  8
0
  6
CENTER
 62
     7
 10
39.999985
 20
53.5
 11
39.999985
 21
46.5
  0
LINE
  8
0
  6
CENTER
 62
     7
 10
70
 20
53.5
 11
70
 21
46.5
  0
LINE
  8
0
  6
CENTER
 62
     7
 10
76
 20
52.5
 11
76
 21
47.5
  0
LINE
  8
0
  6
CENTER
 62
     7
 10
63.999985
 20
52.5
 11
63.999985
 21
47.5
  0
LINE
  8
0
  6
CONTINUOUS
 62
     7
 10
-10.707107
 20
7.6071072
 11
-9.2928934
 21
6.1928935
  0
LINE
  8
0
  6
CONTINUOUS
 62
     7
 10
-9.2928934
 20
7.6071072
 11
-10.707107
 21
6.1928935
  0
LINE
  8
0
  6
DASHED
 62
     7
 10
61.499985
 20
5.5
 11
66.5
 21
5.5
  0
LINE
  8
0
  6
DASHED
 62
     7
 10
2.0000153
 20
9
 11
2.0000153
 21
5.5
  0
LINE
  8
0
  6
DASHED
 62
     7
 10
-2
 20
9
 11
-2
 21
5.5
  0
LINE
  8
0
  6
DASHED
 62
     7
 10
-1.6999969
 20
9
 11
-1.6999969
 21
5.5
  0
LINE
  8
0
  6
DASHED
 62
     7
 10
1.7000122
 20
9
 11
1.7000122
 21
5.5
  0
LINE
  8
0
  6
CENTER
 62
     7
 10
-1.6
 20
7.4000001
 11
1.6
 21
7.4000001
  0
ARC
  8
0
  6
CONTINUOUS
 62
     7
 10
-6.3999987
 20
4.5999985
 40
1.1999998
 50
89.999982
 51
179.99996
  0
ARC
  8
0
  6
CONTINUOUS
 62
     7
 10
6.3999987
 20
4.5999985
 40
1.1999998
 50
0
 51
89.999982
  0
CIRCLE
  8
0
  6
CONTINUOUS
 62
     7
 10
-10
 20
6.8999996
 40
1.75
  0
CIRCLE
  8
0
  6
CONTINUOUS
 62
     7
 10
-10
 20
6.8999996
 40
1.5
  0
CIRCLE
  8
0
  6
CONTINUOUS
 62
     7
 10
39.999985
 20
50
 40
1.75
  0
CIRCLE
  8
0
  6
CONTINUOUS
 62
     7
 10
39.999985
 20
50
 40
3
  0
CIRCLE
  8
0
  6
CONTINUOUS
 62
     7
 10
63.999985
 20
50
 40
2
  0
CIRCLE
  8
0
  6
CONTINUOUS
 62
     7
 10
63.999985
 20
50
 40
1.6999998
  0
ARC
  8
0
  6
CONTINUOUS
 62
     7
 10
56.199982
 20
6.8999996
 40
1.7999992
 50
131.81019
 51
228.18979
  0
ARC
  8
0
  6
CONTINUOUS
 62
     7
 10
56.199982
 20
60
 40
1.7999992
 50
131.81019
 51
228.18979
  0
ARC
  8
0
  6
CONTINUOUS
 62
     7
 10
-7.1499987
 20
3.5999985
 40
0.79400003
 50
280.88953
 51
79.110475
  0
ARC
  8
0
  6
CONTINUOUS
 62
     7
 10
7.1499987
 20
3.5999985
 40
0.79400003
 50
100.88949
 51
259.11049
  0
CIRCLE
  8
0
  6
CONTINUOUS
 62
     7
 10
10
 20
6.8999996
 40
1.5
  0
CIRCLE
  8
0
  6
CONTINUOUS
 62
     7
 10
10
 20
6.8999996
 40
1.75
  0
ARC
  8
0
  6
CONTINUOUS
 62
     7
 10
83.800003
 20
6.8999996
 40
1.7999992
 50
311.8102
 51
48.189795
  0
ARC
  8
0
  6
CONTINUOUS
 62
     7
 10
56.199982
 20
40
 40
1.7999992
 50
131.81019
 51
228.18979
  0
ARC
  8
0
  6
CONTINUOUS
 62
     7
 10
83.800003
 20
60
 40
1.7999992
 50
311.8102
 51
48.189795
  0
ARC
  8
0
  6
CONTINUOUS
 62
     7
 10
83.800003
 20
40
 40
1.7999992
 50
311.8102
 51
48.189795
  0
CIRCLE
  8
0
  6
CONTINUOUS
 62
     7
 10
0
 20
7.4000001
 40
0.60000002
  0
TEXT
  8
0
  6
CONTINUOUS
 62
     7
 10
-1.6
 20
-21.8
 40
3.5999999
 41
0.87329055
  1
ＲＳＲ７ＷＭ
  0
ENDSEC
  0
EOF
