  0
SECTION
  2
HEADER
  0
ENDSEC
  0
SECTION
  2
TABLES
  0
TABLE
  2
LTYPE
 70
    22
  0
LTYPE
  2
CONTINUOUS
 70
    64
  3
Solid line
 72
    65
 73
     0
 40
0.000000
  0
LTYPE
  2
DASHED
 70
    64
  3
__ __ __ __ __ __ __ __ __ __ __ __ __ __ __
 72
    65
 73
     2
 40
3.500000
 49
2.000000
 49
-1.500000
  0
LTYPE
  2
CENTER
 70
    64
  3
____ _ ____ _ ____ _ ____ _ ____ _ ____ _ ____
 72
    65
 73
     4
 40
17.500000
 49
13.000000
 49
-1.500000
 49
1.500000
 49
-1.500000
  0
LTYPE
  2
PHANTOM
 70
    64
  3
_____ _ _ _____ _ _ _____ _ _ _____ _ _ ____  
 72
    65
 73
     6
 40
15.500000
 49
8.000000
 49
-1.500000
 49
1.500000
 49
-1.500000
 49
1.500000
 49
-1.500000
  0
LTYPE
  2
DOT
 70
    64
  3
. . . . . . . . . . . . . . . . . . . . . . . .
 72
    65
 73
     2
 40
0.25
 49
0.0
 49
-0.25
  0
ENDTAB
  0
TABLE
  2
LAYER
 70
     1
  0
LAYER
  2
0
 70
     0
 62
     7
  6
CONTINUOUS
  0
ENDTAB
  0
TABLE
  2
STYLE
 70
     1
  0
STYLE
  2
STANDARD
 70
     0
 40
0.000000
 41
1.000000
 50
0.000000
 71
     0
 42
0.200000
  3
txt
  0
ENDTAB
  0
TABLE
  2
VIEW
 70
     0
  0
ENDTAB
  0
ENDSEC
  0
SECTION
  2
BLOCKS
  0
ENDSEC
  0
SECTION
  2
ENTITIES
  0
LINE
  8
0
  6
CONTINUOUS
 62
     7
 10
63.725883
 20
9.0002403
 11
83.42588
 21
9.0002403
  0
LINE
  8
0
  6
CONTINUOUS
 62
     7
 10
63.725883
 20
9.0002403
 11
63.725883
 21
5.0006862
  0
LINE
  8
0
  6
CONTINUOUS
 62
     7
 10
63.525871
 20
2.0002325
 11
83.625877
 21
2.0002325
  0
LINE
  8
0
  6
CONTINUOUS
 62
     7
 10
59.575874
 20
8.5002403
 11
63.725883
 21
8.5002403
  0
LINE
  8
0
  6
CONTINUOUS
 62
     7
 10
63.525871
 20
2.0002325
 11
59.575874
 21
2.0002325
  0
LINE
  8
0
  6
CENTER
 62
     7
 10
68.575874
 20
9.8805962
 11
68.575874
 21
4.5770226
  0
LINE
  8
0
  6
CENTER
 62
     7
 10
78.575874
 20
9.8805962
 11
78.575874
 21
4.7538109
  0
LINE
  8
0
  6
CONTINUOUS
 62
     7
 10
63.525871
 20
5.5002403
 11
61.585869
 21
5.5002403
  0
LINE
  8
0
  6
DASHED
 62
     7
 10
59.075874
 20
2.0002325
 11
59.075874
 21
6.1002388
  0
LINE
  8
0
  6
DASHED
 62
     7
 10
58.575874
 20
2.0002325
 11
58.575874
 21
5.7002373
  0
LINE
  8
0
  6
CONTINUOUS
 62
     7
 10
59.575874
 20
2.0002325
 11
58.075874
 21
2.0002325
  0
LINE
  8
0
  6
DASHED
 62
     7
 10
70.075874
 20
9.0002403
 11
70.075874
 21
6.2002335
  0
LINE
  8
0
  6
DASHED
 62
     7
 10
69.775871
 20
9.0002403
 11
69.775871
 21
5.680613
  0
LINE
  8
0
  6
DASHED
 62
     7
 10
68.575874
 20
4.9002428
 11
69.775879
 21
5.5930643
  0
LINE
  8
0
  6
DASHED
 62
     7
 10
67.075874
 20
9.0002403
 11
67.075874
 21
6.2002478
  0
LINE
  8
0
  6
DASHED
 62
     7
 10
67.375877
 20
9.0002403
 11
67.375877
 21
5.5930548
  0
LINE
  8
0
  6
DASHED
 62
     7
 10
67.075874
 20
6.2002401
 11
70.075874
 21
6.2002401
  0
LINE
  8
0
  6
DASHED
 62
     7
 10
68.57589
 20
4.9002376
 11
67.375893
 21
5.5930552
  0
LINE
  8
0
  6
DASHED
 62
     7
 10
67.375877
 20
5.5930548
 11
69.775871
 21
5.5930548
  0
LINE
  8
0
  6
CONTINUOUS
 62
     7
 10
58.575874
 20
5.7002373
 11
58.575874
 21
6.4544334
  0
LINE
  8
0
  6
CONTINUOUS
 62
     7
 10
58.868202
 20
8.3002357
 11
59.075874
 21
8.3002357
  0
LINE
  8
0
  6
CONTINUOUS
 62
     7
 10
58.868202
 20
6.3002357
 11
59.075874
 21
6.3002357
  0
LINE
  8
0
  6
CONTINUOUS
 62
     7
 10
33.575375
 20
0.00023246204
 11
113.57538
 21
0.00023246204
  0
LINE
  8
0
  6
CONTINUOUS
 62
     7
 10
63.525871
 20
5.5002403
 11
63.525871
 21
2.0002325
  0
LINE
  8
0
  6
CONTINUOUS
 62
     7
 10
83.42588
 20
9.0002403
 11
83.42588
 21
5.0006862
  0
LINE
  8
0
  6
CONTINUOUS
 62
     7
 10
87.575874
 20
8.5002403
 11
87.575874
 21
2.0002325
  0
LINE
  8
0
  6
CONTINUOUS
 62
     7
 10
83.625877
 20
2.0002325
 11
87.575874
 21
2.0002325
  0
LINE
  8
0
  6
CONTINUOUS
 62
     7
 10
83.625877
 20
5.5002403
 11
85.56588
 21
5.5002403
  0
LINE
  8
0
  6
CONTINUOUS
 62
     7
 10
87.575874
 20
2.0002325
 11
89.325874
 21
2.0002325
  0
LINE
  8
0
  6
CONTINUOUS
 62
     7
 10
88.283562
 20
8.3002357
 11
88.075874
 21
8.3002357
  0
LINE
  8
0
  6
CONTINUOUS
 62
     7
 10
88.283562
 20
6.3002357
 11
88.075874
 21
6.3002357
  0
LINE
  8
0
  6
CONTINUOUS
 62
     7
 10
83.625877
 20
5.5002403
 11
83.625877
 21
2.0002325
  0
LINE
  8
0
  6
CONTINUOUS
 62
     7
 10
61.585869
 20
8.5002403
 11
61.585869
 21
5.5002403
  0
LINE
  8
0
  6
CONTINUOUS
 62
     7
 10
85.56588
 20
8.5002403
 11
85.56588
 21
5.5002403
  0
LINE
  8
0
  6
CONTINUOUS
 62
     7
 10
59.575874
 20
4.6302376
 11
87.575874
 21
4.6302376
  0
LINE
  8
0
  6
CONTINUOUS
 62
     7
 10
83.42588
 20
8.8649664
 11
85.494385
 21
8.5002346
  0
LINE
  8
0
  6
CONTINUOUS
 62
     7
 10
63.725883
 20
8.8649588
 11
61.657372
 21
8.5002241
  0
LINE
  8
0
  6
CONTINUOUS
 62
     7
 10
58.575874
 20
8.4002342
 11
59.575874
 21
8.4002342
  0
LINE
  8
0
  6
CONTINUOUS
 62
     7
 10
59.575874
 20
8.5002403
 11
59.575874
 21
2.0002401
  0
LINE
  8
0
  6
CONTINUOUS
 62
     7
 10
57.825874
 20
5.9002342
 11
57.825874
 21
2.0002401
  0
LINE
  8
0
  6
CONTINUOUS
 62
     7
 10
57.825874
 20
5.9002342
 11
58.575874
 21
5.9002342
  0
LINE
  8
0
  6
CONTINUOUS
 62
     7
 10
57.825874
 20
2.0002401
 11
59.575874
 21
2.0002401
  0
LINE
  8
0
  6
CONTINUOUS
 62
     7
 10
58.575874
 20
8.4002342
 11
58.575874
 21
8.0683174
  0
LINE
  8
0
  6
CONTINUOUS
 62
     7
 10
59.075874
 20
8.4002342
 11
59.075874
 21
2.0002401
  0
LINE
  8
0
  6
CONTINUOUS
 62
     7
 10
58.575874
 20
6.0502357
 11
59.075874
 21
6.0502357
  0
LINE
  8
0
  6
CONTINUOUS
 62
     7
 10
58.575874
 20
6.5321541
 11
58.575874
 21
2.0002401
  0
LINE
  8
0
  6
CONTINUOUS
 62
     7
 10
89.325874
 20
5.9002342
 11
89.325874
 21
2.0002401
  0
LINE
  8
0
  6
CONTINUOUS
 62
     7
 10
88.575874
 20
6.5321541
 11
88.575874
 21
2.0002401
  0
LINE
  8
0
  6
CONTINUOUS
 62
     7
 10
89.325874
 20
5.9002342
 11
88.575874
 21
5.9002342
  0
LINE
  8
0
  6
CONTINUOUS
 62
     7
 10
88.575874
 20
6.0502357
 11
88.075874
 21
6.0502357
  0
LINE
  8
0
  6
CONTINUOUS
 62
     7
 10
88.075874
 20
8.4002342
 11
88.075874
 21
2.0002401
  0
LINE
  8
0
  6
CONTINUOUS
 62
     7
 10
88.575874
 20
8.4002342
 11
88.575874
 21
8.0683174
  0
LINE
  8
0
  6
CONTINUOUS
 62
     7
 10
88.575874
 20
8.4002342
 11
87.575874
 21
8.4002342
  0
LINE
  8
0
  6
CONTINUOUS
 62
     7
 10
87.575874
 20
8.5002403
 11
87.575874
 21
2.0002401
  0
LINE
  8
0
  6
CONTINUOUS
 62
     7
 10
87.575874
 20
8.5002403
 11
83.425865
 21
8.5002403
  0
LINE
  8
0
  6
DASHED
 62
     7
 10
67.075882
 20
6.2002373
 11
67.375885
 21
5.6806164
  0
LINE
  8
0
  6
DASHED
 62
     7
 10
69.775879
 20
5.6806188
 11
70.075882
 21
6.2002392
  0
LINE
  8
0
  6
CONTINUOUS
 62
     7
 10
33.575375
 20
2.7969091
 11
57.825874
 21
2.7969091
  0
LINE
  8
0
  6
CONTINUOUS
 62
     7
 10
33.575375
 20
4.3923073
 11
57.825874
 21
4.3923073
  0
LINE
  8
0
  6
CONTINUOUS
 62
     7
 10
33.575375
 20
4.9002342
 11
57.825874
 21
4.9002342
  0
LINE
  8
0
  6
DASHED
 62
     7
 10
46.575375
 20
2.0502355
 11
46.575375
 21
5.2002373
  0
LINE
  8
0
  6
DASHED
 62
     7
 10
45.325375
 20
0.35023856
 11
45.325375
 21
2.0502355
  0
LINE
  8
0
  6
DASHED
 62
     7
 10
40.575375
 20
2.0502355
 11
40.575375
 21
5.2002373
  0
LINE
  8
0
  6
DASHED
 62
     7
 10
41.825375
 20
0.35023856
 11
41.825375
 21
2.0502355
  0
LINE
  8
0
  6
DASHED
 62
     7
 10
46.575375
 20
2.0502355
 11
40.575375
 21
2.0502355
  0
LINE
  8
0
  6
DASHED
 62
     7
 10
45.325375
 20
0.35023856
 11
41.825375
 21
0.35023856
  0
LINE
  8
0
  6
DASHED
 62
     7
 10
41.475384
 20
0.00022793016
 11
41.825386
 21
0.35022885
  0
LINE
  8
0
  6
DASHED
 62
     7
 10
45.325382
 20
0.35023156
 11
45.675385
 21
0.00022658145
  0
LINE
  8
0
  6
CENTER
 62
     7
 10
43.575375
 20
6.1309624
 11
43.575375
 21
-1.7669718
  0
LINE
  8
0
  6
CENTER
 62
     7
 10
73.575378
 20
2.7192647
 11
73.575378
 21
-1.7669718
  0
LINE
  8
0
  6
CONTINUOUS
 62
     7
 10
7
 20
4.8999844
 11
7
 21
4.3896236
  0
LINE
  8
0
  6
CONTINUOUS
 62
     7
 10
-6.9999237
 20
4.8999844
 11
-6.9999237
 21
4.3896236
  0
LINE
  8
0
  6
CONTINUOUS
 62
     7
 10
-6.6998749
 20
5.1999874
 11
6.7000275
 21
5.1999874
  0
LINE
  8
0
  6
CONTINUOUS
 62
     7
 10
6.7001877
 20
5.1997929
 11
7.0001812
 21
4.8997984
  0
LINE
  8
0
  6
CONTINUOUS
 62
     7
 10
-6.699791
 20
5.199759
 11
-6.9997845
 21
4.899765
  0
LINE
  8
0
  6
CONTINUOUS
 62
     7
 10
-6.9997687
 20
0.29975757
 11
-6.6997957
 21
-0.00021416464
  0
LINE
  8
0
  6
CONTINUOUS
 62
     7
 10
6.9999924
 20
0.29997876
 11
6.6999984
 21
-1.4557519E-005
  0
LINE
  8
0
  6
CONTINUOUS
 62
     7
 10
-6.9999237
 20
2.8103619
 11
-6.9999237
 21
0.30000114
  0
LINE
  8
0
  6
CONTINUOUS
 62
     7
 10
6.6999512
 20
0
 11
-6.6999664
 21
0
  0
LINE
  8
0
  6
CONTINUOUS
 62
     7
 10
7
 20
2.8103619
 11
7
 21
0.30000114
  0
LINE
  8
0
  6
DASHED
 62
     7
 10
-1.7499237
 20
1.9999981
 11
-1.7499237
 21
0.34999657
  0
LINE
  8
0
  6
DASHED
 62
     7
 10
1.75
 20
1.9999981
 11
1.75
 21
0.34999657
  0
LINE
  8
0
  6
DASHED
 62
     7
 10
3
 20
5.1999874
 11
3
 21
1.9999981
  0
LINE
  8
0
  6
DASHED
 62
     7
 10
-2.9999237
 20
5.1999874
 11
-2.9999237
 21
1.9999981
  0
LINE
  8
0
  6
DASHED
 62
     7
 10
-2.9999237
 20
1.9999981
 11
3
 21
1.9999981
  0
LINE
  8
0
  6
DASHED
 62
     7
 10
-1.7499237
 20
0.34999657
 11
1.75
 21
0.34999657
  0
LINE
  8
0
  6
DASHED
 62
     7
 10
1.7501462
 20
0.34982884
 11
2.1001492
 21
-0.00017541544
  0
LINE
  8
0
  6
DASHED
 62
     7
 10
-1.7498146
 20
0.34979466
 11
-2.0998178
 21
-0.00020955382
  0
LINE
  8
0
  6
CENTER
 62
     7
 10
0
 20
9.8666477
 11
0
 21
-0.66666412
  0
LINE
  8
0
  6
CONTINUOUS
 62
     7
 10
12.299988
 20
9.0000057
 11
5.2999878
 21
9.0000057
  0
LINE
  8
0
  6
CONTINUOUS
 62
     7
 10
12
 20
2.0000019
 11
7
 21
2.0000019
  0
LINE
  8
0
  6
CONTINUOUS
 62
     7
 10
12.399994
 20
4.630003
 11
12.399994
 21
2.4000034
  0
LINE
  8
0
  6
CONTINUOUS
 62
     7
 10
11.99999
 20
1.9999914
 11
12.399993
 21
2.3999939
  0
LINE
  8
0
  6
CENTER
 62
     7
 10
9.5
 20
9.5646725
 11
9.5
 21
4.2368984
  0
LINE
  8
0
  6
CONTINUOUS
 62
     7
 10
4.7999921
 20
8.5000038
 11
5.2999926
 21
9.0000048
  0
LINE
  8
0
  6
CONTINUOUS
 62
     7
 10
-3.8999786
 20
8.8999996
 11
3.8999939
 21
8.8999996
  0
LINE
  8
0
  6
CONTINUOUS
 62
     7
 10
3.8999996
 20
8.8999844
 11
4.2999916
 21
8.4999933
  0
LINE
  8
0
  6
CONTINUOUS
 62
     7
 10
12.099976
 20
4.9300036
 11
12.099976
 21
8.100008
  0
LINE
  8
0
  6
CONTINUOUS
 62
     7
 10
11.699986
 20
8.4999981
 11
12.099988
 21
8.0999956
  0
LINE
  8
0
  6
CONTINUOUS
 62
     7
 10
12.5
 20
5.5009985
 11
12.5
 21
8.8000011
  0
LINE
  8
0
  6
CONTINUOUS
 62
     7
 10
12.399993
 20
4.6299872
 11
12.099976
 21
4.9300036
  0
LINE
  8
0
  6
CONTINUOUS
 62
     7
 10
12.299994
 20
8.9999886
 11
12.49999
 21
8.7999926
  0
LINE
  8
0
  6
CONTINUOUS
 62
     7
 10
12
 20
7.9000034
 11
12
 21
2.5000019
  0
LINE
  8
0
  6
CONTINUOUS
 62
     7
 10
11.5
 20
2.0000019
 11
7
 21
2.0000019
  0
LINE
  8
0
  6
CONTINUOUS
 62
     7
 10
11.999999
 20
7.8999834
 11
11.499998
 21
8.3999834
  0
LINE
  8
0
  6
CONTINUOUS
 62
     7
 10
11.999986
 20
2.5000134
 11
11.499985
 21
2.0000129
  0
LINE
  8
0
  6
CONTINUOUS
 62
     7
 10
7.6999817
 20
5.2000027
 11
7.6999817
 21
2.0000019
  0
LINE
  8
0
  6
CONTINUOUS
 62
     7
 10
12
 20
6.0500011
 11
10.899994
 21
6.0500011
  0
LINE
  8
0
  6
CONTINUOUS
 62
     7
 10
9.6499939
 20
8.4000034
 11
9.6499939
 21
7.3000011
  0
LINE
  8
0
  6
CONTINUOUS
 62
     7
 10
-3.899997
 20
8.8999796
 11
-4.2999887
 21
8.4999876
  0
LINE
  8
0
  6
CONTINUOUS
 62
     7
 10
-12.300003
 20
9.0000057
 11
-5.3000031
 21
9.0000057
  0
LINE
  8
0
  6
CONTINUOUS
 62
     7
 10
-12.000015
 20
2.0000019
 11
-7.0000153
 21
2.0000019
  0
LINE
  8
0
  6
CONTINUOUS
 62
     7
 10
-12.400009
 20
4.630003
 11
-12.400009
 21
2.4000034
  0
LINE
  8
0
  6
CONTINUOUS
 62
     7
 10
-11.999982
 20
1.9999914
 11
-12.399984
 21
2.3999939
  0
LINE
  8
0
  6
CENTER
 62
     7
 10
-9.5000153
 20
9.5646725
 11
-9.5000153
 21
4.2368984
  0
LINE
  8
0
  6
CONTINUOUS
 62
     7
 10
-12.099991
 20
4.9299808
 11
-12.099991
 21
8.1000042
  0
LINE
  8
0
  6
CONTINUOUS
 62
     7
 10
-11.699978
 20
8.4999981
 11
-12.09998
 21
8.0999956
  0
LINE
  8
0
  6
CONTINUOUS
 62
     7
 10
-11.699997
 20
8.5000057
 11
11.699982
 21
8.5000057
  0
LINE
  8
0
  6
CONTINUOUS
 62
     7
 10
-12.500015
 20
5.5009985
 11
-12.500015
 21
8.8000011
  0
LINE
  8
0
  6
CONTINUOUS
 62
     7
 10
-12.399984
 20
4.6299872
 11
-12.099991
 21
4.9299808
  0
LINE
  8
0
  6
CONTINUOUS
 62
     7
 10
-12.299987
 20
8.9999876
 11
-12.499983
 21
8.7999916
  0
LINE
  8
0
  6
CONTINUOUS
 62
     7
 10
-12.000015
 20
7.9000034
 11
-12.000015
 21
2.5000019
  0
LINE
  8
0
  6
CONTINUOUS
 62
     7
 10
-11.500015
 20
2.0000019
 11
-7.0000153
 21
2.0000019
  0
LINE
  8
0
  6
CONTINUOUS
 62
     7
 10
-11.999991
 20
7.8999958
 11
-11.49999
 21
8.3999968
  0
LINE
  8
0
  6
CONTINUOUS
 62
     7
 10
-11.999994
 20
2.5000062
 11
-11.499993
 21
2.0000057
  0
LINE
  8
0
  6
CONTINUOUS
 62
     7
 10
-7.6999969
 20
5.2000027
 11
-7.6999969
 21
2.0000019
  0
LINE
  8
0
  6
CONTINUOUS
 62
     7
 10
-12.000015
 20
6.0500011
 11
-10.899994
 21
6.0500011
  0
LINE
  8
0
  6
CONTINUOUS
 62
     7
 10
-4.7999892
 20
8.4999981
 11
-5.2999902
 21
8.999999
  0
LINE
  8
0
  6
CONTINUOUS
 62
     7
 10
6.9999847
 20
5.9000034
 11
-7
 21
5.9000034
  0
LINE
  8
0
  6
CONTINUOUS
 62
     7
 10
11.5
 20
8.4000034
 11
-11.500015
 21
8.4000034
  0
LINE
  8
0
  6
CONTINUOUS
 62
     7
 10
89.325874
 20
5.2002373
 11
113.57538
 21
5.2002373
  0
LINE
  8
0
  6
CONTINUOUS
 62
     7
 10
89.325874
 20
4.9002342
 11
113.57538
 21
4.9002342
  0
LINE
  8
0
  6
CONTINUOUS
 62
     7
 10
89.325874
 20
4.3923073
 11
113.57538
 21
4.3923073
  0
LINE
  8
0
  6
CONTINUOUS
 62
     7
 10
89.325874
 20
2.7969091
 11
113.57538
 21
2.7969091
  0
LINE
  8
0
  6
CONTINUOUS
 62
     7
 10
33.575375
 20
5.2002373
 11
57.825874
 21
5.2002373
  0
LINE
  8
0
  6
CONTINUOUS
 62
     7
 10
6.9999857
 20
5.9000034
 11
7.6999822
 21
5.200007
  0
LINE
  8
0
  6
CONTINUOUS
 62
     7
 10
-6.9999943
 20
5.8999963
 11
-7.6999907
 21
5.1999998
  0
LINE
  8
0
  6
CONTINUOUS
 62
     7
 10
-9.6499939
 20
8.4000034
 11
-9.6499939
 21
7.3000011
  0
LINE
  8
0
  6
CONTINUOUS
 62
     7
 10
-11.394983
 20
6.8050261
 11
-10.405034
 21
7.7949758
  0
LINE
  8
0
  6
CONTINUOUS
 62
     7
 10
-11.394983
 20
7.7949753
 11
-10.405034
 21
6.8050261
  0
LINE
  8
0
  6
CONTINUOUS
 62
     7
 10
33.575375
 20
5.2002373
 11
33.575375
 21
0.00023246204
  0
LINE
  8
0
  6
CENTER
 62
     7
 10
103.57538
 20
6.1309624
 11
103.57538
 21
-1.7669718
  0
LINE
  8
0
  6
CONTINUOUS
 62
     7
 10
113.57538
 20
5.2002373
 11
113.57538
 21
0.00023246204
  0
LINE
  8
0
  6
CONTINUOUS
 62
     7
 10
59.575874
 20
5.0006862
 11
87.575874
 21
5.0006862
  0
LINE
  8
0
  6
CONTINUOUS
 62
     7
 10
33.575375
 20
35.200237
 11
57.825874
 21
35.200237
  0
LINE
  8
0
  6
CONTINUOUS
 62
     7
 10
89.325874
 20
35.200237
 11
113.57538
 21
35.200237
  0
LINE
  8
0
  6
CONTINUOUS
 62
     7
 10
33.575375
 20
49.200237
 11
57.825874
 21
49.200237
  0
LINE
  8
0
  6
CONTINUOUS
 62
     7
 10
89.325874
 20
49.200237
 11
113.57538
 21
49.200237
  0
LINE
  8
0
  6
CONTINUOUS
 62
     7
 10
33.575375
 20
49.200237
 11
33.575375
 21
35.200237
  0
LINE
  8
0
  6
CONTINUOUS
 62
     7
 10
57.825874
 20
49.900238
 11
57.825874
 21
34.500237
  0
LINE
  8
0
  6
CONTINUOUS
 62
     7
 10
58.575874
 20
54.200237
 11
58.575874
 21
53.868317
  0
LINE
  8
0
  6
CONTINUOUS
 62
     7
 10
59.075874
 20
54.200237
 11
59.075874
 21
30.200237
  0
LINE
  8
0
  6
CONTINUOUS
 62
     7
 10
59.575874
 20
54.300236
 11
59.575874
 21
30.100237
  0
LINE
  8
0
  6
CONTINUOUS
 62
     7
 10
63.725883
 20
54.700237
 11
63.725883
 21
46.500237
  0
LINE
  8
0
  6
CONTINUOUS
 62
     7
 10
61.585869
 20
54.700237
 11
61.585869
 21
29.700237
  0
LINE
  8
0
  6
CONTINUOUS
 62
     7
 10
83.42588
 20
54.700237
 11
83.42588
 21
46.500237
  0
LINE
  8
0
  6
CONTINUOUS
 62
     7
 10
85.56588
 20
54.700237
 11
85.56588
 21
29.700237
  0
LINE
  8
0
  6
CONTINUOUS
 62
     7
 10
113.57538
 20
49.200237
 11
113.57538
 21
35.200237
  0
LINE
  8
0
  6
CENTER
 62
     7
 10
29.962101
 20
42.200237
 11
116.4876
 21
42.200237
  0
LINE
  8
0
  6
CONTINUOUS
 62
     7
 10
61.585869
 20
54.700237
 11
85.56588
 21
54.700237
  0
LINE
  8
0
  6
CONTINUOUS
 62
     7
 10
61.585869
 20
29.700237
 11
85.56588
 21
29.700237
  0
LINE
  8
0
  6
CONTINUOUS
 62
     7
 10
58.575874
 20
54.200237
 11
59.575874
 21
54.200237
  0
LINE
  8
0
  6
CONTINUOUS
 62
     7
 10
58.575874
 20
30.200237
 11
59.575874
 21
30.200237
  0
LINE
  8
0
  6
CONTINUOUS
 62
     7
 10
59.575874
 20
30.100237
 11
61.585869
 21
30.100237
  0
LINE
  8
0
  6
CONTINUOUS
 62
     7
 10
59.575874
 20
54.300236
 11
61.585869
 21
54.300236
  0
LINE
  8
0
  6
CONTINUOUS
 62
     7
 10
57.825874
 20
49.900238
 11
58.575874
 21
49.900238
  0
LINE
  8
0
  6
CONTINUOUS
 62
     7
 10
57.825874
 20
34.500237
 11
58.575874
 21
34.500237
  0
LINE
  8
0
  6
CONTINUOUS
 62
     7
 10
58.868202
 20
32.300236
 11
59.075874
 21
32.300236
  0
LINE
  8
0
  6
CONTINUOUS
 62
     7
 10
58.868202
 20
30.300238
 11
59.075874
 21
30.300238
  0
LINE
  8
0
  6
CONTINUOUS
 62
     7
 10
58.868202
 20
54.100239
 11
59.075874
 21
54.100239
  0
LINE
  8
0
  6
CONTINUOUS
 62
     7
 10
58.868202
 20
52.100239
 11
59.075874
 21
52.100239
  0
LINE
  8
0
  6
CONTINUOUS
 62
     7
 10
58.575874
 20
52.332157
 11
58.575874
 21
32.068317
  0
LINE
  8
0
  6
CONTINUOUS
 62
     7
 10
58.575874
 20
30.532827
 11
58.575874
 21
30.200237
  0
LINE
  8
0
  6
CONTINUOUS
 62
     7
 10
61.585869
 20
46.500237
 11
85.56588
 21
46.500237
  0
LINE
  8
0
  6
CONTINUOUS
 62
     7
 10
61.585869
 20
37.900238
 11
85.56588
 21
37.900238
  0
LINE
  8
0
  6
CONTINUOUS
 62
     7
 10
63.725883
 20
47.000237
 11
83.42588
 21
47.000237
  0
LINE
  8
0
  6
CONTINUOUS
 62
     7
 10
63.725883
 20
37.400238
 11
83.42588
 21
37.400238
  0
LINE
  8
0
  6
CONTINUOUS
 62
     7
 10
63.725883
 20
37.900238
 11
63.725883
 21
29.700237
  0
LINE
  8
0
  6
CONTINUOUS
 62
     7
 10
83.42588
 20
37.900238
 11
83.42588
 21
29.700237
  0
LINE
  8
0
  6
CONTINUOUS
 62
     7
 10
87.575874
 20
54.300236
 11
87.575874
 21
30.100237
  0
LINE
  8
0
  6
CONTINUOUS
 62
     7
 10
89.325874
 20
34.500237
 11
88.575874
 21
34.500237
  0
LINE
  8
0
  6
CONTINUOUS
 62
     7
 10
88.575874
 20
30.532827
 11
88.575874
 21
30.200237
  0
LINE
  8
0
  6
CONTINUOUS
 62
     7
 10
87.575874
 20
30.100237
 11
85.56588
 21
30.100237
  0
LINE
  8
0
  6
CONTINUOUS
 62
     7
 10
88.283546
 20
32.300236
 11
88.075874
 21
32.300236
  0
LINE
  8
0
  6
CONTINUOUS
 62
     7
 10
88.283546
 20
54.100239
 11
88.075874
 21
54.100239
  0
LINE
  8
0
  6
CONTINUOUS
 62
     7
 10
89.325874
 20
49.900238
 11
88.575874
 21
49.900238
  0
LINE
  8
0
  6
CONTINUOUS
 62
     7
 10
88.575874
 20
52.332157
 11
88.575874
 21
32.068317
  0
LINE
  8
0
  6
CONTINUOUS
 62
     7
 10
89.325874
 20
49.900238
 11
89.325874
 21
34.500237
  0
LINE
  8
0
  6
CONTINUOUS
 62
     7
 10
88.575874
 20
54.200237
 11
87.575874
 21
54.200237
  0
LINE
  8
0
  6
CONTINUOUS
 62
     7
 10
88.283546
 20
52.100239
 11
88.075874
 21
52.100239
  0
LINE
  8
0
  6
CONTINUOUS
 62
     7
 10
88.575874
 20
30.200237
 11
87.575874
 21
30.200237
  0
LINE
  8
0
  6
CONTINUOUS
 62
     7
 10
87.575874
 20
54.300236
 11
85.56588
 21
54.300236
  0
LINE
  8
0
  6
CONTINUOUS
 62
     7
 10
88.075874
 20
54.200237
 11
88.075874
 21
30.200237
  0
LINE
  8
0
  6
CONTINUOUS
 62
     7
 10
88.575874
 20
54.200237
 11
88.575874
 21
53.868317
  0
LINE
  8
0
  6
CONTINUOUS
 62
     7
 10
88.283546
 20
30.300238
 11
88.075874
 21
30.300238
  0
LINE
  8
0
  6
CENTER
 62
     7
 10
70.210876
 20
32.700237
 11
66.940872
 21
32.700237
  0
LINE
  8
0
  6
CENTER
 62
     7
 10
68.575874
 20
34.335236
 11
68.575874
 21
31.065237
  0
LINE
  8
0
  6
CENTER
 62
     7
 10
80.210876
 20
32.700237
 11
76.940872
 21
32.700237
  0
LINE
  8
0
  6
CENTER
 62
     7
 10
78.575874
 20
34.335236
 11
78.575874
 21
31.065237
  0
LINE
  8
0
  6
CENTER
 62
     7
 10
80.210876
 20
51.700237
 11
76.940872
 21
51.700237
  0
LINE
  8
0
  6
CENTER
 62
     7
 10
78.575874
 20
53.335236
 11
78.575874
 21
50.065235
  0
LINE
  8
0
  6
CENTER
 62
     7
 10
70.210876
 20
51.700237
 11
66.940872
 21
51.700237
  0
LINE
  8
0
  6
CENTER
 62
     7
 10
68.575874
 20
53.335236
 11
68.575874
 21
50.065235
  0
LINE
  8
0
  6
CENTER
 62
     7
 10
103.57587
 20
45.335236
 11
103.57587
 21
39.065235
  0
LINE
  8
0
  6
CENTER
 62
     7
 10
73.575874
 20
45.335236
 11
73.575874
 21
39.065235
  0
LINE
  8
0
  6
CENTER
 62
     7
 10
43.575874
 20
45.335236
 11
43.575874
 21
39.065235
  0
ARC
  8
0
  6
CONTINUOUS
 62
     7
 10
61.475883
 20
7.3002357
 40
3
 50
164.97389
 51
195.02612
  0
ARC
  8
0
  6
CONTINUOUS
 62
     7
 10
58.868202
 20
8.0002403
 40
0.30000001
 50
90.000003
 51
164.97389
  0
ARC
  8
0
  6
CONTINUOUS
 62
     7
 10
58.868202
 20
6.6002388
 40
0.30000001
 50
195.02611
 51
270
  0
ARC
  8
0
  6
CONTINUOUS
 62
     7
 10
85.67588
 20
7.3002357
 40
3
 50
344.97389
 51
15.026114
  0
ARC
  8
0
  6
CONTINUOUS
 62
     7
 10
88.283562
 20
8.0002403
 40
0.30000001
 50
15.026114
 51
90.000003
  0
ARC
  8
0
  6
CONTINUOUS
 62
     7
 10
88.283562
 20
6.6002388
 40
0.30000001
 50
270
 51
344.97389
  0
ARC
  8
0
  6
CONTINUOUS
 62
     7
 10
-7.2708435
 20
3.7209148
 40
0.94999945
 50
286.56918
 51
352.68762
  0
ARC
  8
0
  6
CONTINUOUS
 62
     7
 10
-7.2708435
 20
3.4790783
 40
0.94999945
 50
7.3123766
 51
73.430817
  0
ARC
  8
0
  6
CONTINUOUS
 62
     7
 10
7.2709961
 20
3.7209148
 40
0.94999945
 50
187.31238
 51
253.43085
  0
ARC
  8
0
  6
CONTINUOUS
 62
     7
 10
7.2709961
 20
3.4790783
 40
0.94999945
 50
106.56915
 51
172.68762
  0
ARC
  8
0
  6
CONTINUOUS
 62
     7
 10
12
 20
5.5009985
 40
0.5
 50
281.5341
 51
0
  0
ARC
  8
0
  6
CONTINUOUS
 62
     7
 10
10.899994
 20
7.3000011
 40
1.25
 50
180.00001
 51
270
  0
CIRCLE
  8
0
  6
CONTINUOUS
 62
     7
 10
10.899994
 20
7.3000011
 40
1
  0
CIRCLE
  8
0
  6
CONTINUOUS
 62
     7
 10
-10.900009
 20
7.3000011
 40
1
  0
ARC
  8
0
  6
CONTINUOUS
 62
     7
 10
-12.000015
 20
5.5009985
 40
0.5
 50
179.99999
 51
258.46589
  0
CIRCLE
  8
0
  6
CONTINUOUS
 62
     7
 10
0
 20
7.2000017
 40
0.80000001
  0
ARC
  8
0
  6
CONTINUOUS
 62
     7
 10
-10.899994
 20
7.3000011
 40
1.25
 50
270
 51
359.99999
  0
ARC
  8
0
  6
CONTINUOUS
 62
     7
 10
58.868202
 20
32.00024
 40
0.30000001
 50
90.000003
 51
164.97389
  0
ARC
  8
0
  6
CONTINUOUS
 62
     7
 10
58.868202
 20
30.600241
 40
0.30000001
 50
195.02611
 51
270
  0
ARC
  8
0
  6
CONTINUOUS
 62
     7
 10
61.475883
 20
31.300238
 40
3
 50
164.97389
 51
195.02612
  0
ARC
  8
0
  6
CONTINUOUS
 62
     7
 10
58.868202
 20
52.400242
 40
0.30000001
 50
195.02611
 51
270
  0
ARC
  8
0
  6
CONTINUOUS
 62
     7
 10
58.868202
 20
53.800243
 40
0.30000001
 50
90.000003
 51
164.97389
  0
ARC
  8
0
  6
CONTINUOUS
 62
     7
 10
61.475883
 20
53.100239
 40
3
 50
164.97389
 51
195.02612
  0
ARC
  8
0
  6
CONTINUOUS
 62
     7
 10
88.283546
 20
30.600241
 40
0.30000001
 50
270
 51
344.97389
  0
ARC
  8
0
  6
CONTINUOUS
 62
     7
 10
88.283546
 20
32.00024
 40
0.30000001
 50
15.026111
 51
89.999996
  0
ARC
  8
0
  6
CONTINUOUS
 62
     7
 10
85.675865
 20
31.300238
 40
3
 50
344.97388
 51
15.026111
  0
ARC
  8
0
  6
CONTINUOUS
 62
     7
 10
88.283546
 20
53.800243
 40
0.30000001
 50
15.026111
 51
89.999996
  0
ARC
  8
0
  6
CONTINUOUS
 62
     7
 10
85.675865
 20
53.100239
 40
3
 50
344.97388
 51
15.026111
  0
ARC
  8
0
  6
CONTINUOUS
 62
     7
 10
88.283546
 20
52.400242
 40
0.30000001
 50
270
 51
344.97389
  0
CIRCLE
  8
0
  6
CONTINUOUS
 62
     7
 10
68.575874
 20
32.700237
 40
1.5
  0
CIRCLE
  8
0
  6
CONTINUOUS
 62
     7
 10
68.575874
 20
32.700237
 40
1.25
  0
CIRCLE
  8
0
  6
CONTINUOUS
 62
     7
 10
43.575874
 20
42.200237
 40
3
  0
CIRCLE
  8
0
  6
CONTINUOUS
 62
     7
 10
43.575874
 20
42.200237
 40
1.75
  0
TEXT
  8
0
  6
CONTINUOUS
 62
     7
 10
20.992506
 20
-28.89454
 40
3.5999999
 41
1.0392157
  1
RSR7WZ
  0
TEXT
  8
0
  6
CONTINUOUS
 62
     7
 10
23.968718
 20
-34.591218
 40
3.5999999
 41
1.0289855
  1
C =1370N
  0
TEXT
  8
0
  6
CONTINUOUS
 62
     7
 10
23.968718
 20
-39.591218
 40
3.5999999
 41
1.0289855
  1
C0=2160N
  0
ENDSEC
  0
EOF
