  0
SECTION
  2
HEADER
  0
ENDSEC
  0
SECTION
  2
TABLES
  0
TABLE
  2
LTYPE
 70
    22
  0
LTYPE
  2
CONTINUOUS
 70
    64
  3
Solid line
 72
    65
 73
     0
 40
0.000000
  0
LTYPE
  2
DASHED
 70
    64
  3
__ __ __ __ __ __ __ __ __ __ __ __ __ __ __
 72
    65
 73
     2
 40
3.500000
 49
2.000000
 49
-1.500000
  0
LTYPE
  2
CENTER
 70
    64
  3
____ _ ____ _ ____ _ ____ _ ____ _ ____ _ ____
 72
    65
 73
     4
 40
17.500000
 49
13.000000
 49
-1.500000
 49
1.500000
 49
-1.500000
  0
LTYPE
  2
PHANTOM
 70
    64
  3
_____ _ _ _____ _ _ _____ _ _ _____ _ _ ____  
 72
    65
 73
     6
 40
15.500000
 49
8.000000
 49
-1.500000
 49
1.500000
 49
-1.500000
 49
1.500000
 49
-1.500000
  0
LTYPE
  2
DOT
 70
    64
  3
. . . . . . . . . . . . . . . . . . . . . . . .
 72
    65
 73
     2
 40
0.25
 49
0.0
 49
-0.25
  0
ENDTAB
  0
TABLE
  2
LAYER
 70
     1
  0
LAYER
  2
0
 70
     0
 62
     7
  6
CONTINUOUS
  0
ENDTAB
  0
TABLE
  2
STYLE
 70
     1
  0
STYLE
  2
STANDARD
 70
     0
 40
0.000000
 41
1.000000
 50
0.000000
 71
     0
 42
0.200000
  3
txt
  0
ENDTAB
  0
TABLE
  2
VIEW
 70
     0
  0
ENDTAB
  0
ENDSEC
  0
SECTION
  2
BLOCKS
  0
ENDSEC
  0
SECTION
  2
ENTITIES
  0
LINE
  8
0
  6
CONTINUOUS
 62
     7
 10
-3.5
 20
0.4499984681606293
 11
-3.5
 21
2.296666860580444
  0
LINE
  8
0
  6
CONTINUOUS
 62
     7
 10
-4
 20
8
 11
-8.099998474121094
 21
8
  0
LINE
  8
0
  6
CONTINUOUS
 62
     7
 10
-8.5
 20
7.599998474121094
 11
-8.5
 21
4.300000190734863
  0
LINE
  8
0
  6
CONTINUOUS
 62
     7
 10
-3.099998474121094
 20
4.700000762939453
 11
3.199996948242188
 21
4.700000762939453
  0
LINE
  8
0
  6
CONTINUOUS
 62
     7
 10
-3.5
 20
3.903331756591797
 11
-3.5
 21
4.299999237060547
  0
LINE
  8
0
  6
CONTINUOUS
 62
     7
 10
-3.099995136260986
 20
4.699995517730713
 11
-3.499997615814209
 21
4.299992561340332
  0
LINE
  8
0
  6
CONTINUOUS
 62
     7
 10
-8.099991798400879
 20
7.99998950958252
 11
-8.499992370605469
 21
7.599989414215088
  0
LINE
  8
0
  6
CONTINUOUS
 62
     7
 10
-3.5
 20
0.4499985277652741
 11
-3.050001621246338
 21
0
  0
LINE
  8
0
  6
CONTINUOUS
 62
     7
 10
3.5
 20
0.4500007629394531
 11
3.5
 21
2.296669006347656
  0
LINE
  8
0
  6
CONTINUOUS
 62
     7
 10
4.199996948242188
 20
1.5
 11
7.900001525878906
 21
1.5
  0
LINE
  8
0
  6
CONTINUOUS
 62
     7
 10
8.5
 20
7.599998474121094
 11
8.5
 21
4.300000190734863
  0
LINE
  8
0
  6
CONTINUOUS
 62
     7
 10
3.5
 20
3.903331756591797
 11
3.5
 21
4.299999237060547
  0
LINE
  8
0
  6
CONTINUOUS
 62
     7
 10
8.399998664855957
 20
1.999999403953552
 11
7.899997711181641
 21
1.499998927116394
  0
LINE
  8
0
  6
CONTINUOUS
 62
     7
 10
8.100005149841309
 20
7.999995231628418
 11
8.500007629394531
 21
7.599992752075195
  0
LINE
  8
0
  6
CONTINUOUS
 62
     7
 10
3.5
 20
0.4499914348125458
 11
3.050003051757813
 21
-5.563384092965862E-006
  0
LINE
  8
0
  6
CONTINUOUS
 62
     7
 10
35.28513336181641
 20
8.00023078918457
 11
48.48513412475586
 21
8.00023078918457
  0
LINE
  8
0
  6
CONTINUOUS
 62
     7
 10
21.88508415222168
 20
4.700231552124023
 11
30.18513679504395
 21
4.700231552124023
  0
LINE
  8
0
  6
CONTINUOUS
 62
     7
 10
35.28513336181641
 20
8.00023078918457
 11
35.28513336181641
 21
4.300230026245117
  0
LINE
  8
0
  6
CONTINUOUS
 62
     7
 10
3.050008535385132
 20
0
 11
-3.050001621246338
 21
0
  0
LINE
  8
0
  6
CENTER
 62
     7
 10
6
 20
8.407516479492188
 11
6
 21
4.006027221679688
  0
LINE
  8
0
  6
CONTINUOUS
 62
     7
 10
-3.999997854232788
 20
7.999991893768311
 11
-3.600001096725464
 21
7.599995136260986
  0
LINE
  8
0
  6
CONTINUOUS
 62
     7
 10
-2.300003051757813
 20
7.900001525878906
 11
2.300003051757813
 21
7.900001525878906
  0
LINE
  8
0
  6
CONTINUOUS
 62
     7
 10
-2.599994659423828
 20
7.599989891052246
 11
-2.299992561340332
 21
7.899991989135742
  0
LINE
  8
0
  6
CONTINUOUS
 62
     7
 10
4
 20
8
 11
8.099998474121094
 21
8
  0
LINE
  8
0
  6
CONTINUOUS
 62
     7
 10
4.000002861022949
 20
7.999995231628418
 11
3.600002527236939
 21
7.599995136260986
  0
LINE
  8
0
  6
CONTINUOUS
 62
     7
 10
3.600005865097046
 20
7.599998474121094
 11
2.599998474121094
 21
7.599998474121094
  0
LINE
  8
0
  6
CONTINUOUS
 62
     7
 10
2.600001573562622
 20
7.599995136260986
 11
2.300007581710815
 21
7.899989128112793
  0
LINE
  8
0
  6
CONTINUOUS
 62
     7
 10
31.68513298034668
 20
7.50023078918457
 11
31.68513298034668
 21
1.500230550765991
  0
LINE
  8
0
  6
CONTINUOUS
 62
     7
 10
30.18513679504395
 20
5.100229263305664
 11
30.18513679504395
 21
1.500230550765991
  0
LINE
  8
0
  6
CONTINUOUS
 62
     7
 10
35.28513336181641
 20
7.50023078918457
 11
30.68513679504395
 21
7.50023078918457
  0
LINE
  8
0
  6
CONTINUOUS
 62
     7
 10
30.18513679504395
 20
1.500230550765991
 11
53.58513259887695
 21
1.500230550765991
  0
LINE
  8
0
  6
CONTINUOUS
 62
     7
 10
33.38513565063477
 20
5.00023078918457
 11
35.08513259887695
 21
5.00023078918457
  0
LINE
  8
0
  6
CONTINUOUS
 62
     7
 10
33.38513565063477
 20
5.00023078918457
 11
33.38513565063477
 21
7.50023078918457
  0
LINE
  8
0
  6
CONTINUOUS
 62
     7
 10
35.28513336181641
 20
5.00023078918457
 11
48.48513412475586
 21
5.00023078918457
  0
LINE
  8
0
  6
CENTER
 62
     7
 10
37.88513565063477
 20
8.407747268676758
 11
37.88513565063477
 21
4.006258010864258
  0
LINE
  8
0
  6
DASHED
 62
     7
 10
38.88513565063477
 20
8.00023078918457
 11
38.88513565063477
 21
5.50023078918457
  0
LINE
  8
0
  6
DASHED
 62
     7
 10
38.73513412475586
 20
8.00023078918457
 11
38.73513412475586
 21
4.790979385375977
  0
LINE
  8
0
  6
DASHED
 62
     7
 10
38.88513565063477
 20
5.50023078918457
 11
36.88513565063477
 21
5.50023078918457
  0
LINE
  8
0
  6
DASHED
 62
     7
 10
37.8851318359375
 20
4.30023193359375
 11
38.73513031005859
 21
4.790979385375977
  0
LINE
  8
0
  6
DASHED
 62
     7
 10
38.73513412475586
 20
4.790979385375977
 11
37.03513336181641
 21
4.790979385375977
  0
LINE
  8
0
  6
DASHED
 62
     7
 10
36.88513565063477
 20
8.00023078918457
 11
36.88513565063477
 21
5.50023078918457
  0
LINE
  8
0
  6
DASHED
 62
     7
 10
37.03513336181641
 20
8.00023078918457
 11
37.03513336181641
 21
4.790979385375977
  0
LINE
  8
0
  6
DASHED
 62
     7
 10
37.8851318359375
 20
4.300230503082275
 11
37.03513336181641
 21
4.790976047515869
  0
LINE
  8
0
  6
CENTER
 62
     7
 10
45.88513565063477
 20
8.407747268676758
 11
45.88513565063477
 21
4.006258010864258
  0
LINE
  8
0
  6
CONTINUOUS
 62
     7
 10
30.68513679504395
 20
1.500230550765991
 11
30.68513679504395
 21
5.207666397094727
  0
LINE
  8
0
  6
CONTINUOUS
 62
     7
 10
30.97744941711426
 20
7.050230026245117
 11
31.18513298034668
 21
7.050230026245117
  0
LINE
  8
0
  6
CONTINUOUS
 62
     7
 10
30.68513679504395
 20
4.850229263305664
 11
31.18513298034668
 21
4.850229263305664
  0
LINE
  8
0
  6
CONTINUOUS
 62
     7
 10
31.18513298034668
 20
1.500230550765991
 11
31.18513298034668
 21
7.50023078918457
  0
LINE
  8
0
  6
CONTINUOUS
 62
     7
 10
30.68513679504395
 20
6.883974075317383
 11
30.68513679504395
 21
7.50023078918457
  0
LINE
  8
0
  6
CONTINUOUS
 62
     7
 10
35.08513259887695
 20
1.500230550765991
 11
35.08513259887695
 21
5.00023078918457
  0
LINE
  8
0
  6
CONTINUOUS
 62
     7
 10
48.48513412475586
 20
8.00023078918457
 11
48.48513412475586
 21
4.300230026245117
  0
LINE
  8
0
  6
CONTINUOUS
 62
     7
 10
52.08513259887695
 20
7.50023078918457
 11
52.08513259887695
 21
1.500230550765991
  0
LINE
  8
0
  6
CONTINUOUS
 62
     7
 10
53.58513259887695
 20
5.100229263305664
 11
53.58513259887695
 21
1.500230550765991
  0
LINE
  8
0
  6
CONTINUOUS
 62
     7
 10
53.08513259887695
 20
7.50023078918457
 11
48.48513412475586
 21
7.50023078918457
  0
LINE
  8
0
  6
CONTINUOUS
 62
     7
 10
50.38513565063477
 20
5.00023078918457
 11
48.68513488769531
 21
5.00023078918457
  0
LINE
  8
0
  6
CONTINUOUS
 62
     7
 10
50.38513565063477
 20
5.00023078918457
 11
50.38513565063477
 21
7.50023078918457
  0
LINE
  8
0
  6
CONTINUOUS
 62
     7
 10
53.08513259887695
 20
1.500230550765991
 11
53.08513259887695
 21
5.207666397094727
  0
LINE
  8
0
  6
CONTINUOUS
 62
     7
 10
52.79281616210938
 20
7.050230026245117
 11
52.58513259887695
 21
7.050230026245117
  0
LINE
  8
0
  6
CONTINUOUS
 62
     7
 10
52.79281616210938
 20
5.050230026245117
 11
52.58513259887695
 21
5.050230026245117
  0
LINE
  8
0
  6
CONTINUOUS
 62
     7
 10
53.08513259887695
 20
4.850229263305664
 11
52.58513259887695
 21
4.850229263305664
  0
LINE
  8
0
  6
CONTINUOUS
 62
     7
 10
52.58513259887695
 20
1.500230550765991
 11
52.58513259887695
 21
7.50023078918457
  0
LINE
  8
0
  6
CONTINUOUS
 62
     7
 10
53.08513259887695
 20
6.883974075317383
 11
53.08513259887695
 21
7.50023078918457
  0
LINE
  8
0
  6
CONTINUOUS
 62
     7
 10
48.68513488769531
 20
1.500230550765991
 11
48.68513488769531
 21
5.00023078918457
  0
LINE
  8
0
  6
CONTINUOUS
 62
     7
 10
8.400001525878906
 20
3.930000305175781
 11
8.400001525878906
 21
2
  0
LINE
  8
0
  6
CONTINUOUS
 62
     7
 10
48.48513031005859
 20
7.836463928222656
 11
50.06698226928711
 21
7.50023078918457
  0
LINE
  8
0
  6
CONTINUOUS
 62
     7
 10
35.28512954711914
 20
7.836469173431397
 11
33.70328140258789
 21
7.500236034393311
  0
LINE
  8
0
  6
CONTINUOUS
 62
     7
 10
8.400001525878906
 20
3.929996252059937
 11
8.199995040893555
 21
4.130002975463867
  0
LINE
  8
0
  6
CONTINUOUS
 62
     7
 10
31.68513298034668
 20
3.930230855941773
 11
52.08513259887695
 21
3.930230855941773
  0
LINE
  8
0
  6
CONTINUOUS
 62
     7
 10
31.68513298034668
 20
4.300230026245117
 11
52.08513259887695
 21
4.300230026245117
  0
LINE
  8
0
  6
CONTINUOUS
 62
     7
 10
53.58513259887695
 20
4.700231552124023
 11
61.88508224487305
 21
4.700231552124023
  0
LINE
  8
0
  6
CONTINUOUS
 62
     7
 10
21.88508415222168
 20
0.0002305853413417935
 11
61.88508224487305
 21
0.0002305853413417935
  0
LINE
  8
0
  6
CONTINUOUS
 62
     7
 10
30.97744941711426
 20
5.050230026245117
 11
31.18513298034668
 21
5.050230026245117
  0
LINE
  8
0
  6
CONTINUOUS
 62
     7
 10
-7.900001525878906
 20
7.5
 11
7.899993896484375
 21
7.5
  0
LINE
  8
0
  6
CONTINUOUS
 62
     7
 10
-3.099998474121094
 20
5.099998474121094
 11
3.099998474121094
 21
5.099998474121094
  0
LINE
  8
0
  6
CONTINUOUS
 62
     7
 10
3.5
 20
4.400001525878906
 11
3.5
 21
3.892067432403565
  0
LINE
  8
0
  6
CONTINUOUS
 62
     7
 10
3.499998331069946
 20
4.399998188018799
 11
3.199999094009399
 21
4.699997425079346
  0
LINE
  8
0
  6
CONTINUOUS
 62
     7
 10
8.199996948242188
 20
7.200000762939453
 11
8.199996948242188
 21
1.799999237060547
  0
LINE
  8
0
  6
CONTINUOUS
 62
     7
 10
7.899993896484375
 20
1.5
 11
3.5
 21
1.5
  0
LINE
  8
0
  6
CONTINUOUS
 62
     7
 10
7.899999618530273
 20
1.499998569488525
 11
8.19999885559082
 21
1.799997806549072
  0
LINE
  8
0
  6
CONTINUOUS
 62
     7
 10
8.199996948242188
 20
7.200003147125244
 11
7.900002479553223
 21
7.499997138977051
  0
LINE
  8
0
  6
CONTINUOUS
 62
     7
 10
5.649993896484375
 20
7.5
 11
5.649993896484375
 21
6.049999237060547
  0
LINE
  8
0
  6
CONTINUOUS
 62
     7
 10
8.199996948242188
 20
4.799999237060547
 11
6.899993896484375
 21
4.799999237060547
  0
LINE
  8
0
  6
CONTINUOUS
 62
     7
 10
3.900001525878906
 20
4.299999237060547
 11
3.900001525878906
 21
1.5
  0
LINE
  8
0
  6
CONTINUOUS
 62
     7
 10
30.18513679504395
 20
5.100229263305664
 11
30.68513679504395
 21
5.100229263305664
  0
LINE
  8
0
  6
CONTINUOUS
 62
     7
 10
53.58513641357422
 20
5.100229263305664
 11
53.08513641357422
 21
5.100229263305664
  0
LINE
  8
0
  6
DASHED
 62
     7
 10
36.88513565063477
 20
5.50022554397583
 11
37.03513717651367
 21
5.240415573120117
  0
LINE
  8
0
  6
DASHED
 62
     7
 10
38.73513031005859
 20
5.240419864654541
 11
38.8851318359375
 21
5.500230312347412
  0
LINE
  8
0
  6
CONTINUOUS
 62
     7
 10
21.88508415222168
 20
2.308164358139038
 11
30.18513679504395
 21
2.308164358139038
  0
LINE
  8
0
  6
CONTINUOUS
 62
     7
 10
21.88508415222168
 20
3.892297506332398
 11
30.18513679504395
 21
3.892297506332398
  0
LINE
  8
0
  6
CONTINUOUS
 62
     7
 10
21.88508415222168
 20
4.400232315063477
 11
30.18513679504395
 21
4.400232315063477
  0
LINE
  8
0
  6
CONTINUOUS
 62
     7
 10
53.58513259887695
 20
4.400232315063477
 11
61.88508224487305
 21
4.400232315063477
  0
LINE
  8
0
  6
CONTINUOUS
 62
     7
 10
53.58513259887695
 20
3.892297506332398
 11
61.88508224487305
 21
3.892297506332398
  0
LINE
  8
0
  6
CONTINUOUS
 62
     7
 10
53.58513259887695
 20
2.308164358139038
 11
61.88508224487305
 21
2.308164358139038
  0
LINE
  8
0
  6
DASHED
 62
     7
 10
-2.099998474121094
 20
2.400001525878906
 11
-2.099998474121094
 21
4.700000762939453
  0
LINE
  8
0
  6
DASHED
 62
     7
 10
-2.099998474121094
 20
2.400001525878906
 11
2.099998474121094
 21
2.400001525878906
  0
LINE
  8
0
  6
DASHED
 62
     7
 10
-1.199996948242188
 20
0
 11
-1.199996948242188
 21
2.400001525878906
  0
LINE
  8
0
  6
DASHED
 62
     7
 10
1.199996948242188
 20
0
 11
1.199996948242188
 21
2.400001525878906
  0
LINE
  8
0
  6
DASHED
 62
     7
 10
2.099998474121094
 20
2.400001525878906
 11
2.099998474121094
 21
4.700000762939453
  0
LINE
  8
0
  6
DASHED
 62
     7
 10
24.78508567810059
 20
2.400232076644898
 11
24.78508567810059
 21
4.700231552124023
  0
LINE
  8
0
  6
DASHED
 62
     7
 10
24.78508567810059
 20
2.400232076644898
 11
28.98508262634277
 21
2.400232076644898
  0
LINE
  8
0
  6
DASHED
 62
     7
 10
28.98508262634277
 20
2.400232076644898
 11
28.98508262634277
 21
4.700231552124023
  0
LINE
  8
0
  6
DASHED
 62
     7
 10
25.68508720397949
 20
0.09038714319467545
 11
25.68508720397949
 21
2.400232076644898
  0
LINE
  8
0
  6
DASHED
 62
     7
 10
28.08508110046387
 20
0.0002305853413417935
 11
28.08508110046387
 21
2.400232076644898
  0
LINE
  8
0
  6
CENTER
 62
     7
 10
26.88508415222168
 20
5.597539901733398
 11
26.88508415222168
 21
-0.5889913439750671
  0
LINE
  8
0
  6
CENTER
 62
     7
 10
41.88508224487305
 20
2.101770162582398
 11
41.88508224487305
 21
-0.5889913439750671
  0
LINE
  8
0
  6
CENTER
 62
     7
 10
56.88508224487305
 20
5.597539901733398
 11
56.88508224487305
 21
-0.5889913439750671
  0
LINE
  8
0
  6
CONTINUOUS
 62
     7
 10
-3.900001525878906
 20
4.299999237060547
 11
-3.900001525878906
 21
1.5
  0
LINE
  8
0
  6
CONTINUOUS
 62
     7
 10
-7.899993896484375
 20
1.5
 11
-3.5
 21
1.5
  0
LINE
  8
0
  6
CONTINUOUS
 62
     7
 10
-7.899998664855957
 20
1.499994516372681
 11
-8.199997901916504
 21
1.799993753433228
  0
LINE
  8
0
  6
CONTINUOUS
 62
     7
 10
-8.199996948242188
 20
7.200000762939453
 11
-8.199996948242188
 21
1.799999237060547
  0
LINE
  8
0
  6
CONTINUOUS
 62
     7
 10
-8.199994087219238
 20
7.200004100799561
 11
-7.90000057220459
 21
7.499998092651367
  0
LINE
  8
0
  6
CONTINUOUS
 62
     7
 10
-8.199996948242188
 20
4.799999237060547
 11
-6.899993896484375
 21
4.799999237060547
  0
LINE
  8
0
  6
CONTINUOUS
 62
     7
 10
-3.600004196166992
 20
7.599998474121094
 11
-2.599998474121094
 21
7.599998474121094
  0
LINE
  8
0
  6
CONTINUOUS
 62
     7
 10
-4.199996948242188
 20
1.5
 11
-7.900001525878906
 21
1.5
  0
LINE
  8
0
  6
CONTINUOUS
 62
     7
 10
-8.399996757507324
 20
1.999994039535523
 11
-7.899996280670166
 21
1.499993562698364
  0
LINE
  8
0
  6
CONTINUOUS
 62
     7
 10
-8.400001525878906
 20
3.930000305175781
 11
-8.400001525878906
 21
2
  0
LINE
  8
0
  6
CONTINUOUS
 62
     7
 10
-8.399999618530273
 20
3.929990291595459
 11
-8.199993133544922
 21
4.129996776580811
  0
LINE
  8
0
  6
CONTINUOUS
 62
     7
 10
-7.899998664855957
 20
1.499994516372681
 11
-8.199997901916504
 21
1.799993753433228
  0
LINE
  8
0
  6
CENTER
 62
     7
 10
0
 20
-0.4361508786678314
 11
0
 21
8.597871780395508
  0
LINE
  8
0
  6
CONTINUOUS
 62
     7
 10
-5.649993896484375
 20
7.5
 11
-5.649993896484375
 21
6.049999237060547
  0
LINE
  8
0
  6
CENTER
 62
     7
 10
-6
 20
8.407516479492188
 11
-6
 21
4.006027221679688
  0
LINE
  8
0
  6
CONTINUOUS
 62
     7
 10
61.88508224487305
 20
4.700231552124023
 11
61.88508224487305
 21
0.0002305853413417935
  0
LINE
  8
0
  6
CONTINUOUS
 62
     7
 10
21.88508415222168
 20
4.700231552124023
 11
21.88508415222168
 21
0.0002305853413417935
  0
LINE
  8
0
  6
CONTINUOUS
 62
     7
 10
21.88508415222168
 20
19.70023155212402
 11
30.18513679504395
 21
19.70023155212402
  0
LINE
  8
0
  6
CONTINUOUS
 62
     7
 10
53.58513259887695
 20
19.70023155212402
 11
61.88508224487305
 21
19.70023155212402
  0
LINE
  8
0
  6
CONTINUOUS
 62
     7
 10
21.88508415222168
 20
26.70023155212402
 11
30.18513679504395
 21
26.70023155212402
  0
LINE
  8
0
  6
CONTINUOUS
 62
     7
 10
53.58513259887695
 20
26.70023155212402
 11
61.88508224487305
 21
26.70023155212402
  0
LINE
  8
0
  6
CENTER
 62
     7
 10
18.63339614868164
 20
23.20023155212402
 11
64.18101501464844
 21
23.20023155212402
  0
LINE
  8
0
  6
CONTINUOUS
 62
     7
 10
21.88508415222168
 20
26.70023155212402
 11
21.88508415222168
 21
19.70023155212402
  0
LINE
  8
0
  6
CONTINUOUS
 62
     7
 10
30.18513679504395
 20
27.1002311706543
 11
30.18513679504395
 21
19.30023193359375
  0
LINE
  8
0
  6
CONTINUOUS
 62
     7
 10
30.68513679504395
 20
31.40023040771484
 11
30.68513679504395
 21
30.86836814880371
  0
LINE
  8
0
  6
CONTINUOUS
 62
     7
 10
31.18513298034668
 20
31.40023040771484
 11
31.18513298034668
 21
15.00023174285889
  0
LINE
  8
0
  6
CONTINUOUS
 62
     7
 10
31.68513298034668
 20
31.40023040771484
 11
31.68513298034668
 21
15.00023174285889
  0
LINE
  8
0
  6
CONTINUOUS
 62
     7
 10
33.38513565063477
 20
31.70023155212402
 11
33.38513565063477
 21
14.70023155212402
  0
LINE
  8
0
  6
CONTINUOUS
 62
     7
 10
35.28513336181641
 20
31.70023155212402
 11
35.28513336181641
 21
25.80023193359375
  0
LINE
  8
0
  6
CONTINUOUS
 62
     7
 10
48.48513412475586
 20
31.70023155212402
 11
48.48513412475586
 21
25.80023193359375
  0
LINE
  8
0
  6
CONTINUOUS
 62
     7
 10
50.38513565063477
 20
31.70023155212402
 11
50.38513565063477
 21
14.70023155212402
  0
LINE
  8
0
  6
CONTINUOUS
 62
     7
 10
52.08513259887695
 20
31.40023040771484
 11
52.08513259887695
 21
15.00023174285889
  0
LINE
  8
0
  6
CONTINUOUS
 62
     7
 10
61.88508224487305
 20
26.70023155212402
 11
61.88508224487305
 21
19.70023155212402
  0
LINE
  8
0
  6
CONTINUOUS
 62
     7
 10
33.38513565063477
 20
31.70023155212402
 11
50.38513565063477
 21
31.70023155212402
  0
LINE
  8
0
  6
CONTINUOUS
 62
     7
 10
33.38513565063477
 20
14.70023155212402
 11
50.38513565063477
 21
14.70023155212402
  0
LINE
  8
0
  6
CONTINUOUS
 62
     7
 10
30.68513679504395
 20
31.40023040771484
 11
33.38513565063477
 21
31.40023040771484
  0
LINE
  8
0
  6
CONTINUOUS
 62
     7
 10
30.68513679504395
 20
15.00023174285889
 11
33.38513565063477
 21
15.00023174285889
  0
LINE
  8
0
  6
CONTINUOUS
 62
     7
 10
35.28513336181641
 20
26.80023193359375
 11
48.48513412475586
 21
26.80023193359375
  0
LINE
  8
0
  6
CONTINUOUS
 62
     7
 10
35.28513336181641
 20
19.6002311706543
 11
48.48513412475586
 21
19.6002311706543
  0
LINE
  8
0
  6
CONTINUOUS
 62
     7
 10
33.38513565063477
 20
25.80023193359375
 11
50.38513565063477
 21
25.80023193359375
  0
LINE
  8
0
  6
CONTINUOUS
 62
     7
 10
33.38513565063477
 20
20.6002311706543
 11
50.38513565063477
 21
20.6002311706543
  0
LINE
  8
0
  6
CONTINUOUS
 62
     7
 10
35.28513336181641
 20
20.6002311706543
 11
35.28513336181641
 21
14.70023155212402
  0
LINE
  8
0
  6
CONTINUOUS
 62
     7
 10
48.48513412475586
 20
20.6002311706543
 11
48.48513412475586
 21
14.70023155212402
  0
LINE
  8
0
  6
CONTINUOUS
 62
     7
 10
-7.394968986511231
 20
5.55502462387085
 11
-6.405019283294678
 21
6.544974327087402
  0
LINE
  8
0
  6
CONTINUOUS
 62
     7
 10
-7.394968509674072
 20
6.544973850250244
 11
-6.405019283294678
 21
5.55502462387085
  0
LINE
  8
0
  6
CONTINUOUS
 62
     7
 10
30.18513679504395
 20
27.1002311706543
 11
30.68513679504395
 21
27.1002311706543
  0
LINE
  8
0
  6
CONTINUOUS
 62
     7
 10
30.18513679504395
 20
19.30023193359375
 11
30.68513679504395
 21
19.30023193359375
  0
LINE
  8
0
  6
CONTINUOUS
 62
     7
 10
30.97744941711426
 20
17.30023193359375
 11
31.18513298034668
 21
17.30023193359375
  0
LINE
  8
0
  6
CONTINUOUS
 62
     7
 10
30.97744941711426
 20
15.30023097991943
 11
31.18513298034668
 21
15.30023097991943
  0
LINE
  8
0
  6
CONTINUOUS
 62
     7
 10
30.97744941711426
 20
29.1002311706543
 11
31.18513298034668
 21
29.1002311706543
  0
LINE
  8
0
  6
CONTINUOUS
 62
     7
 10
30.97744941711426
 20
31.1002311706543
 11
31.18513298034668
 21
31.1002311706543
  0
LINE
  8
0
  6
CONTINUOUS
 62
     7
 10
30.68513679504395
 20
29.33209419250488
 11
30.68513679504395
 21
17.06836891174316
  0
LINE
  8
0
  6
CONTINUOUS
 62
     7
 10
30.68513679504395
 20
15.53275203704834
 11
30.68513679504395
 21
15.00023174285889
  0
LINE
  8
0
  6
CONTINUOUS
 62
     7
 10
52.79281616210938
 20
31.1002311706543
 11
52.58513259887695
 21
31.1002311706543
  0
LINE
  8
0
  6
CONTINUOUS
 62
     7
 10
52.79281616210938
 20
29.1002311706543
 11
52.58513259887695
 21
29.1002311706543
  0
LINE
  8
0
  6
CONTINUOUS
 62
     7
 10
52.79281616210938
 20
15.30023097991943
 11
52.58513259887695
 21
15.30023097991943
  0
LINE
  8
0
  6
CONTINUOUS
 62
     7
 10
53.08512878417969
 20
15.00023174285889
 11
50.3851318359375
 21
15.00023174285889
  0
LINE
  8
0
  6
CONTINUOUS
 62
     7
 10
53.08512878417969
 20
31.40023040771484
 11
50.3851318359375
 21
31.40023040771484
  0
LINE
  8
0
  6
CONTINUOUS
 62
     7
 10
52.79281616210938
 20
17.30023193359375
 11
52.58513259887695
 21
17.30023193359375
  0
LINE
  8
0
  6
CONTINUOUS
 62
     7
 10
53.58512878417969
 20
27.1002311706543
 11
53.08512878417969
 21
27.1002311706543
  0
LINE
  8
0
  6
CONTINUOUS
 62
     7
 10
53.58512878417969
 20
19.30023193359375
 11
53.08512878417969
 21
19.30023193359375
  0
LINE
  8
0
  6
CONTINUOUS
 62
     7
 10
52.58513259887695
 20
31.40023040771484
 11
52.58513259887695
 21
15.00023174285889
  0
LINE
  8
0
  6
CONTINUOUS
 62
     7
 10
53.08512878417969
 20
31.40023040771484
 11
53.08512878417969
 21
30.86836814880371
  0
LINE
  8
0
  6
CONTINUOUS
 62
     7
 10
53.58512878417969
 20
27.1002311706543
 11
53.58512878417969
 21
19.30023193359375
  0
LINE
  8
0
  6
CONTINUOUS
 62
     7
 10
53.08512878417969
 20
15.53275203704834
 11
53.08512878417969
 21
15.00023174285889
  0
LINE
  8
0
  6
CONTINUOUS
 62
     7
 10
53.08512878417969
 20
29.33209419250488
 11
53.08512878417969
 21
17.06836891174316
  0
LINE
  8
0
  6
CENTER
 62
     7
 10
26.8851318359375
 20
25.43523216247559
 11
26.8851318359375
 21
20.96523094177246
  0
LINE
  8
0
  6
CENTER
 62
     7
 10
41.8851318359375
 20
25.43523216247559
 11
41.8851318359375
 21
20.96523094177246
  0
LINE
  8
0
  6
CENTER
 62
     7
 10
56.8851318359375
 20
25.43523216247559
 11
56.8851318359375
 21
20.96523094177246
  0
LINE
  8
0
  6
CENTER
 62
     7
 10
39.02013397216797
 20
17.20023155212402
 11
36.7501335144043
 21
17.20023155212402
  0
LINE
  8
0
  6
CENTER
 62
     7
 10
37.88513565063477
 20
18.33523178100586
 11
37.88513565063477
 21
16.06523132324219
  0
LINE
  8
0
  6
CENTER
 62
     7
 10
47.02013397216797
 20
17.20023155212402
 11
44.7501335144043
 21
17.20023155212402
  0
LINE
  8
0
  6
CENTER
 62
     7
 10
45.88513565063477
 20
18.33523178100586
 11
45.88513565063477
 21
16.06523132324219
  0
LINE
  8
0
  6
CENTER
 62
     7
 10
47.02013397216797
 20
29.20023155212402
 11
44.7501335144043
 21
29.20023155212402
  0
LINE
  8
0
  6
CENTER
 62
     7
 10
45.88513565063477
 20
30.33523178100586
 11
45.88513565063477
 21
28.06523132324219
  0
LINE
  8
0
  6
CENTER
 62
     7
 10
39.02013397216797
 20
29.20023155212402
 11
36.7501335144043
 21
29.20023155212402
  0
LINE
  8
0
  6
CENTER
 62
     7
 10
37.88513565063477
 20
30.33523178100586
 11
37.88513565063477
 21
28.06523132324219
  0
LINE
  8
0
  6
DASHED
 62
     7
 10
-5
 20
8
 11
-5
 21
5.5
  0
LINE
  8
0
  6
DASHED
 62
     7
 10
-5.150001525878906
 20
8
 11
-5.150001525878906
 21
4.790748596191406
  0
LINE
  8
0
  6
DASHED
 62
     7
 10
-5
 20
5.5
 11
-7
 21
5.5
  0
LINE
  8
0
  6
DASHED
 62
     7
 10
-6.000003337860107
 20
4.300001621246338
 11
-5.150003433227539
 21
4.790749073028565
  0
LINE
  8
0
  6
DASHED
 62
     7
 10
-5.150001525878906
 20
4.790748596191406
 11
-6.850002288818359
 21
4.790748596191406
  0
LINE
  8
0
  6
DASHED
 62
     7
 10
-7
 20
8
 11
-7
 21
5.5
  0
LINE
  8
0
  6
DASHED
 62
     7
 10
-6.850002288818359
 20
8
 11
-6.850002288818359
 21
4.790748596191406
  0
LINE
  8
0
  6
DASHED
 62
     7
 10
-6.000005722045898
 20
4.299999713897705
 11
-6.850001811981201
 21
4.790745258331299
  0
LINE
  8
0
  6
DASHED
 62
     7
 10
-7.000000476837158
 20
5.499995231628418
 11
-6.849998950958252
 21
5.240184307098389
  0
LINE
  8
0
  6
DASHED
 62
     7
 10
-5.150003910064697
 20
5.240189075469971
 11
-5.000002384185791
 21
5.499999046325684
  0
LINE
  8
0
  6
CENTER
 62
     7
 10
-1.75
 20
6.40000057220459
 11
1.75
 21
6.40000057220459
  0
ARC
  8
0
  6
CONTINUOUS
 62
     7
 10
-3.760307312011719
 20
2.989692687988281
 40
0.9499999880790714
 50
6.667846245612131
 51
74.0971091353974
  0
ARC
  8
0
  6
CONTINUOUS
 62
     7
 10
-3.760307312011719
 20
3.210308074951172
 40
0.9499999880790709
 50
285.9028908646026
 51
353.3321537543879
  0
ARC
  8
0
  6
CONTINUOUS
 62
     7
 10
33.58513259887695
 20
6.050230026245117
 40
2.999999999999999
 50
164.9738893632518
 51
195.0261206546609
  0
ARC
  8
0
  6
CONTINUOUS
 62
     7
 10
30.97744941711426
 20
6.75023078918457
 40
0.3000000119209292
 50
90.00000250447825
 51
164.9738893632516
  0
ARC
  8
0
  6
CONTINUOUS
 62
     7
 10
30.97744941711426
 20
5.350229263305664
 40
0.3000000119209274
 50
195.0261106367484
 51
269.9999974955218
  0
ARC
  8
0
  6
CONTINUOUS
 62
     7
 10
50.18513488769531
 20
6.050230026245117
 40
2.999999999999997
 50
344.9738860618427
 51
15.02611393815725
  0
ARC
  8
0
  6
CONTINUOUS
 62
     7
 10
52.79281616210938
 20
6.75023078918457
 40
0.3000000119209297
 50
15.02611393815724
 51
90.00000250447756
  0
ARC
  8
0
  6
CONTINUOUS
 62
     7
 10
52.79281616210938
 20
5.350229263305664
 40
0.3000000119209292
 50
269.9999974955225
 51
344.9738860618428
  0
ARC
  8
0
  6
CONTINUOUS
 62
     7
 10
-8.199996948242188
 20
4.300000190734863
 40
0.3000000119209288
 50
180.000008651422
 51
248.6226255444059
  0
ARC
  8
0
  6
CONTINUOUS
 62
     7
 10
8.199996948242188
 20
4.300000190734863
 40
0.300000011920929
 50
291.3785647297427
 51
0
  0
ARC
  8
0
  6
CONTINUOUS
 62
     7
 10
3.099998474121094
 20
4.299999237060547
 40
0.800000011920929
 50
0
 51
90.00000250447816
  0
ARC
  8
0
  6
CONTINUOUS
 62
     7
 10
6.899993896484375
 20
6.049999237060547
 40
1.25
 50
180.000008651422
 51
269.9999974955218
  0
ARC
  8
0
  6
CONTINUOUS
 62
     7
 10
3.703742980957031
 20
3.046260833740234
 40
0.8700000047683714
 50
103.5437212134799
 51
183.46400374842
  0
CIRCLE
  8
0
  6
CONTINUOUS
 62
     7
 10
6.899993896484375
 20
6.049999237060547
 40
1
  0
ARC
  8
0
  6
CONTINUOUS
 62
     7
 10
-3.099998474121094
 20
4.299999237060547
 40
0.8000000119209286
 50
89.999995674289
 51
180.0000050089563
  0
CIRCLE
  8
0
  6
CONTINUOUS
 62
     7
 10
-6.899993896484375
 20
6.049999237060547
 40
1
  0
CIRCLE
  8
0
  6
CONTINUOUS
 62
     7
 10
0
 20
6.40000057220459
 40
0.75
  0
ARC
  8
0
  6
CONTINUOUS
 62
     7
 10
-6.899993896484375
 20
6.049999237060547
 40
1.25
 50
269.9999974955218
 51
359.9999913485778
  0
ARC
  8
0
  6
CONTINUOUS
 62
     7
 10
33.58513259887695
 20
16.30023193359375
 40
2.999999999999999
 50
164.9738893632518
 51
195.0261206546609
  0
ARC
  8
0
  6
CONTINUOUS
 62
     7
 10
30.97744941711426
 20
17.0002326965332
 40
0.3000000119209292
 50
90.00000250447825
 51
164.9738893632516
  0
ARC
  8
0
  6
CONTINUOUS
 62
     7
 10
30.97744941711426
 20
15.60023021697998
 40
0.3000000119209274
 50
195.0261106367484
 51
269.9999974955218
  0
ARC
  8
0
  6
CONTINUOUS
 62
     7
 10
33.58513259887695
 20
30.1002311706543
 40
2.999999999999999
 50
164.9738893632518
 51
195.0261206546609
  0
ARC
  8
0
  6
CONTINUOUS
 62
     7
 10
30.97744941711426
 20
30.80023193359375
 40
0.3000000119209292
 50
90.00000250447825
 51
164.9738893632516
  0
ARC
  8
0
  6
CONTINUOUS
 62
     7
 10
30.97744941711426
 20
29.40023040771484
 40
0.3000000119209274
 50
195.0261106367484
 51
269.9999974955218
  0
ARC
  8
0
  6
CONTINUOUS
 62
     7
 10
50.18513488769531
 20
30.1002311706543
 40
3.000000000000003
 50
344.9738792316535
 51
15.02611052306269
  0
ARC
  8
0
  6
CONTINUOUS
 62
     7
 10
52.79281616210938
 20
29.40023040771484
 40
0.3000000119209298
 50
270.0000043257116
 51
344.9738894769374
  0
ARC
  8
0
  6
CONTINUOUS
 62
     7
 10
52.79281616210938
 20
30.80023193359375
 40
0.3000000119209278
 50
15.02611052306266
 51
89.99999567428839
  0
ARC
  8
0
  6
CONTINUOUS
 62
     7
 10
50.18513488769531
 20
16.30023193359375
 40
3.000000000000003
 50
344.9738792316535
 51
15.02611052306269
  0
ARC
  8
0
  6
CONTINUOUS
 62
     7
 10
52.79281616210938
 20
17.0002326965332
 40
0.3000000119209278
 50
15.02611052306266
 51
89.99999567428839
  0
ARC
  8
0
  6
CONTINUOUS
 62
     7
 10
52.79281616210938
 20
15.60023021697998
 40
0.3000000119209298
 50
270.0000043257116
 51
344.9738894769374
  0
CIRCLE
  8
0
  6
CONTINUOUS
 62
     7
 10
26.8851318359375
 20
23.20023155212402
 40
2.099999904632568
  0
CIRCLE
  8
0
  6
CONTINUOUS
 62
     7
 10
26.8851318359375
 20
23.20023155212402
 40
1.200000047683716
  0
CIRCLE
  8
0
  6
CONTINUOUS
 62
     7
 10
37.88513565063477
 20
17.20023155212402
 40
1
  0
CIRCLE
  8
0
  6
CONTINUOUS
 62
     7
 10
37.88513565063477
 20
17.20023155212402
 40
0.8500000238418579
  0
ARC
  8
0
  6
CONTINUOUS
 62
     7
 10
3.760307312011719
 20
3.210308074951172
 40
0.9499999880790713
 50
193.1802110324173
 51
254.0971109566302
  0
TEXT
  8
0
  6
CONTINUOUS
 62
     7
 10
-1.600000023841858
 20
-21.79999995231628
 40
3.599999904632568
 41
1.039215751203318
  1
RSR7ZM
  0
ENDSEC
  0
EOF
