  0
SECTION
  2
HEADER
  0
ENDSEC
  0
SECTION
  2
TABLES
  0
TABLE
  2
LTYPE
 70
    22
  0
LTYPE
  2
CONTINUOUS
 70
    64
  3
Solid line
 72
    65
 73
     0
 40
0.000000
  0
LTYPE
  2
DASHED
 70
    64
  3
__ __ __ __ __ __ __ __ __ __ __ __ __ __ __
 72
    65
 73
     2
 40
3.500000
 49
2.000000
 49
-1.500000
  0
LTYPE
  2
CENTER
 70
    64
  3
____ _ ____ _ ____ _ ____ _ ____ _ ____ _ ____
 72
    65
 73
     4
 40
17.500000
 49
13.000000
 49
-1.500000
 49
1.500000
 49
-1.500000
  0
LTYPE
  2
PHANTOM
 70
    64
  3
_____ _ _ _____ _ _ _____ _ _ _____ _ _ ____  
 72
    65
 73
     6
 40
15.500000
 49
8.000000
 49
-1.500000
 49
1.500000
 49
-1.500000
 49
1.500000
 49
-1.500000
  0
LTYPE
  2
DOT
 70
    64
  3
. . . . . . . . . . . . . . . . . . . . . . . .
 72
    65
 73
     2
 40
0.25
 49
0.0
 49
-0.25
  0
ENDTAB
  0
TABLE
  2
LAYER
 70
     1
  0
LAYER
  2
0
 70
     0
 62
     7
  6
CONTINUOUS
  0
ENDTAB
  0
TABLE
  2
STYLE
 70
     1
  0
STYLE
  2
STANDARD
 70
     0
 40
0.000000
 41
1.000000
 50
0.000000
 71
     0
 42
0.200000
  3
txt
  0
ENDTAB
  0
TABLE
  2
VIEW
 70
     0
  0
ENDTAB
  0
ENDSEC
  0
SECTION
  2
BLOCKS
  0
ENDSEC
  0
SECTION
  2
ENTITIES
  0
LINE
  8
0
  6
CONTINUOUS
 62
     7
 10
47.59999084472656
 20
10
 11
67.40000915527344
 21
10
  0
LINE
  8
0
  6
CONTINUOUS
 62
     7
 10
85
 20
5.5
 11
85
 21
0
  0
LINE
  8
0
  6
CONTINUOUS
 62
     7
 10
30
 20
5.5
 11
30
 21
0
  0
LINE
  8
0
  6
CONTINUOUS
 62
     7
 10
30
 20
5.5
 11
42.10003662109375
 21
5.5
  0
LINE
  8
0
  6
CONTINUOUS
 62
     7
 10
30
 20
4.847671508789063
 11
42.10003662109375
 21
4.847671508789063
  0
LINE
  8
0
  6
CONTINUOUS
 62
     7
 10
30
 20
2.92205810546875
 11
42.10003662109375
 21
2.92205810546875
  0
LINE
  8
0
  6
CONTINUOUS
 62
     7
 10
30
 20
0
 11
85
 21
0
  0
LINE
  8
0
  6
CONTINUOUS
 62
     7
 10
72.90000915527344
 20
5.5
 11
85
 21
5.5
  0
LINE
  8
0
  6
CONTINUOUS
 62
     7
 10
72.90000915527344
 20
4.847671508789063
 11
85
 21
4.847671508789063
  0
LINE
  8
0
  6
CONTINUOUS
 62
     7
 10
72.90000915527344
 20
2.92205810546875
 11
85
 21
2.92205810546875
  0
LINE
  8
0
  6
CONTINUOUS
 62
     7
 10
47.59999084472656
 20
10
 11
47.59999084472656
 21
2.199996948242188
  0
LINE
  8
0
  6
CONTINUOUS
 62
     7
 10
43.60003662109375
 20
9.29998779296875
 11
43.60003662109375
 21
2.199996948242188
  0
LINE
  8
0
  6
CONTINUOUS
 62
     7
 10
42.60003662109375
 20
9.29998779296875
 11
42.60003662109375
 21
2.199996948242188
  0
LINE
  8
0
  6
CONTINUOUS
 62
     7
 10
42.60003662109375
 20
9.29998779296875
 11
47.59999084472656
 21
9.29998779296875
  0
LINE
  8
0
  6
CONTINUOUS
 62
     7
 10
42.10003662109375
 20
2.199996948242188
 11
72.90000915527344
 21
2.199996948242188
  0
LINE
  8
0
  6
CENTER
 62
     7
 10
37.5
 20
6.319076538085938
 11
37.5
 21
-0.67401123046875
  0
LINE
  8
0
  6
DASHED
 62
     7
 10
34.5
 20
5.5
 11
34.5
 21
2.199996948242188
  0
LINE
  8
0
  6
DASHED
 62
     7
 10
40.5
 20
5.5
 11
40.5
 21
2.199996948242188
  0
LINE
  8
0
  6
DASHED
 62
     7
 10
34.5
 20
2.199996948242188
 11
40.5
 21
2.199996948242188
  0
LINE
  8
0
  6
DASHED
 62
     7
 10
35.75
 20
2.199996948242188
 11
35.75
 21
0
  0
LINE
  8
0
  6
DASHED
 62
     7
 10
39.25
 20
2.199996948242188
 11
39.25
 21
0
  0
LINE
  8
0
  6
CENTER
 62
     7
 10
52.5
 20
4.71649169921875
 11
52.5
 21
10.25201416015625
  0
LINE
  8
0
  6
DASHED
 62
     7
 10
54
 20
7
 11
54
 21
9.999893188476563
  0
LINE
  8
0
  6
DASHED
 62
     7
 10
51
 20
7
 11
51
 21
9.999893188476563
  0
LINE
  8
0
  6
DASHED
 62
     7
 10
53.79998779296875
 20
5.79998779296875
 11
53.79998779296875
 21
9.999893188476563
  0
LINE
  8
0
  6
DASHED
 62
     7
 10
51.19999694824219
 20
5.79998779296875
 11
51.19999694824219
 21
9.999893188476563
  0
LINE
  8
0
  6
DASHED
 62
     7
 10
51
 20
7
 11
54
 21
7
  0
LINE
  8
0
  6
DASHED
 62
     7
 10
51.19999694824219
 20
5.79998779296875
 11
53.79998779296875
 21
5.79998779296875
  0
LINE
  8
0
  6
DASHED
 62
     7
 10
52.50010299682617
 20
5.049274921417236
 11
53.80010604858398
 21
5.799832344055176
  0
LINE
  8
0
  6
DASHED
 62
     7
 10
53.80009841918945
 20
6.653476238250732
 11
54.00009536743164
 21
6.999881744384766
  0
LINE
  8
0
  6
DASHED
 62
     7
 10
51.20006561279297
 20
6.653501987457275
 11
51.00005340576172
 21
6.999933242797852
  0
LINE
  8
0
  6
DASHED
 62
     7
 10
52.50010681152344
 20
5.049327373504639
 11
51.20006561279297
 21
5.799907684326172
  0
LINE
  8
0
  6
CENTER
 62
     7
 10
62.5
 20
4.71649169921875
 11
62.5
 21
10.25201416015625
  0
LINE
  8
0
  6
CONTINUOUS
 62
     7
 10
67.40000915527344
 20
2.199996948242188
 11
67.40000915527344
 21
10
  0
LINE
  8
0
  6
CONTINUOUS
 62
     7
 10
71.40000915527344
 20
2.199996948242188
 11
71.40000915527344
 21
9.29998779296875
  0
LINE
  8
0
  6
CONTINUOUS
 62
     7
 10
72.90000915527344
 20
2.199996948242188
 11
72.90000915527344
 21
6.111151695251465
  0
LINE
  8
0
  6
CONTINUOUS
 62
     7
 10
72.40000915527344
 20
2.199996948242188
 11
72.40000915527344
 21
9.29998779296875
  0
LINE
  8
0
  6
CONTINUOUS
 62
     7
 10
67.40000915527344
 20
9.29998779296875
 11
72.40000915527344
 21
9.29998779296875
  0
LINE
  8
0
  6
CONTINUOUS
 62
     7
 10
42.10003662109375
 20
6.110950946807861
 11
42.10003662109375
 21
2.199996948242188
  0
LINE
  8
0
  6
CONTINUOUS
 62
     7
 10
4.20013427734375
 20
0
 11
-4.19996452331543
 21
0
  0
LINE
  8
0
  6
CENTER
 62
     7
 10
0
 20
10.48670959472656
 11
0
 21
-0.6740264892578125
  0
LINE
  8
0
  6
CONTINUOUS
 62
     7
 10
-4.09991455078125
 20
5.5
 11
4.10009765625
 21
5.5
  0
LINE
  8
0
  6
CONTINUOUS
 62
     7
 10
-4.5
 20
5.099990844726563
 11
-4.5
 21
4.788699150085449
  0
LINE
  8
0
  6
CONTINUOUS
 62
     7
 10
-4.499389171600342
 20
0.2994247674942017
 11
-4.199395179748535
 21
-0.0005692272097803652
  0
LINE
  8
0
  6
CONTINUOUS
 62
     7
 10
4.200552463531494
 20
-0.0004941888037137687
 11
4.500546455383301
 21
0.2994995713233948
  0
LINE
  8
0
  6
CONTINUOUS
 62
     7
 10
-9.499755859375
 20
9.999893188476563
 11
-5.5
 21
9.999893188476563
  0
LINE
  8
0
  6
CONTINUOUS
 62
     7
 10
10
 20
9.499893188476563
 11
10
 21
2.699996948242188
  0
LINE
  8
0
  6
CONTINUOUS
 62
     7
 10
-9.999755859375
 20
9.499893188476563
 11
-9.999755859375
 21
2.69981861114502
  0
LINE
  8
0
  6
CONTINUOUS
 62
     7
 10
9.5006103515625
 20
9.999446868896484
 11
10.00068664550781
 21
9.499371528625488
  0
LINE
  8
0
  6
CONTINUOUS
 62
     7
 10
-9.499350547790527
 20
9.999419212341309
 11
-9.999350547790527
 21
9.499418258666992
  0
LINE
  8
0
  6
CONTINUOUS
 62
     7
 10
-9.4996337890625
 20
2.199996948242188
 11
-4.6998291015625
 21
2.199996948242188
  0
LINE
  8
0
  6
CONTINUOUS
 62
     7
 10
5.000647068023682
 20
9.499415397644043
 11
5.500648021697998
 21
9.999415397644043
  0
LINE
  8
0
  6
CONTINUOUS
 62
     7
 10
-4.999401092529297
 20
9.499457359313965
 11
-5.499347686767578
 21
9.99940299987793
  0
LINE
  8
0
  6
CONTINUOUS
 62
     7
 10
5.5
 20
9.999893188476563
 11
9.5
 21
9.999893188476563
  0
LINE
  8
0
  6
CENTER
 62
     7
 10
7.5
 20
10.251953125
 11
7.5
 21
4.71649169921875
  0
LINE
  8
0
  6
CONTINUOUS
 62
     7
 10
-4.5
 20
2.811290740966797
 11
-4.5
 21
0.29998779296875
  0
LINE
  8
0
  6
CONTINUOUS
 62
     7
 10
-4.099310874938965
 20
5.499369621276856
 11
-4.499301910400391
 21
5.099377155303955
  0
LINE
  8
0
  6
DASHED
 62
     7
 10
-3
 20
2.199996948242188
 11
3
 21
2.199996948242188
  0
LINE
  8
0
  6
DASHED
 62
     7
 10
-1.75
 20
2.199996948242188
 11
-1.75
 21
0
  0
LINE
  8
0
  6
DASHED
 62
     7
 10
1.75
 20
2.199996948242188
 11
1.75
 21
0
  0
LINE
  8
0
  6
CONTINUOUS
 62
     7
 10
4.5
 20
4.788699150085449
 11
4.5
 21
5.099990844726563
  0
LINE
  8
0
  6
CONTINUOUS
 62
     7
 10
4.5
 20
0.29998779296875
 11
4.5
 21
2.811290740966797
  0
LINE
  8
0
  6
CONTINUOUS
 62
     7
 10
4.500634670257568
 20
5.099408149719238
 11
4.100643634796143
 21
5.499400615692139
  0
LINE
  8
0
  6
CONTINUOUS
 62
     7
 10
-5
 20
9.499893188476563
 11
5
 21
9.499893188476563
  0
LINE
  8
0
  6
CONTINUOUS
 62
     7
 10
4.69964599609375
 20
2.199996948242188
 11
9.5
 21
2.199996948242188
  0
LINE
  8
0
  6
CONTINUOUS
 62
     7
 10
9.500365257263184
 20
2.199675798416138
 11
10.00036525726318
 21
2.699676275253296
  0
LINE
  8
0
  6
CENTER
 62
     7
 10
-7.499755859375
 20
4.71649169921875
 11
-7.499755859375
 21
10.251953125
  0
LINE
  8
0
  6
CONTINUOUS
 62
     7
 10
-8.499755859375
 20
9.2999267578125
 11
8.498880386352539
 21
9.2999267578125
  0
LINE
  8
0
  6
CONTINUOUS
 62
     7
 10
-9.499755859375
 20
8.29998779296875
 11
-9.499755859375
 21
2.699996948242188
  0
LINE
  8
0
  6
CONTINUOUS
 62
     7
 10
-9.499755859375
 20
8.299053192138672
 11
-8.499378204345703
 21
9.299429893493652
  0
LINE
  8
0
  6
CONTINUOUS
 62
     7
 10
-9.499349594116211
 20
2.699414730072022
 11
-8.999359130859375
 21
2.199424743652344
  0
LINE
  8
0
  6
CONTINUOUS
 62
     7
 10
-5.29986572265625
 20
5.09999942779541
 11
-5.29986572265625
 21
2.199996948242188
  0
LINE
  8
0
  6
CONTINUOUS
 62
     7
 10
-4.699347972869873
 20
2.199407339096069
 11
-4.499351501464844
 21
2.399402856826782
  0
LINE
  8
0
  6
CONTINUOUS
 62
     7
 10
-9.999755859375
 20
2.699819326400757
 11
-9.499353408813477
 21
2.199416875839233
  0
LINE
  8
0
  6
CONTINUOUS
 62
     7
 10
9.5
 20
2.699996948242188
 11
9.5
 21
8.298808097839356
  0
LINE
  8
0
  6
CONTINUOUS
 62
     7
 10
8.999943733215332
 20
2.199647188186646
 11
9.499934196472168
 21
2.699636697769165
  0
LINE
  8
0
  6
CONTINUOUS
 62
     7
 10
5.300048828125
 20
2.199996948242188
 11
5.300048828125
 21
5.09999942779541
  0
LINE
  8
0
  6
CONTINUOUS
 62
     7
 10
4.500088214874268
 20
2.399447202682495
 11
4.700127601623535
 21
2.199408769607544
  0
LINE
  8
0
  6
DASHED
 62
     7
 10
-3
 20
5.5
 11
-3
 21
2.199996948242188
  0
LINE
  8
0
  6
DASHED
 62
     7
 10
3
 20
5.5
 11
3
 21
2.199996948242188
  0
LINE
  8
0
  6
CONTINUOUS
 62
     7
 10
9.5
 20
8.298809051513672
 11
8.499378204345703
 21
9.299429893493652
  0
LINE
  8
0
  6
CONTINUOUS
 62
     7
 10
-4.099865913391113
 20
6.300000190734863
 11
4.100049018859863
 21
6.300000190734863
  0
LINE
  8
0
  6
CONTINUOUS
 62
     7
 10
30
 20
54.4993896484375
 11
42.10003662109375
 21
54.4993896484375
  0
LINE
  8
0
  6
CONTINUOUS
 62
     7
 10
30
 20
45.49935913085938
 11
42.10003662109375
 21
45.49935913085938
  0
LINE
  8
0
  6
CENTER
 62
     7
 10
29
 20
50
 11
86
 21
50
  0
LINE
  8
0
  6
CONTINUOUS
 62
     7
 10
30
 20
54.4993896484375
 11
30
 21
45.49935913085938
  0
LINE
  8
0
  6
CONTINUOUS
 62
     7
 10
85
 20
54.4993896484375
 11
85
 21
45.49935913085938
  0
LINE
  8
0
  6
CONTINUOUS
 62
     7
 10
47.59999084472656
 20
59.99934387207031
 11
47.59999084472656
 21
39.99931335449219
  0
LINE
  8
0
  6
CONTINUOUS
 62
     7
 10
67.40000915527344
 20
59.99934387207031
 11
67.40000915527344
 21
39.99931335449219
  0
LINE
  8
0
  6
CONTINUOUS
 62
     7
 10
71.40003967285156
 20
59.69970703125
 11
71.40003967285156
 21
40.2999267578125
  0
LINE
  8
0
  6
CONTINUOUS
 62
     7
 10
43.60003662109375
 20
59.69970703125
 11
43.60003662109375
 21
40.2999267578125
  0
LINE
  8
0
  6
CONTINUOUS
 62
     7
 10
42.60003662109375
 20
59.499755859375
 11
42.60003662109375
 21
40.5
  0
LINE
  8
0
  6
CONTINUOUS
 62
     7
 10
72.40000915527344
 20
59.499755859375
 11
72.40000915527344
 21
40.5
  0
LINE
  8
0
  6
CONTINUOUS
 62
     7
 10
47.59999084472656
 20
59.99934387207031
 11
67.40000915527344
 21
59.99934387207031
  0
LINE
  8
0
  6
CONTINUOUS
 62
     7
 10
47.59999084472656
 20
55.49934387207031
 11
67.40000915527344
 21
55.49934387207031
  0
LINE
  8
0
  6
CONTINUOUS
 62
     7
 10
47.59999084472656
 20
44.49934387207031
 11
67.40000915527344
 21
44.49934387207031
  0
LINE
  8
0
  6
CONTINUOUS
 62
     7
 10
47.59999084472656
 20
39.99931335449219
 11
67.40000915527344
 21
39.99931335449219
  0
LINE
  8
0
  6
CONTINUOUS
 62
     7
 10
72.90000915527344
 20
54.4993896484375
 11
85
 21
54.4993896484375
  0
LINE
  8
0
  6
CONTINUOUS
 62
     7
 10
72.90000915527344
 20
45.49935913085938
 11
85
 21
45.49935913085938
  0
LINE
  8
0
  6
CONTINUOUS
 62
     7
 10
43.60003662109375
 20
40.2999267578125
 11
47.59999084472656
 21
40.2999267578125
  0
LINE
  8
0
  6
CONTINUOUS
 62
     7
 10
43.60003662109375
 20
59.69970703125
 11
47.59999084472656
 21
59.69970703125
  0
LINE
  8
0
  6
CONTINUOUS
 62
     7
 10
67.40000915527344
 20
59.69970703125
 11
71.40003967285156
 21
59.69970703125
  0
LINE
  8
0
  6
CONTINUOUS
 62
     7
 10
67.40000915527344
 20
40.2999267578125
 11
71.40003967285156
 21
40.2999267578125
  0
LINE
  8
0
  6
CONTINUOUS
 62
     7
 10
42.60003662109375
 20
40.5
 11
43.60003662109375
 21
40.5
  0
LINE
  8
0
  6
CONTINUOUS
 62
     7
 10
42.60003662109375
 20
59.499755859375
 11
43.60003662109375
 21
59.499755859375
  0
LINE
  8
0
  6
CONTINUOUS
 62
     7
 10
71.40003967285156
 20
59.499755859375
 11
72.40000915527344
 21
59.499755859375
  0
LINE
  8
0
  6
CONTINUOUS
 62
     7
 10
71.40003967285156
 20
40.5
 11
72.40000915527344
 21
40.5
  0
LINE
  8
0
  6
CONTINUOUS
 62
     7
 10
72.40000915527344
 20
44.699951171875
 11
72.90000915527344
 21
44.699951171875
  0
LINE
  8
0
  6
CONTINUOUS
 62
     7
 10
72.40000915527344
 20
55.29986572265625
 11
72.90000915527344
 21
55.29986572265625
  0
LINE
  8
0
  6
CONTINUOUS
 62
     7
 10
42.10003662109375
 20
55.29986572265625
 11
42.10003662109375
 21
44.699951171875
  0
LINE
  8
0
  6
CONTINUOUS
 62
     7
 10
72.90000915527344
 20
55.29986572265625
 11
72.90000915527344
 21
44.699951171875
  0
LINE
  8
0
  6
CONTINUOUS
 62
     7
 10
42.10003662109375
 20
44.699951171875
 11
42.60003662109375
 21
44.699951171875
  0
LINE
  8
0
  6
CONTINUOUS
 62
     7
 10
42.10003662109375
 20
55.29986572265625
 11
42.60003662109375
 21
55.29986572265625
  0
LINE
  8
0
  6
CENTER
 62
     7
 10
55
 20
42.5
 11
50
 21
42.5
  0
LINE
  8
0
  6
CENTER
 62
     7
 10
52.5
 20
45
 11
52.5
 21
40
  0
LINE
  8
0
  6
CENTER
 62
     7
 10
65
 20
42.5
 11
60
 21
42.5
  0
LINE
  8
0
  6
CENTER
 62
     7
 10
62.5
 20
45
 11
62.5
 21
40
  0
LINE
  8
0
  6
CENTER
 62
     7
 10
62.5
 20
55
 11
62.5
 21
60
  0
LINE
  8
0
  6
CENTER
 62
     7
 10
55
 20
57.5
 11
50
 21
57.5
  0
LINE
  8
0
  6
CENTER
 62
     7
 10
52.5
 20
55
 11
52.5
 21
60
  0
LINE
  8
0
  6
CENTER
 62
     7
 10
65
 20
57.5
 11
60
 21
57.5
  0
LINE
  8
0
  6
CENTER
 62
     7
 10
37.5
 20
53.5
 11
37.5
 21
46.5
  0
LINE
  8
0
  6
CENTER
 62
     7
 10
77.5
 20
53.5
 11
77.5
 21
46.5
  0
LINE
  8
0
  6
CONTINUOUS
 62
     7
 10
-8.206862449645996
 20
7.707106590270996
 11
-6.792648792266846
 21
6.292892932891846
  0
LINE
  8
0
  6
CONTINUOUS
 62
     7
 10
-6.792648792266846
 20
7.707106590270996
 11
-8.206862449645996
 21
6.292893409729004
  0
LINE
  8
0
  6
CENTER
 62
     7
 10
57.5
 20
6.319076538085938
 11
57.5
 21
-0.67401123046875
  0
LINE
  8
0
  6
CENTER
 62
     7
 10
77.5
 20
6.319076538085938
 11
77.5
 21
-0.67401123046875
  0
LINE
  8
0
  6
CENTER
 62
     7
 10
57.5
 20
53.5
 11
57.5
 21
46.5
  0
LINE
  8
0
  6
DASHED
 62
     7
 10
-5.999755859375
 20
6.999893188476563
 11
-5.999755859375
 21
9.999893188476563
  0
LINE
  8
0
  6
DASHED
 62
     7
 10
-8.999755859375
 20
6.999893188476563
 11
-8.999755859375
 21
9.999893188476563
  0
LINE
  8
0
  6
DASHED
 62
     7
 10
-6.19976806640625
 20
5.799880981445313
 11
-6.19976806640625
 21
9.999893188476563
  0
LINE
  8
0
  6
DASHED
 62
     7
 10
-8.799758911132813
 20
5.799880981445313
 11
-8.799758911132813
 21
9.999893188476563
  0
LINE
  8
0
  6
DASHED
 62
     7
 10
-8.999755859375
 20
6.999893188476563
 11
-5.999755859375
 21
6.999893188476563
  0
LINE
  8
0
  6
DASHED
 62
     7
 10
-8.799758911132813
 20
5.799880981445313
 11
-6.19976806640625
 21
5.799880981445313
  0
LINE
  8
0
  6
DASHED
 62
     7
 10
-7.499651908874512
 20
5.049168586730957
 11
-6.199649333953857
 21
5.799725532531738
  0
LINE
  8
0
  6
DASHED
 62
     7
 10
-6.199656486511231
 20
6.653369426727295
 11
-5.999660015106201
 21
6.99977445602417
  0
LINE
  8
0
  6
DASHED
 62
     7
 10
-8.799690246582031
 20
6.653395652770996
 11
-8.999702453613281
 21
6.999826908111572
  0
LINE
  8
0
  6
DASHED
 62
     7
 10
-7.499647617340088
 20
5.049220561981201
 11
-8.799690246582031
 21
5.799800872802734
  0
ARC
  8
0
  6
CONTINUOUS
 62
     7
 10
45.9999885559082
 20
6.999984741210938
 40
3.999999999999998
 50
163.398451589675
 51
196.6451350351424
  0
ARC
  8
0
  6
CONTINUOUS
 62
     7
 10
42.64587783813477
 20
7.999984741210938
 40
0.5000000000000009
 50
95.2603136748988
 51
163.398451589675
  0
ARC
  8
0
  6
CONTINUOUS
 62
     7
 10
42.64587783813477
 20
6
 40
0.4999999999999981
 50
196.6012752027584
 51
264.7396863251012
  0
CIRCLE
  8
0
  6
CONTINUOUS
 62
     7
 10
-7.499755859375
 20
6.999984741210938
 40
1.499998092651367
  0
CIRCLE
  8
0
  6
CONTINUOUS
 62
     7
 10
7.499755859375
 20
6.999984741210938
 40
1.499998092651367
  0
ARC
  8
0
  6
CONTINUOUS
 62
     7
 10
-4.099865913391113
 20
5.09999942779541
 40
1.199999809265137
 50
89.99998201391068
 51
179.9999640278213
  0
ARC
  8
0
  6
CONTINUOUS
 62
     7
 10
4.100049018859863
 20
5.09999942779541
 40
1.199999809265137
 50
0
 51
89.99998201391068
  0
ARC
  8
0
  6
CONTINUOUS
 62
     7
 10
45.9999885559082
 20
57.5
 40
3.999999999999998
 50
163.3985062311883
 51
196.6016403905078
  0
ARC
  8
0
  6
CONTINUOUS
 62
     7
 10
42.64592361450195
 20
58.49998474121094
 40
0.4999999999999966
 50
95.26558658093771
 51
163.3985062311881
  0
ARC
  8
0
  6
CONTINUOUS
 62
     7
 10
42.64592361450195
 20
56.5
 40
0.4999999999999988
 50
196.6012752027586
 51
264.7344134190623
  0
CIRCLE
  8
0
  6
CONTINUOUS
 62
     7
 10
52.5
 20
42.5
 40
1.5
  0
CIRCLE
  8
0
  6
CONTINUOUS
 62
     7
 10
52.49998474121094
 20
42.5
 40
1.299995422363281
  0
CIRCLE
  8
0
  6
CONTINUOUS
 62
     7
 10
37.5
 20
50
 40
3
  0
CIRCLE
  8
0
  6
CONTINUOUS
 62
     7
 10
37.5
 20
50
 40
1.75
  0
ARC
  8
0
  6
CONTINUOUS
 62
     7
 10
-4.649879455566406
 20
3.799995422363281
 40
1
 50
278.6199899262122
 51
81.38001007378774
  0
ARC
  8
0
  6
CONTINUOUS
 62
     7
 10
4.649879455566406
 20
3.799995422363281
 40
0.9999999999999998
 50
98.61989931252019
 51
261.3800287431225
  0
ARC
  8
0
  6
CONTINUOUS
 62
     7
 10
42.64592361450195
 20
43.49998474121094
 40
0.4999999999999966
 50
95.26558658093771
 51
163.3982740047568
  0
ARC
  8
0
  6
CONTINUOUS
 62
     7
 10
45.9999885559082
 20
42.49998474121094
 40
4.000000000000001
 50
163.3982876651349
 51
196.6014764659676
  0
ARC
  8
0
  6
CONTINUOUS
 62
     7
 10
42.64592361450195
 20
41.5
 40
0.5000000000000003
 50
196.6014937688119
 51
264.7344134190623
  0
ARC
  8
0
  6
CONTINUOUS
 62
     7
 10
72.35408020019531
 20
56.5
 40
0.4999999999999982
 50
275.2708544780215
 51
343.3987266184747
  0
ARC
  8
0
  6
CONTINUOUS
 62
     7
 10
69.00001525878906
 20
57.5
 40
3.999999999999995
 50
343.3983168071244
 51
16.60147487210587
  0
ARC
  8
0
  6
CONTINUOUS
 62
     7
 10
72.35408020019531
 20
58.49998474121094
 40
0.4999999999999961
 50
16.60147487210624
 51
84.72914552197857
  0
ARC
  8
0
  6
CONTINUOUS
 62
     7
 10
72.35408020019531
 20
43.49998474121094
 40
0.4999999999999992
 50
16.60127338152529
 51
84.72914552197857
  0
ARC
  8
0
  6
CONTINUOUS
 62
     7
 10
69.00001525878906
 20
42.49998474121094
 40
4.000000000000005
 50
343.3985251278941
 51
16.60168319287559
  0
ARC
  8
0
  6
CONTINUOUS
 62
     7
 10
72.35408020019531
 20
41.5
 40
0.4999999999999982
 50
275.2708544780215
 51
343.3985251278938
  0
ARC
  8
0
  6
CONTINUOUS
 62
     7
 10
72.3541259765625
 20
7.999984741210938
 40
0.5000000000000041
 50
16.60150902305157
 51
84.73441842801825
  0
ARC
  8
0
  6
CONTINUOUS
 62
     7
 10
69.00001525878906
 20
6.999984741210938
 40
4.000000000000002
 50
343.3548494832464
 51
16.60150902305179
  0
ARC
  8
0
  6
CONTINUOUS
 62
     7
 10
72.3541259765625
 20
6
 40
0.5000000000000006
 50
275.2655815719818
 51
343.3987300335695
  0
TEXT
  8
0
  6
CONTINUOUS
 62
     7
 10
-1.599999904632568
 20
-21.79999971389771
 40
3.59999942779541
 41
1.039215701857426
  1
RSR9KM
  0
ENDSEC
  0
EOF
