  0
SECTION
  2
HEADER
  0
ENDSEC
  0
SECTION
  2
TABLES
  0
TABLE
  2
LTYPE
 70
    22
  0
LTYPE
  2
CONTINUOUS
 70
    64
  3
Solid line
 72
    65
 73
     0
 40
0.000000
  0
LTYPE
  2
DASHED
 70
    64
  3
__ __ __ __ __ __ __ __ __ __ __ __ __ __ __
 72
    65
 73
     2
 40
3.500000
 49
2.000000
 49
-1.500000
  0
LTYPE
  2
CENTER
 70
    64
  3
____ _ ____ _ ____ _ ____ _ ____ _ ____ _ ____
 72
    65
 73
     4
 40
17.500000
 49
13.000000
 49
-1.500000
 49
1.500000
 49
-1.500000
  0
LTYPE
  2
PHANTOM
 70
    64
  3
_____ _ _ _____ _ _ _____ _ _ _____ _ _ ____  
 72
    65
 73
     6
 40
15.500000
 49
8.000000
 49
-1.500000
 49
1.500000
 49
-1.500000
 49
1.500000
 49
-1.500000
  0
LTYPE
  2
DOT
 70
    64
  3
. . . . . . . . . . . . . . . . . . . . . . . .
 72
    65
 73
     2
 40
0.25
 49
0.0
 49
-0.25
  0
ENDTAB
  0
TABLE
  2
LAYER
 70
     1
  0
LAYER
  2
0
 70
     0
 62
     7
  6
CONTINUOUS
  0
ENDTAB
  0
TABLE
  2
STYLE
 70
     1
  0
STYLE
  2
STANDARD
 70
     0
 40
0.000000
 41
1.000000
 50
0.000000
 71
     0
 42
0.200000
  3
txt
  0
ENDTAB
  0
TABLE
  2
VIEW
 70
     0
  0
ENDTAB
  0
ENDSEC
  0
SECTION
  2
BLOCKS
  0
ENDSEC
  0
SECTION
  2
ENTITIES
  0
LINE
  8
0
  6
CONTINUOUS
 62
     7
 10
56.499985
 20
12
 11
83.499985
 21
12
  0
LINE
  8
0
  6
CONTINUOUS
 62
     7
 10
50.5
 20
4.1999998
 11
89.499985
 21
4.1999998
  0
LINE
  8
0
  6
CENTER
 62
     7
 10
63.999985
 20
12.541199
 11
63.999985
 21
7.1479368
  0
LINE
  8
0
  6
DASHED
 62
     7
 10
62.699997
 20
12
 11
62.699997
 21
8.8999996
  0
LINE
  8
0
  6
DASHED
 62
     7
 10
65.299988
 20
12
 11
65.299988
 21
8.8999996
  0
LINE
  8
0
  6
DASHED
 62
     7
 10
62.699997
 20
8.8999996
 11
65.299988
 21
8.8999996
  0
LINE
  8
0
  6
DASHED
 62
     7
 10
62.944992
 20
8.1000004
 11
65.054993
 21
8.1000004
  0
LINE
  8
0
  6
DASHED
 62
     7
 10
65.054993
 20
12
 11
65.054993
 21
8.1000004
  0
LINE
  8
0
  6
DASHED
 62
     7
 10
62.944992
 20
12
 11
62.944992
 21
8.1000004
  0
LINE
  8
0
  6
DASHED
 62
     7
 10
65.054993
 20
8.6550016
 11
65.299988
 21
8.9000006
  0
LINE
  8
0
  6
DASHED
 62
     7
 10
63.999985
 20
7.4909048
 11
65.054977
 21
8.1000051
  0
LINE
  8
0
  6
DASHED
 62
     7
 10
63.999985
 20
7.4909029
 11
62.944992
 21
8.1000032
  0
LINE
  8
0
  6
DASHED
 62
     7
 10
62.945
 20
8.6550016
 11
62.699997
 21
8.9000006
  0
LINE
  8
0
  6
CENTER
 62
     7
 10
75.999985
 20
12.541199
 11
75.999985
 21
7.1479368
  0
LINE
  8
0
  6
CONTINUOUS
 62
     7
 10
56.499985
 20
12
 11
56.499985
 21
4.1999998
  0
LINE
  8
0
  6
CONTINUOUS
 62
     7
 10
52
 20
11.7
 11
56.499985
 21
11.7
  0
LINE
  8
0
  6
CONTINUOUS
 62
     7
 10
83.499985
 20
12
 11
83.499985
 21
4.1999998
  0
LINE
  8
0
  6
CONTINUOUS
 62
     7
 10
83.499985
 20
11.7
 11
87.999985
 21
11.7
  0
LINE
  8
0
  6
CONTINUOUS
 62
     7
 10
50.5
 20
7.8000002
 11
50.5
 21
4.1999998
  0
LINE
  8
0
  6
CONTINUOUS
 62
     7
 10
52
 20
11.7
 11
52
 21
4.1999998
  0
LINE
  8
0
  6
CONTINUOUS
 62
     7
 10
51.5
 20
11.7
 11
51.5
 21
4.1999998
  0
LINE
  8
0
  6
CONTINUOUS
 62
     7
 10
51.499985
 20
8.5000086
 11
50.499981
 21
7.8000073
  0
LINE
  8
0
  6
CONTINUOUS
 62
     7
 10
51.5
 20
11.7
 11
52
 21
11.7
  0
LINE
  8
0
  6
CONTINUOUS
 62
     7
 10
89.499985
 20
7.8000002
 11
89.499985
 21
4.1999998
  0
LINE
  8
0
  6
CONTINUOUS
 62
     7
 10
87.999985
 20
11.7
 11
87.999985
 21
4.1999998
  0
LINE
  8
0
  6
CONTINUOUS
 62
     7
 10
88.499985
 20
11.7
 11
88.499985
 21
4.1999998
  0
LINE
  8
0
  6
CONTINUOUS
 62
     7
 10
88.499977
 20
8.4999962
 11
89.499992
 21
7.7999864
  0
LINE
  8
0
  6
CONTINUOUS
 62
     7
 10
88.499985
 20
11.7
 11
87.999985
 21
11.7
  0
LINE
  8
0
  6
CONTINUOUS
 62
     7
 10
29.999985
 20
0
 11
109.99998
 21
0
  0
LINE
  8
0
  6
CONTINUOUS
 62
     7
 10
29.999985
 20
7.5
 11
50.5
 21
7.5
  0
LINE
  8
0
  6
CONTINUOUS
 62
     7
 10
29.999985
 20
7.5
 11
29.999985
 21
7.1054274E-015
  0
LINE
  8
0
  6
CONTINUOUS
 62
     7
 10
89.499985
 20
7.5
 11
109.99998
 21
7.5
  0
LINE
  8
0
  6
CENTER
 62
     7
 10
39.999985
 20
8.3008118
 11
39.999985
 21
-0.44057614
  0
LINE
  8
0
  6
CONTINUOUS
 62
     7
 10
109.99998
 20
7.5
 11
109.99998
 21
7.1054274E-015
  0
LINE
  8
0
  6
DASHED
 62
     7
 10
36.999985
 20
7.5
 11
36.999985
 21
3
  0
LINE
  8
0
  6
DASHED
 62
     7
 10
43
 20
7.5
 11
43
 21
3
  0
LINE
  8
0
  6
DASHED
 62
     7
 10
41.749985
 20
3
 11
41.749985
 21
0
  0
LINE
  8
0
  6
DASHED
 62
     7
 10
38.249985
 20
3
 11
38.249985
 21
0
  0
LINE
  8
0
  6
DASHED
 62
     7
 10
36.999985
 20
3
 11
43
 21
3
  0
LINE
  8
0
  6
CENTER
 62
     7
 10
0
 20
12.655591
 11
0
 21
-0.33251953
  0
LINE
  8
0
  6
CONTINUOUS
 62
     7
 10
8.7000008
 20
2.9502814E-008
 11
9
 21
0.2999993
  0
LINE
  8
0
  6
CONTINUOUS
 62
     7
 10
-9.0000067
 20
0.30000225
 11
-8.7000036
 21
-3.6667774E-007
  0
LINE
  8
0
  6
DASHED
 62
     7
 10
3
 20
7.5
 11
3
 21
3
  0
LINE
  8
0
  6
DASHED
 62
     7
 10
-3
 20
7.5
 11
-3
 21
3
  0
LINE
  8
0
  6
DASHED
 62
     7
 10
-3
 20
3
 11
3
 21
3
  0
LINE
  8
0
  6
DASHED
 62
     7
 10
-1.75
 20
3
 11
-1.75
 21
0
  0
LINE
  8
0
  6
DASHED
 62
     7
 10
1.75
 20
3
 11
1.75
 21
0
  0
LINE
  8
0
  6
CONTINUOUS
 62
     7
 10
-9
 20
7.5
 11
9
 21
7.5
  0
LINE
  8
0
  6
CONTINUOUS
 62
     7
 10
-8.6999998
 20
0
 11
8.7000008
 21
0
  0
LINE
  8
0
  6
CONTINUOUS
 62
     7
 10
-9
 20
7.5
 11
-9
 21
6.8797941
  0
LINE
  8
0
  6
CONTINUOUS
 62
     7
 10
9
 20
7.5
 11
9
 21
6.8797941
  0
LINE
  8
0
  6
CONTINUOUS
 62
     7
 10
-9
 20
4.9202051
 11
-9
 21
0.30000001
  0
LINE
  8
0
  6
CONTINUOUS
 62
     7
 10
9
 20
4.9202051
 11
9
 21
0.30000001
  0
LINE
  8
0
  6
CENTER
 62
     7
 10
-10.5
 20
12.486798
 11
-10.5
 21
7.2165651
  0
LINE
  8
0
  6
CENTER
 62
     7
 10
10.5
 20
12.486798
 11
10.5
 21
7.2165651
  0
LINE
  8
0
  6
CONTINUOUS
 62
     7
 10
-15.000004
 20
11.199999
 11
-14.200003
 21
11.999999
  0
LINE
  8
0
  6
CONTINUOUS
 62
     7
 10
14.199991
 20
11.99999
 11
14.999991
 21
11.199989
  0
LINE
  8
0
  6
CONTINUOUS
 62
     7
 10
14.099995
 20
4.2000017
 11
14.999994
 21
5.1000013
  0
LINE
  8
0
  6
CONTINUOUS
 62
     7
 10
-15
 20
5.0999947
 11
-14.100001
 21
4.1999955
  0
LINE
  8
0
  6
CONTINUOUS
 62
     7
 10
14.099995
 20
4.2000017
 11
14.999994
 21
5.1000013
  0
LINE
  8
0
  6
CONTINUOUS
 62
     7
 10
14.199991
 20
11.99999
 11
14.999991
 21
11.199989
  0
LINE
  8
0
  6
CONTINUOUS
 62
     7
 10
-14.2
 20
12
 11
14.2
 21
12
  0
LINE
  8
0
  6
CONTINUOUS
 62
     7
 10
-15
 20
11.2
 11
-15
 21
5.0999994
  0
LINE
  8
0
  6
CONTINUOUS
 62
     7
 10
14.999994
 20
11.2
 11
14.999994
 21
5.0999994
  0
LINE
  8
0
  6
CONTINUOUS
 62
     7
 10
-14.100005
 20
4.1999998
 11
-9
 21
4.1999998
  0
LINE
  8
0
  6
CONTINUOUS
 62
     7
 10
-14.8
 20
10.9
 11
-14.8
 21
5
  0
LINE
  8
0
  6
CONTINUOUS
 62
     7
 10
14.799994
 20
10.9
 11
14.799994
 21
4.8999996
  0
LINE
  8
0
  6
CONTINUOUS
 62
     7
 10
-14
 20
11.7
 11
14
 21
11.7
  0
LINE
  8
0
  6
CONTINUOUS
 62
     7
 10
-14.799997
 20
10.899994
 11
-13.999996
 21
11.699995
  0
LINE
  8
0
  6
CONTINUOUS
 62
     7
 10
13.99999
 20
11.700001
 11
14.799992
 21
10.899999
  0
LINE
  8
0
  6
CONTINUOUS
 62
     7
 10
9
 20
4.1999998
 11
14.099994
 21
4.1999998
  0
LINE
  8
0
  6
CONTINUOUS
 62
     7
 10
-9.5
 20
11.7
 11
-9.5
 21
9.8000002
  0
LINE
  8
0
  6
CONTINUOUS
 62
     7
 10
-6.5
 20
11.7
 11
-6.5
 21
9.8000002
  0
LINE
  8
0
  6
CONTINUOUS
 62
     7
 10
9.5
 20
11.7
 11
9.5
 21
9.8000002
  0
LINE
  8
0
  6
CONTINUOUS
 62
     7
 10
6.5
 20
11.7
 11
6.5
 21
9.8000002
  0
LINE
  8
0
  6
CONTINUOUS
 62
     7
 10
-9.6999998
 20
8.5
 11
-8.7483311
 21
8.5
  0
LINE
  8
0
  6
CONTINUOUS
 62
     7
 10
-10
 20
8.1999998
 11
-10
 21
4.1999998
  0
LINE
  8
0
  6
CONTINUOUS
 62
     7
 10
10
 20
8.1999998
 11
10
 21
4.1999998
  0
LINE
  8
0
  6
CONTINUOUS
 62
     7
 10
9.6999998
 20
8.4999952
 11
9.9999933
 21
8.2000017
  0
LINE
  8
0
  6
CONTINUOUS
 62
     7
 10
-10.000008
 20
8.2000046
 11
-9.7000084
 21
8.5000048
  0
LINE
  8
0
  6
CONTINUOUS
 62
     7
 10
8.7483311
 20
8.5
 11
9.6999998
 21
8.5
  0
LINE
  8
0
  6
CONTINUOUS
 62
     7
 10
-7.2516689
 20
8.5
 11
7.2516689
 21
8.5
  0
LINE
  8
0
  6
CONTINUOUS
 62
     7
 10
30
 20
59
 11
50.5
 21
59
  0
LINE
  8
0
  6
CONTINUOUS
 62
     7
 10
30
 20
41
 11
50.5
 21
41
  0
LINE
  8
0
  6
CONTINUOUS
 62
     7
 10
56.5
 20
35
 11
83.5
 21
35
  0
LINE
  8
0
  6
CONTINUOUS
 62
     7
 10
56.5
 20
65
 11
83.5
 21
65
  0
LINE
  8
0
  6
CENTER
 62
     7
 10
28
 20
50
 11
112
 21
50
  0
LINE
  8
0
  6
CONTINUOUS
 62
     7
 10
30
 20
59
 11
30
 21
41
  0
LINE
  8
0
  6
CONTINUOUS
 62
     7
 10
51.5
 20
64.800003
 11
51.5
 21
35.199997
  0
LINE
  8
0
  6
CONTINUOUS
 62
     7
 10
88.5
 20
64.800003
 11
88.5
 21
35.199997
  0
LINE
  8
0
  6
CONTINUOUS
 62
     7
 10
56.5
 20
65
 11
56.5
 21
35
  0
LINE
  8
0
  6
CONTINUOUS
 62
     7
 10
83.5
 20
65
 11
83.5
 21
35
  0
LINE
  8
0
  6
CONTINUOUS
 62
     7
 10
110
 20
59
 11
110
 21
41
  0
LINE
  8
0
  6
CONTINUOUS
 62
     7
 10
89.499985
 20
59
 11
110
 21
59
  0
LINE
  8
0
  6
CONTINUOUS
 62
     7
 10
89.499985
 20
41
 11
110
 21
41
  0
LINE
  8
0
  6
CONTINUOUS
 62
     7
 10
51.5
 20
35.199997
 11
56.5
 21
35.199997
  0
LINE
  8
0
  6
CONTINUOUS
 62
     7
 10
51.5
 20
64.800003
 11
56.5
 21
64.800003
  0
LINE
  8
0
  6
CONTINUOUS
 62
     7
 10
83.5
 20
35.199997
 11
88.5
 21
35.199997
  0
LINE
  8
0
  6
CONTINUOUS
 62
     7
 10
83.5
 20
64.800003
 11
88.5
 21
64.800003
  0
LINE
  8
0
  6
CONTINUOUS
 62
     7
 10
52
 20
64.800003
 11
52
 21
35.199997
  0
LINE
  8
0
  6
CONTINUOUS
 62
     7
 10
88
 20
64.800003
 11
88
 21
35.199997
  0
LINE
  8
0
  6
CONTINUOUS
 62
     7
 10
50.5
 20
59.300003
 11
50.5
 21
40.699997
  0
LINE
  8
0
  6
CONTINUOUS
 62
     7
 10
50.500004
 20
40.700001
 11
51.500004
 21
40
  0
LINE
  8
0
  6
CONTINUOUS
 62
     7
 10
50.500015
 20
59.300007
 11
51.500008
 21
59.999992
  0
LINE
  8
0
  6
CONTINUOUS
 62
     7
 10
89.499977
 20
59.300011
 11
88.499985
 21
60
  0
LINE
  8
0
  6
CONTINUOUS
 62
     7
 10
89.499985
 20
59.300003
 11
89.499985
 21
40.699997
  0
LINE
  8
0
  6
CONTINUOUS
 62
     7
 10
89.499992
 20
40.700005
 11
88.499992
 21
40.000004
  0
LINE
  8
0
  6
CENTER
 62
     7
 10
78.5
 20
39.5
 11
73.5
 21
39.5
  0
LINE
  8
0
  6
CENTER
 62
     7
 10
76
 20
42
 11
76
 21
37
  0
LINE
  8
0
  6
CENTER
 62
     7
 10
66.5
 20
39.5
 11
61.5
 21
39.5
  0
LINE
  8
0
  6
CENTER
 62
     7
 10
64
 20
42
 11
64
 21
37
  0
LINE
  8
0
  6
CENTER
 62
     7
 10
66.5
 20
60.5
 11
61.5
 21
60.5
  0
LINE
  8
0
  6
CENTER
 62
     7
 10
64
 20
63
 11
64
 21
58
  0
LINE
  8
0
  6
CENTER
 62
     7
 10
78.5
 20
60.5
 11
73.5
 21
60.5
  0
LINE
  8
0
  6
CENTER
 62
     7
 10
76
 20
63
 11
76
 21
58
  0
LINE
  8
0
  6
CENTER
 62
     7
 10
40
 20
55
 11
40
 21
45
  0
LINE
  8
0
  6
CENTER
 62
     7
 10
100
 20
55
 11
100
 21
45
  0
LINE
  8
0
  6
CONTINUOUS
 62
     7
 10
-8.7071075
 20
10.507107
 11
-7.2928939
 21
9.0928936
  0
LINE
  8
0
  6
CONTINUOUS
 62
     7
 10
-7.2928939
 20
10.507107
 11
-8.7071066
 21
9.0928936
  0
LINE
  8
0
  6
CONTINUOUS
 62
     7
 10
29.999985
 20
6.8797941
 11
50.5
 21
6.8797941
  0
LINE
  8
0
  6
CONTINUOUS
 62
     7
 10
29.999985
 20
4.9202051
 11
50.5
 21
4.9202051
  0
LINE
  8
0
  6
CONTINUOUS
 62
     7
 10
89.499985
 20
6.8797941
 11
109.99998
 21
6.8797941
  0
LINE
  8
0
  6
CONTINUOUS
 62
     7
 10
89.499985
 20
4.9202051
 11
109.99998
 21
4.9202051
  0
LINE
  8
0
  6
CENTER
 62
     7
 10
69.999985
 20
8.3008118
 11
69.999985
 21
-0.44057614
  0
LINE
  8
0
  6
CENTER
 62
     7
 10
99.999985
 20
8.3008118
 11
99.999985
 21
-0.44057614
  0
LINE
  8
0
  6
CENTER
 62
     7
 10
70
 20
55
 11
70
 21
45
  0
LINE
  8
0
  6
DASHED
 62
     7
 10
-11.799988
 20
12
 11
-11.799988
 21
8.8999996
  0
LINE
  8
0
  6
DASHED
 62
     7
 10
-9.1999969
 20
12
 11
-9.1999969
 21
8.8999996
  0
LINE
  8
0
  6
DASHED
 62
     7
 10
-11.799988
 20
8.8999996
 11
-9.1999969
 21
8.8999996
  0
LINE
  8
0
  6
DASHED
 62
     7
 10
-11.554993
 20
8.1000004
 11
-9.4449921
 21
8.1000004
  0
LINE
  8
0
  6
DASHED
 62
     7
 10
-9.4449921
 20
12
 11
-9.4449921
 21
8.1000004
  0
LINE
  8
0
  6
DASHED
 62
     7
 10
-11.554993
 20
12
 11
-11.554993
 21
8.1000004
  0
LINE
  8
0
  6
DASHED
 62
     7
 10
-9.4449959
 20
8.6550016
 11
-9.199996
 21
8.9000006
  0
LINE
  8
0
  6
DASHED
 62
     7
 10
-10.499998
 20
7.4909053
 11
-9.4450054
 21
8.1000051
  0
LINE
  8
0
  6
DASHED
 62
     7
 10
-10.5
 20
7.4909029
 11
-11.554993
 21
8.1000032
  0
LINE
  8
0
  6
DASHED
 62
     7
 10
-11.554987
 20
8.6550016
 11
-11.799986
 21
8.9000006
  0
ARC
  8
0
  6
CONTINUOUS
 62
     7
 10
-8
 20
9.8000002
 40
1.5
 50
180.00004
 51
0
  0
ARC
  8
0
  6
CONTINUOUS
 62
     7
 10
8
 20
9.8000002
 40
1.5
 50
180.00004
 51
0
  0
CIRCLE
  8
0
  6
CONTINUOUS
 62
     7
 10
64
 20
39.5
 40
1.2999992
  0
CIRCLE
  8
0
  6
CONTINUOUS
 62
     7
 10
64
 20
39.5
 40
1.0549994
  0
CIRCLE
  8
0
  6
CONTINUOUS
 62
     7
 10
40
 20
50
 40
3.0000038
  0
CIRCLE
  8
0
  6
CONTINUOUS
 62
     7
 10
40
 20
50
 40
1.75
  0
ARC
  8
0
  6
CONTINUOUS
 62
     7
 10
-9.2000065
 20
5.8999996
 40
1
 50
281.53735
 51
78.462645
  0
ARC
  8
0
  6
CONTINUOUS
 62
     7
 10
9.2000065
 20
5.8999996
 40
1
 50
101.53726
 51
258.46266
  0
CIRCLE
  8
0
  6
CONTINUOUS
 62
     7
 10
-8
 20
9.8000002
 40
1.1999998
  0
CIRCLE
  8
0
  6
CONTINUOUS
 62
     7
 10
8
 20
9.8000002
 40
1.1999998
  0
CIRCLE
  8
0
  6
CONTINUOUS
 62
     7
 10
0
 20
10
 40
0.80000001
  0
TEXT
  8
0
  6
CONTINUOUS
 62
     7
 10
-1.5999999
 20
-21.8
 40
3.5999994
 41
0.86834735
  1
ＲＳＲ９ＷＶＭ
  0
ENDSEC
  0
EOF
