  0
SECTION
  2
HEADER
  0
ENDSEC
  0
SECTION
  2
TABLES
  0
TABLE
  2
LTYPE
 70
    22
  0
LTYPE
  2
CONTINUOUS
 70
    64
  3
Solid line
 72
    65
 73
     0
 40
0.000000
  0
LTYPE
  2
DASHED
 70
    64
  3
__ __ __ __ __ __ __ __ __ __ __ __ __ __ __
 72
    65
 73
     2
 40
3.500000
 49
2.000000
 49
-1.500000
  0
LTYPE
  2
CENTER
 70
    64
  3
____ _ ____ _ ____ _ ____ _ ____ _ ____ _ ____
 72
    65
 73
     4
 40
17.500000
 49
13.000000
 49
-1.500000
 49
1.500000
 49
-1.500000
  0
LTYPE
  2
PHANTOM
 70
    64
  3
_____ _ _ _____ _ _ _____ _ _ _____ _ _ ____  
 72
    65
 73
     6
 40
15.500000
 49
8.000000
 49
-1.500000
 49
1.500000
 49
-1.500000
 49
1.500000
 49
-1.500000
  0
LTYPE
  2
DOT
 70
    64
  3
. . . . . . . . . . . . . . . . . . . . . . . .
 72
    65
 73
     2
 40
0.25
 49
0.0
 49
-0.25
  0
ENDTAB
  0
TABLE
  2
LAYER
 70
     1
  0
LAYER
  2
0
 70
     0
 62
     7
  6
CONTINUOUS
  0
ENDTAB
  0
TABLE
  2
STYLE
 70
     1
  0
STYLE
  2
STANDARD
 70
     0
 40
0.000000
 41
1.000000
 50
0.000000
 71
     0
 42
0.200000
  3
txt
  0
ENDTAB
  0
TABLE
  2
VIEW
 70
     0
  0
ENDTAB
  0
ENDSEC
  0
SECTION
  2
BLOCKS
  0
ENDSEC
  0
SECTION
  2
ENTITIES
  0
LINE
  8
0
  6
CONTINUOUS
 62
     7
 10
40
 20
1.000007629394531
 11
20
 21
1.000007629394531
  0
LINE
  8
0
  6
CONTINUOUS
 62
     7
 10
-56.99997711181641
 20
3.000027894973755
 11
-53.99995040893555
 21
3.118869017271209E-006
  0
LINE
  8
0
  6
CONTINUOUS
 62
     7
 10
57.00008773803711
 20
3.000016927719116
 11
54.00006484985352
 21
-7.670729246456176E-006
  0
LINE
  8
0
  6
CONTINUOUS
 62
     7
 10
51.21909332275391
 20
38.66750717163086
 11
48.00001525878906
 21
33.09189987182617
  0
LINE
  8
0
  6
CONTINUOUS
 62
     7
 10
-47.99996948242188
 20
33.09189987182617
 11
-51.213134765625
 21
38.65726852416992
  0
LINE
  8
0
  6
CONTINUOUS
 62
     7
 10
-48
 20
33.09194183349609
 11
-48
 21
24
  0
LINE
  8
0
  6
CONTINUOUS
 62
     7
 10
48.00006103515625
 20
33.09194183349609
 11
48.00006103515625
 21
24
  0
LINE
  8
0
  6
CONTINUOUS
 62
     7
 10
-47.99996566772461
 20
23.9999942779541
 11
-56.99995040893555
 21
15.00000667572022
  0
LINE
  8
0
  6
CONTINUOUS
 62
     7
 10
57.00008773803711
 20
14.99996376037598
 11
48.00003433227539
 21
24.0000171661377
  0
LINE
  8
0
  6
CENTER
 62
     7
 10
0
 20
111
 11
0
 21
-1
  0
LINE
  8
0
  6
CONTINUOUS
 62
     7
 10
36.33523941040039
 20
64.14557647705078
 11
33.14651870727539
 21
64.99999237060547
  0
LINE
  8
0
  6
CONTINUOUS
 62
     7
 10
-40.99993896484375
 20
0
 11
-53.99993896484375
 21
0
  0
LINE
  8
0
  6
DASHED
 62
     7
 10
19.5
 20
35.00001525878906
 11
-19.5
 21
35.00001525878906
  0
LINE
  8
0
  6
DASHED
 62
     7
 10
19.5
 20
65.00001525878906
 11
19.5
 21
35.00001525878906
  0
LINE
  8
0
  6
DASHED
 62
     7
 10
13
 20
35.00001525878906
 11
13
 21
0
  0
LINE
  8
0
  6
CONTINUOUS
 62
     7
 10
-20
 20
1.000007629394531
 11
-40
 21
1.000007629394531
  0
LINE
  8
0
  6
CONTINUOUS
 62
     7
 10
-39.99999618530273
 20
0.9999902844429016
 11
-40.99997711181641
 21
1.078959303413285E-005
  0
LINE
  8
0
  6
CONTINUOUS
 62
     7
 10
-18.99995231628418
 20
-3.169443152728491E-005
 11
-19.99997520446777
 21
0.9999909400939941
  0
LINE
  8
0
  6
CONTINUOUS
 62
     7
 10
20.00002479553223
 20
0.9999909400939941
 11
19.00002479553223
 21
-1.01152436400298E-005
  0
LINE
  8
0
  6
CONTINUOUS
 62
     7
 10
41.00004577636719
 20
-1.078959303413285E-005
 11
40.00004577636719
 21
0.9999902844429016
  0
LINE
  8
0
  6
CONTINUOUS
 62
     7
 10
57.0001220703125
 20
15
 11
57.0001220703125
 21
3.000022888183594
  0
LINE
  8
0
  6
CONTINUOUS
 62
     7
 10
-56.99993896484375
 20
15.00002288818359
 11
-56.99993896484375
 21
3.000022888183594
  0
LINE
  8
0
  6
CONTINUOUS
 62
     7
 10
57.0001220703125
 20
58.60847473144531
 11
57.0001220703125
 21
48.5478401184082
  0
LINE
  8
0
  6
CONTINUOUS
 62
     7
 10
-56.99993896484375
 20
58.60848999023438
 11
-56.99993896484375
 21
48.54778671264648
  0
LINE
  8
0
  6
CONTINUOUS
 62
     7
 10
33.14654541015625
 20
65.00001525878906
 11
-33.146484375
 21
65.00001525878906
  0
LINE
  8
0
  6
CONTINUOUS
 62
     7
 10
19.00006103515625
 20
0
 11
-19
 21
0
  0
LINE
  8
0
  6
CONTINUOUS
 62
     7
 10
54.00006103515625
 20
0
 11
41
 21
0
  0
LINE
  8
0
  6
CONTINUOUS
 62
     7
 10
57.00006103515625
 20
58.60845184326172
 11
47.13976669311523
 21
61.25051116943359
  0
LINE
  8
0
  6
CONTINUOUS
 62
     7
 10
-33.14651489257813
 20
64.99999237060547
 11
-36.33523559570313
 21
64.14557647705078
  0
LINE
  8
0
  6
CONTINUOUS
 62
     7
 10
-47.13970565795898
 20
61.25052642822266
 11
-56.99994277954102
 21
58.60848617553711
  0
LINE
  8
0
  6
CONTINUOUS
 62
     7
 10
-49.99993896484375
 20
109.0000152587891
 11
-19.99993896484375
 21
109.0000152587891
  0
LINE
  8
0
  6
CONTINUOUS
 62
     7
 10
98.50006103515625
 20
17.71250152587891
 11
101.5000305175781
 21
20.71247291564941
  0
LINE
  8
0
  6
CONTINUOUS
 62
     7
 10
20
 20
109.0000152587891
 11
50
 21
109.0000152587891
  0
LINE
  8
0
  6
CONTINUOUS
 62
     7
 10
18.99999809265137
 20
110
 11
20.00006484985352
 21
108.9999313354492
  0
LINE
  8
0
  6
CONTINUOUS
 62
     7
 10
-102.4999618530273
 20
85.99996948242188
 11
-101.4999847412109
 21
84.99999237060547
  0
LINE
  8
0
  6
CONTINUOUS
 62
     7
 10
50.00003051757813
 20
109
 11
51.00003433227539
 21
110
  0
LINE
  8
0
  6
CONTINUOUS
 62
     7
 10
102.5000228881836
 20
104.9999771118164
 11
97.49999237060547
 21
110.0000076293945
  0
LINE
  8
0
  6
CONTINUOUS
 62
     7
 10
-19.99995422363281
 20
108.9999618530273
 11
-18.99995613098145
 21
109.9999542236328
  0
LINE
  8
0
  6
CONTINUOUS
 62
     7
 10
-101.5
 20
85.00001525878906
 11
-101.5
 21
20.71249389648438
  0
LINE
  8
0
  6
CONTINUOUS
 62
     7
 10
101.5
 20
85.00001525878906
 11
101.5
 21
20.71249389648438
  0
LINE
  8
0
  6
CONTINUOUS
 62
     7
 10
-97.49993896484375
 20
109.9999542236328
 11
-102.4999847412109
 21
104.9999084472656
  0
LINE
  8
0
  6
CONTINUOUS
 62
     7
 10
102.5
 20
105
 11
102.5
 21
86
  0
LINE
  8
0
  6
CONTINUOUS
 62
     7
 10
101.5000381469727
 20
85
 11
102.5000381469727
 21
86
  0
LINE
  8
0
  6
CONTINUOUS
 62
     7
 10
51.00006103515625
 20
110
 11
97.5
 21
110
  0
LINE
  8
0
  6
CONTINUOUS
 62
     7
 10
-98.50000762939453
 20
17.71249389648438
 11
-101.4999465942383
 21
20.71243095397949
  0
LINE
  8
0
  6
CONTINUOUS
 62
     7
 10
-18.99993896484375
 20
110
 11
19.00006103515625
 21
110
  0
LINE
  8
0
  6
CONTINUOUS
 62
     7
 10
-50.9999885559082
 20
109.9999618530273
 11
-50.00000762939453
 21
108.9999771118164
  0
LINE
  8
0
  6
CONTINUOUS
 62
     7
 10
-102.5
 20
104.9999389648438
 11
-102.5
 21
86
  0
LINE
  8
0
  6
CONTINUOUS
 62
     7
 10
-97.49993896484375
 20
110
 11
-51
 21
110
  0
LINE
  8
0
  6
CONTINUOUS
 62
     7
 10
97.99995422363281
 20
83.00001525878906
 11
94.99999237060547
 21
85.99996948242188
  0
LINE
  8
0
  6
CONTINUOUS
 62
     7
 10
94.99996948242188
 20
23.71247482299805
 11
97.99997711181641
 21
26.71247863769531
  0
LINE
  8
0
  6
CONTINUOUS
 62
     7
 10
48.28755569458008
 20
23.71249389648438
 11
95
 21
23.71249389648438
  0
LINE
  8
0
  6
CONTINUOUS
 62
     7
 10
-95
 20
86
 11
95
 21
86
  0
LINE
  8
0
  6
CONTINUOUS
 62
     7
 10
98
 20
83
 11
98
 21
26.71249389648438
  0
LINE
  8
0
  6
CONTINUOUS
 62
     7
 10
100.0000305175781
 20
20.71249389648438
 11
97.00003814697266
 21
17.71250152587891
  0
LINE
  8
0
  6
CONTINUOUS
 62
     7
 10
96.99999237060547
 20
108.9999923706055
 11
99.99997711181641
 21
106.0000076293945
  0
LINE
  8
0
  6
CONTINUOUS
 62
     7
 10
97
 20
109.0000152587891
 11
-97
 21
109.0000152587891
  0
LINE
  8
0
  6
CONTINUOUS
 62
     7
 10
100
 20
106.0000152587891
 11
100
 21
20.71251678466797
  0
LINE
  8
0
  6
DASHED
 62
     7
 10
-90
 20
75
 11
-70
 21
75
  0
LINE
  8
0
  6
DASHED
 62
     7
 10
-88.75
 20
69
 11
-71.25
 21
69
  0
LINE
  8
0
  6
CONTINUOUS
 62
     7
 10
300
 20
65.00003051757813
 11
572.5000610351563
 21
65.00003051757813
  0
LINE
  8
0
  6
CONTINUOUS
 62
     7
 10
577.0000610351563
 20
107.0000305175781
 11
577.0000610351563
 21
21.99998283386231
  0
LINE
  8
0
  6
CONTINUOUS
 62
     7
 10
577.0000610351563
 20
22.0000057220459
 11
579.0000610351563
 21
20.00000190734863
  0
LINE
  8
0
  6
CONTINUOUS
 62
     7
 10
602
 20
19.89999389648438
 11
778
 21
19.89999389648438
  0
LINE
  8
0
  6
CONTINUOUS
 62
     7
 10
600.60009765625
 20
109.9999923706055
 11
600.0000610351563
 21
109.3999176025391
  0
LINE
  8
0
  6
CONTINUOUS
 62
     7
 10
779.3999633789063
 20
109.9999923706055
 11
780
 21
109.3999557495117
  0
LINE
  8
0
  6
CONTINUOUS
 62
     7
 10
600.0000610351563
 20
21.89994239807129
 11
602.0000610351563
 21
19.89994049072266
  0
LINE
  8
0
  6
CONTINUOUS
 62
     7
 10
778
 20
19.9000129699707
 11
780
 21
21.90001487731934
  0
LINE
  8
0
  6
CONTINUOUS
 62
     7
 10
600.60009765625
 20
110.0000305175781
 11
779.3999633789063
 21
110.0000305175781
  0
LINE
  8
0
  6
CONTINUOUS
 62
     7
 10
600
 20
20
 11
579
 21
20
  0
LINE
  8
0
  6
CONTINUOUS
 62
     7
 10
600
 20
109.0000305175781
 11
579
 21
109.0000305175781
  0
LINE
  8
0
  6
CONTINUOUS
 62
     7
 10
579.0000610351563
 20
108.9999923706055
 11
577.0000610351563
 21
106.9999923706055
  0
LINE
  8
0
  6
CONTINUOUS
 62
     7
 10
563.500244140625
 20
99.5
 11
567.5701904296875
 21
99.5
  0
LINE
  8
0
  6
CONTINUOUS
 62
     7
 10
600
 20
109.39990234375
 11
600
 21
20
  0
LINE
  8
0
  6
CONTINUOUS
 62
     7
 10
803.0000610351563
 20
21.99999046325684
 11
801.0000610351563
 21
19.9999885559082
  0
LINE
  8
0
  6
CONTINUOUS
 62
     7
 10
780
 20
20
 11
801
 21
20
  0
LINE
  8
0
  6
CONTINUOUS
 62
     7
 10
780
 20
109.0000305175781
 11
801
 21
109.0000305175781
  0
LINE
  8
0
  6
CONTINUOUS
 62
     7
 10
801.0000610351563
 20
109
 11
803.0000610351563
 21
106.9999923706055
  0
LINE
  8
0
  6
CONTINUOUS
 62
     7
 10
780
 20
109.39990234375
 11
780
 21
20
  0
LINE
  8
0
  6
CONTINUOUS
 62
     7
 10
807.5
 20
26
 11
803
 21
26
  0
LINE
  8
0
  6
CONTINUOUS
 62
     7
 10
806
 20
86
 11
803
 21
86
  0
LINE
  8
0
  6
CONTINUOUS
 62
     7
 10
807.5
 20
70.00003051757813
 11
807.5
 21
26
  0
LINE
  8
0
  6
CONTINUOUS
 62
     7
 10
803
 20
107.0000457763672
 11
803
 21
21.99992179870606
  0
LINE
  8
0
  6
CONTINUOUS
 62
     7
 10
806
 20
86
 11
806
 21
26
  0
LINE
  8
0
  6
CONTINUOUS
 62
     7
 10
565.9470825195313
 20
89.25
 11
571.0000610351563
 21
89.25
  0
LINE
  8
0
  6
CONTINUOUS
 62
     7
 10
567.5701904296875
 20
92.50001525878906
 11
569.4763793945313
 21
96
  0
LINE
  8
0
  6
CONTINUOUS
 62
     7
 10
567.5701904296875
 20
99.5
 11
569.4763793945313
 21
96.00000762939453
  0
LINE
  8
0
  6
CONTINUOUS
 62
     7
 10
565.9470825195313
 20
102.75
 11
571.0000610351563
 21
102.75
  0
LINE
  8
0
  6
CENTER
 62
     7
 10
558.2006225585938
 20
96
 11
578.7191772460938
 21
96
  0
LINE
  8
0
  6
CONTINUOUS
 62
     7
 10
563.500244140625
 20
92.5
 11
567.5701904296875
 21
92.5
  0
LINE
  8
0
  6
DASHED
 62
     7
 10
-19.5
 20
65.00001525878906
 11
-19.5
 21
35.00001525878906
  0
LINE
  8
0
  6
DASHED
 62
     7
 10
-13
 20
35.00001525878906
 11
-13
 21
0
  0
LINE
  8
0
  6
CENTER
 62
     7
 10
-80
 20
111
 11
-80
 21
62.94818496704102
  0
LINE
  8
0
  6
DASHED
 62
     7
 10
-88.75
 20
110
 11
-88.75
 21
69
  0
LINE
  8
0
  6
DASHED
 62
     7
 10
-90
 20
110
 11
-90
 21
75
  0
LINE
  8
0
  6
DASHED
 62
     7
 10
-88.75
 20
69
 11
-80
 21
63.94818496704102
  0
LINE
  8
0
  6
DASHED
 62
     7
 10
-90
 20
75
 11
-88.75
 21
72.83493804931641
  0
LINE
  8
0
  6
DASHED
 62
     7
 10
-71.25
 20
69
 11
-80
 21
63.94818496704102
  0
LINE
  8
0
  6
DASHED
 62
     7
 10
-70
 20
75
 11
-71.25
 21
72.83493804931641
  0
LINE
  8
0
  6
DASHED
 62
     7
 10
-70
 20
110
 11
-70
 21
75
  0
LINE
  8
0
  6
DASHED
 62
     7
 10
-71.25
 20
110
 11
-71.25
 21
69
  0
LINE
  8
0
  6
CENTER
 62
     7
 10
80
 20
111
 11
80
 21
62.94818496704102
  0
LINE
  8
0
  6
CONTINUOUS
 62
     7
 10
-97.99995422363281
 20
83.00001525878906
 11
-94.99999237060547
 21
85.99996948242188
  0
LINE
  8
0
  6
CONTINUOUS
 62
     7
 10
-94.99996948242188
 20
23.71247482299805
 11
-97.99997711181641
 21
26.71247863769531
  0
LINE
  8
0
  6
CONTINUOUS
 62
     7
 10
-48.2874641418457
 20
23.71249389648438
 11
-95
 21
23.71249389648438
  0
LINE
  8
0
  6
CONTINUOUS
 62
     7
 10
-98
 20
83
 11
-98
 21
26.71249389648438
  0
LINE
  8
0
  6
CONTINUOUS
 62
     7
 10
-100.0000305175781
 20
20.71249389648438
 11
-97.00003814697266
 21
17.71250152587891
  0
LINE
  8
0
  6
CONTINUOUS
 62
     7
 10
-96.99999237060547
 20
108.9999923706055
 11
-99.99997711181641
 21
106.0000076293945
  0
LINE
  8
0
  6
CONTINUOUS
 62
     7
 10
-100
 20
106.0000152587891
 11
-100
 21
20.71251678466797
  0
LINE
  8
0
  6
CONTINUOUS
 62
     7
 10
-98.50001525878906
 20
17.71250152587891
 11
-74.94999694824219
 21
17.71250152587891
  0
LINE
  8
0
  6
CONTINUOUS
 62
     7
 10
-74.94999694824219
 20
17.71250152587891
 11
-64.55770874023438
 21
23.71249389648438
  0
LINE
  8
0
  6
CENTER
 62
     7
 10
-65.53781890869141
 20
15.41013145446777
 11
-70.84159088134766
 21
24.59653282165527
  0
LINE
  8
0
  6
CONTINUOUS
 62
     7
 10
-73.75
 20
15.63403987884522
 11
-74.94999694824219
 21
17.71250152587891
  0
LINE
  8
0
  6
CONTINUOUS
 62
     7
 10
-74.25
 20
16.50006484985352
 11
-61.75770950317383
 21
23.71249198913574
  0
LINE
  8
0
  6
CONTINUOUS
 62
     7
 10
-73.75
 20
15.63403987884522
 11
-59.75770950317383
 21
23.71249198913574
  0
LINE
  8
0
  6
CONTINUOUS
 62
     7
 10
-70.74345397949219
 20
15.68227672576904
 11
-71.58493804931641
 21
16.88404083251953
  0
LINE
  8
0
  6
CONTINUOUS
 62
     7
 10
-63.17069244384766
 20
20.05441284179688
 11
-63.79070663452148
 21
21.38404083251953
  0
LINE
  8
0
  6
CONTINUOUS
 62
     7
 10
63.17069244384766
 20
20.05441284179688
 11
63.79070663452148
 21
21.38404083251953
  0
LINE
  8
0
  6
CONTINUOUS
 62
     7
 10
70.74345397949219
 20
15.68227672576904
 11
71.58493804931641
 21
16.88404083251953
  0
LINE
  8
0
  6
CONTINUOUS
 62
     7
 10
98.50001525878906
 20
17.71250152587891
 11
74.94999694824219
 21
17.71250152587891
  0
LINE
  8
0
  6
CONTINUOUS
 62
     7
 10
73.75
 20
15.63403987884522
 11
59.75770950317383
 21
23.71249198913574
  0
LINE
  8
0
  6
CONTINUOUS
 62
     7
 10
74.94999694824219
 20
17.71250152587891
 11
64.55770874023438
 21
23.71249389648438
  0
LINE
  8
0
  6
CENTER
 62
     7
 10
65.53781890869141
 20
15.41013145446777
 11
70.84159088134766
 21
24.59653282165527
  0
LINE
  8
0
  6
CONTINUOUS
 62
     7
 10
73.75
 20
15.63403987884522
 11
74.94999694824219
 21
17.71250152587891
  0
LINE
  8
0
  6
CONTINUOUS
 62
     7
 10
74.25
 20
16.50006484985352
 11
61.75770950317383
 21
23.71249198913574
  0
LINE
  8
0
  6
CONTINUOUS
 62
     7
 10
572.5
 20
26
 11
577
 21
26
  0
LINE
  8
0
  6
CONTINUOUS
 62
     7
 10
574
 20
86
 11
577
 21
86
  0
LINE
  8
0
  6
CONTINUOUS
 62
     7
 10
572.5
 20
70.00003051757813
 11
572.5
 21
26
  0
LINE
  8
0
  6
CONTINUOUS
 62
     7
 10
574
 20
86
 11
574
 21
26
  0
LINE
  8
0
  6
CONTINUOUS
 62
     7
 10
600
 20
85.00000762939453
 11
780
 21
85.00000762939453
  0
LINE
  8
0
  6
CENTER
 62
     7
 10
630
 20
111.0000305175781
 11
630
 21
62.94821548461914
  0
LINE
  8
0
  6
DASHED
 62
     7
 10
620
 20
75.00003051757813
 11
640
 21
75.00003051757813
  0
LINE
  8
0
  6
DASHED
 62
     7
 10
621.25
 20
69.00002288818359
 11
630
 21
63.94820404052734
  0
LINE
  8
0
  6
DASHED
 62
     7
 10
619.9999389648438
 20
75.00002288818359
 11
621.2499389648438
 21
72.83495330810547
  0
LINE
  8
0
  6
DASHED
 62
     7
 10
621.25
 20
69.00003051757813
 11
638.75
 21
69.00003051757813
  0
LINE
  8
0
  6
DASHED
 62
     7
 10
620
 20
110.0000305175781
 11
620
 21
75.00003051757813
  0
LINE
  8
0
  6
DASHED
 62
     7
 10
621.25
 20
110.0000305175781
 11
621.25
 21
69.00003051757813
  0
LINE
  8
0
  6
DASHED
 62
     7
 10
638.75
 20
110.0000305175781
 11
638.75
 21
69.00003051757813
  0
LINE
  8
0
  6
DASHED
 62
     7
 10
640
 20
110.0000305175781
 11
640
 21
75.00003051757813
  0
LINE
  8
0
  6
DASHED
 62
     7
 10
640
 20
75.00003814697266
 11
638.75
 21
72.83497619628906
  0
LINE
  8
0
  6
DASHED
 62
     7
 10
638.7499389648438
 20
69.00003051757813
 11
630
 21
63.94824600219727
  0
LINE
  8
0
  6
CENTER
 62
     7
 10
750
 20
111.0000305175781
 11
750
 21
62.94821548461914
  0
LINE
  8
0
  6
CONTINUOUS
 62
     7
 10
300
 20
65.00003051757813
 11
300
 21
0
  0
LINE
  8
0
  6
CENTER
 62
     7
 10
345
 20
66.00003051757813
 11
345
 21
-0.9999847412109375
  0
LINE
  8
0
  6
DASHED
 62
     7
 10
332
 20
35.00003051757813
 11
332
 21
0
  0
LINE
  8
0
  6
DASHED
 62
     7
 10
325.5
 20
65.00003051757813
 11
325.5
 21
35.00003051757813
  0
LINE
  8
0
  6
DASHED
 62
     7
 10
364.5
 20
35.00003051757813
 11
325.5
 21
35.00003051757813
  0
LINE
  8
0
  6
DASHED
 62
     7
 10
364.5
 20
65.00003051757813
 11
364.5
 21
35.00003051757813
  0
LINE
  8
0
  6
DASHED
 62
     7
 10
358
 20
35.00003051757813
 11
358
 21
0
  0
LINE
  8
0
  6
CONTINUOUS
 62
     7
 10
300
 20
58.60844039916992
 11
572.5
 21
58.60844039916992
  0
LINE
  8
0
  6
CONTINUOUS
 62
     7
 10
300
 20
48.5478401184082
 11
572.5
 21
48.5478401184082
  0
LINE
  8
0
  6
CONTINUOUS
 62
     7
 10
300
 20
38.6572265625
 11
572.5
 21
38.6572265625
  0
LINE
  8
0
  6
CONTINUOUS
 62
     7
 10
300
 20
33.09197998046875
 11
572.5
 21
33.09197998046875
  0
LINE
  8
0
  6
CONTINUOUS
 62
     7
 10
300
 20
23.9999885559082
 11
577.0000610351563
 21
23.9999885559082
  0
LINE
  8
0
  6
CONTINUOUS
 62
     7
 10
300
 20
14.99992752075195
 11
1080
 21
14.99992752075195
  0
LINE
  8
0
  6
CONTINUOUS
 62
     7
 10
300
 20
61.25051116943359
 11
572.5
 21
61.25051116943359
  0
LINE
  8
0
  6
CONTINUOUS
 62
     7
 10
300
 20
64.14555358886719
 11
572.5
 21
64.14555358886719
  0
LINE
  8
0
  6
CONTINUOUS
 62
     7
 10
300
 20
0
 11
1080
 21
0
  0
LINE
  8
0
  6
CONTINUOUS
 62
     7
 10
1080
 20
48.5478401184082
 11
807.5
 21
48.5478401184082
  0
LINE
  8
0
  6
CENTER
 62
     7
 10
1035
 20
66.00003051757813
 11
1035
 21
-0.9999847412109375
  0
LINE
  8
0
  6
CONTINUOUS
 62
     7
 10
1080
 20
65.00003051757813
 11
807.4999389648438
 21
65.00003051757813
  0
LINE
  8
0
  6
CONTINUOUS
 62
     7
 10
1080
 20
58.60844039916992
 11
807.5
 21
58.60844039916992
  0
LINE
  8
0
  6
CONTINUOUS
 62
     7
 10
1080
 20
23.9999885559082
 11
802.9999389648438
 21
23.9999885559082
  0
LINE
  8
0
  6
CONTINUOUS
 62
     7
 10
1080
 20
38.6572265625
 11
807.5
 21
38.6572265625
  0
LINE
  8
0
  6
CONTINUOUS
 62
     7
 10
1080
 20
64.14555358886719
 11
807.5
 21
64.14555358886719
  0
LINE
  8
0
  6
CONTINUOUS
 62
     7
 10
1080
 20
33.09197998046875
 11
807.5
 21
33.09197998046875
  0
LINE
  8
0
  6
CONTINUOUS
 62
     7
 10
1080
 20
61.25051116943359
 11
807.5
 21
61.25051116943359
  0
LINE
  8
0
  6
CONTINUOUS
 62
     7
 10
1080
 20
65.00003051757813
 11
1080
 21
0
  0
LINE
  8
0
  6
CENTER
 62
     7
 10
575
 20
27
 11
575
 21
-0.9999847412109375
  0
LINE
  8
0
  6
CENTER
 62
     7
 10
805
 20
27
 11
805
 21
-0.9999847412109375
  0
LINE
  8
0
  6
CONTINUOUS
 62
     7
 10
577.0000610351563
 20
342.5000305175781
 11
600
 21
342.5000305175781
  0
LINE
  8
0
  6
CONTINUOUS
 62
     7
 10
574
 20
344.5000305175781
 11
577.0000610351563
 21
344.5000305175781
  0
LINE
  8
0
  6
CONTINUOUS
 62
     7
 10
300
 20
385.5000305175781
 11
572.5
 21
385.5000305175781
  0
LINE
  8
0
  6
CONTINUOUS
 62
     7
 10
572.5
 20
380.5000305175781
 11
574
 21
380.5000305175781
  0
LINE
  8
0
  6
CONTINUOUS
 62
     7
 10
572.5
 20
70.00003051757813
 11
574
 21
70.00003051757813
  0
LINE
  8
0
  6
CONTINUOUS
 62
     7
 10
807.5
 20
70.00003051757813
 11
806
 21
70.00003051757813
  0
LINE
  8
0
  6
CONTINUOUS
 62
     7
 10
-53
 20
31.75220680236816
 11
-53
 21
23.71249389648438
  0
LINE
  8
0
  6
CONTINUOUS
 62
     7
 10
-53
 20
31.75220680236816
 11
-61.99993896484375
 21
47.34055709838867
  0
LINE
  8
0
  6
CONTINUOUS
 62
     7
 10
-61.99993896484375
 20
62.44512176513672
 11
-61.99993896484375
 21
47.34055709838867
  0
LINE
  8
0
  6
CONTINUOUS
 62
     7
 10
-33.80469131469727
 20
70.00001525878906
 11
-61.99993896484375
 21
62.44512176513672
  0
LINE
  8
0
  6
CONTINUOUS
 62
     7
 10
33.80469131469727
 20
70.00001525878906
 11
-33.80469131469727
 21
70.00001525878906
  0
LINE
  8
0
  6
CONTINUOUS
 62
     7
 10
53
 20
31.75220680236816
 11
53
 21
23.71249389648438
  0
LINE
  8
0
  6
CONTINUOUS
 62
     7
 10
53
 20
31.75220680236816
 11
61.99993896484375
 21
47.34055709838867
  0
LINE
  8
0
  6
CONTINUOUS
 62
     7
 10
61.99993896484375
 20
62.44512176513672
 11
61.99993896484375
 21
47.34055709838867
  0
LINE
  8
0
  6
CONTINUOUS
 62
     7
 10
33.80469131469727
 20
70.00001525878906
 11
61.99993896484375
 21
62.44512176513672
  0
LINE
  8
0
  6
CONTINUOUS
 62
     7
 10
300
 20
409.3536071777344
 11
572.5
 21
409.3536071777344
  0
LINE
  8
0
  6
CONTINUOUS
 62
     7
 10
300
 20
406.1647033691406
 11
572.5
 21
406.1647033691406
  0
LINE
  8
0
  6
CONTINUOUS
 62
     7
 10
300
 20
395.3602600097656
 11
572.5
 21
395.3602600097656
  0
LINE
  8
0
  6
CENTER
 62
     7
 10
345
 20
463.0000305175781
 11
345
 21
422.0000305175781
  0
LINE
  8
0
  6
CENTER
 62
     7
 10
630
 20
373.5000305175781
 11
630
 21
351.5000305175781
  0
LINE
  8
0
  6
CENTER
 62
     7
 10
619
 20
362.5000305175781
 11
641
 21
362.5000305175781
  0
LINE
  8
0
  6
CONTINUOUS
 62
     7
 10
572.5
 20
504.5000305175781
 11
574
 21
504.5000305175781
  0
LINE
  8
0
  6
CONTINUOUS
 62
     7
 10
300
 20
385.5000305175781
 11
300
 21
499.5000305175781
  0
LINE
  8
0
  6
CONTINUOUS
 62
     7
 10
572.5
 20
380.5000305175781
 11
572.5
 21
434.4171447753906
  0
LINE
  8
0
  6
CONTINUOUS
 62
     7
 10
300
 20
475.6464538574219
 11
572.5
 21
475.6464538574219
  0
LINE
  8
0
  6
CONTINUOUS
 62
     7
 10
574
 20
344.5000305175781
 11
574
 21
434.4171447753906
  0
LINE
  8
0
  6
CONTINUOUS
 62
     7
 10
577.0000610351563
 20
342.5000305175781
 11
577.0000610351563
 21
542.5
  0
LINE
  8
0
  6
CONTINUOUS
 62
     7
 10
600
 20
340.0000305175781
 11
600
 21
545
  0
LINE
  8
0
  6
CENTER
 62
     7
 10
619
 20
522.5
 11
641
 21
522.5
  0
LINE
  8
0
  6
CENTER
 62
     7
 10
630
 20
511.5000305175781
 11
630
 21
533.5
  0
LINE
  8
0
  6
CONTINUOUS
 62
     7
 10
300
 20
489.6398010253906
 11
572.5
 21
489.6398010253906
  0
LINE
  8
0
  6
CONTINUOUS
 62
     7
 10
300
 20
478.8353576660156
 11
572.5
 21
478.8353576660156
  0
LINE
  8
0
  6
CONTINUOUS
 62
     7
 10
577.0000610351563
 20
542.5
 11
600
 21
542.5
  0
LINE
  8
0
  6
CONTINUOUS
 62
     7
 10
300
 20
499.5000305175781
 11
572.5
 21
499.5000305175781
  0
LINE
  8
0
  6
CONTINUOUS
 62
     7
 10
574
 20
540.5
 11
577.0000610351563
 21
540.5
  0
LINE
  8
0
  6
CONTINUOUS
 62
     7
 10
807.5
 20
380.5000305175781
 11
806
 21
380.5000305175781
  0
LINE
  8
0
  6
CENTER
 62
     7
 10
1081
 20
442.5000305175781
 11
299
 21
442.5000305175781
  0
LINE
  8
0
  6
CONTINUOUS
 62
     7
 10
780
 20
340.0000305175781
 11
600
 21
340.0000305175781
  0
LINE
  8
0
  6
CONTINUOUS
 62
     7
 10
1080
 20
409.3536071777344
 11
807.5
 21
409.3536071777344
  0
LINE
  8
0
  6
CONTINUOUS
 62
     7
 10
806
 20
540.5
 11
802.9999389648438
 21
540.5
  0
LINE
  8
0
  6
CONTINUOUS
 62
     7
 10
780
 20
493.5000610351563
 11
600
 21
493.5000610351563
  0
LINE
  8
0
  6
CONTINUOUS
 62
     7
 10
1080
 20
499.5000305175781
 11
807.5
 21
499.5000305175781
  0
LINE
  8
0
  6
CONTINUOUS
 62
     7
 10
1080
 20
478.8353576660156
 11
807.5
 21
478.8353576660156
  0
LINE
  8
0
  6
CONTINUOUS
 62
     7
 10
1080
 20
489.6398010253906
 11
807.5
 21
489.6398010253906
  0
LINE
  8
0
  6
CONTINUOUS
 62
     7
 10
780
 20
461.5000305175781
 11
600
 21
461.5000305175781
  0
LINE
  8
0
  6
CENTER
 62
     7
 10
750
 20
511.5000305175781
 11
750
 21
533.5
  0
LINE
  8
0
  6
CONTINUOUS
 62
     7
 10
802.9999389648438
 20
542.5
 11
780
 21
542.5
  0
LINE
  8
0
  6
CONTINUOUS
 62
     7
 10
806
 20
344.5000305175781
 11
806
 21
540.5
  0
LINE
  8
0
  6
CENTER
 62
     7
 10
761
 20
522.5
 11
739
 21
522.5
  0
LINE
  8
0
  6
CONTINUOUS
 62
     7
 10
780
 20
340.0000305175781
 11
780
 21
545
  0
LINE
  8
0
  6
CONTINUOUS
 62
     7
 10
802.9999389648438
 20
342.5000305175781
 11
802.9999389648438
 21
542.5
  0
LINE
  8
0
  6
CONTINUOUS
 62
     7
 10
1080
 20
475.6464538574219
 11
807.5
 21
475.6464538574219
  0
LINE
  8
0
  6
CONTINUOUS
 62
     7
 10
1080
 20
385.5000305175781
 11
1080
 21
499.5000305175781
  0
LINE
  8
0
  6
CENTER
 62
     7
 10
761
 20
362.5000305175781
 11
739
 21
362.5000305175781
  0
LINE
  8
0
  6
CONTINUOUS
 62
     7
 10
807.5
 20
380.5000305175781
 11
807.5
 21
504.5000305175781
  0
LINE
  8
0
  6
CONTINUOUS
 62
     7
 10
780
 20
545
 11
600
 21
545
  0
LINE
  8
0
  6
CENTER
 62
     7
 10
750
 20
373.5000305175781
 11
750
 21
351.5000305175781
  0
LINE
  8
0
  6
CENTER
 62
     7
 10
1035
 20
463.0000305175781
 11
1035
 21
422.0000305175781
  0
LINE
  8
0
  6
CONTINUOUS
 62
     7
 10
780
 20
423.5000305175781
 11
600
 21
423.5000305175781
  0
LINE
  8
0
  6
CONTINUOUS
 62
     7
 10
807.5
 20
504.5000305175781
 11
806
 21
504.5000305175781
  0
LINE
  8
0
  6
CONTINUOUS
 62
     7
 10
1080
 20
395.3602600097656
 11
807.5
 21
395.3602600097656
  0
LINE
  8
0
  6
CONTINUOUS
 62
     7
 10
1080
 20
406.1647033691406
 11
807.5
 21
406.1647033691406
  0
LINE
  8
0
  6
CONTINUOUS
 62
     7
 10
802.9999389648438
 20
342.5000305175781
 11
780
 21
342.5000305175781
  0
LINE
  8
0
  6
CONTINUOUS
 62
     7
 10
1080
 20
385.5000305175781
 11
807.5
 21
385.5000305175781
  0
LINE
  8
0
  6
CONTINUOUS
 62
     7
 10
806
 20
344.5000305175781
 11
802.9999389648438
 21
344.5000305175781
  0
LINE
  8
0
  6
CONTINUOUS
 62
     7
 10
780
 20
391.5
 11
600
 21
391.5
  0
LINE
  8
0
  6
CENTER
 62
     7
 10
575
 20
463.0000305175781
 11
575
 21
422.0000305175781
  0
LINE
  8
0
  6
CENTER
 62
     7
 10
805
 20
463.0000305175781
 11
805
 21
422.0000305175781
  0
LINE
  8
0
  6
CENTER
 62
     7
 10
562.080322265625
 20
427.1294555664063
 11
569.1463623046875
 21
444.1883544921875
  0
LINE
  8
0
  6
CONTINUOUS
 62
     7
 10
560.50048828125
 20
429.5868835449219
 11
564.9351196289063
 21
427.7500305175781
  0
LINE
  8
0
  6
CONTINUOUS
 62
     7
 10
560.7022705078125
 20
432.4258117675781
 11
566.7998657226563
 21
429.9000854492188
  0
LINE
  8
0
  6
CONTINUOUS
 62
     7
 10
560.5005493164063
 20
429.5869140625
 11
560.7023315429688
 21
432.4258117675781
  0
LINE
  8
0
  6
CONTINUOUS
 62
     7
 10
564.9351806640625
 20
427.7500610351563
 11
566.7999267578125
 21
429.9001159667969
  0
LINE
  8
0
  6
CONTINUOUS
 62
     7
 10
561.593994140625
 20
436.5162353515625
 11
562.0086669921875
 21
437.5173034667969
  0
LINE
  8
0
  6
CONTINUOUS
 62
     7
 10
569.0617065429688
 20
433.4230346679688
 11
569.4763793945313
 21
434.424072265625
  0
LINE
  8
0
  6
CONTINUOUS
 62
     7
 10
562.7882080078125
 20
437.8400573730469
 11
562.0087890625
 21
437.5172119140625
  0
LINE
  8
0
  6
CONTINUOUS
 62
     7
 10
563.2313232421875
 20
435.1886596679688
 11
564.1038818359375
 21
437.2951965332031
  0
LINE
  8
0
  6
CONTINUOUS
 62
     7
 10
566.9651489257813
 20
433.6420593261719
 11
567.8377075195313
 21
435.7485961914063
  0
LINE
  8
0
  6
CONTINUOUS
 62
     7
 10
562.788330078125
 20
437.8401184082031
 11
569.1535034179688
 21
435.2035827636719
  0
LINE
  8
0
  6
CONTINUOUS
 62
     7
 10
569.476318359375
 20
434.424072265625
 11
569.1534423828125
 21
435.2035217285156
  0
LINE
  8
0
  6
CONTINUOUS
 62
     7
 10
561.7515258789063
 20
433.8815612792969
 11
567.0062866210938
 21
431.7049560546875
  0
LINE
  8
0
  6
CONTINUOUS
 62
     7
 10
565.947021484375
 20
449.2500305175781
 11
571.0549926757813
 21
449.2500305175781
  0
LINE
  8
0
  6
CONTINUOUS
 62
     7
 10
577.0000610351563
 20
449.5000305175781
 11
577.0000610351563
 21
435.5000305175781
  0
LINE
  8
0
  6
CONTINUOUS
 62
     7
 10
567.8342895507813
 20
435.7500305175781
 11
571.0549926757813
 21
435.7500305175781
  0
LINE
  8
0
  6
CONTINUOUS
 62
     7
 10
561.8237915039063
 20
435.7716979980469
 11
568.3726806640625
 21
433.0590515136719
  0
LINE
  8
0
  6
CONTINUOUS
 62
     7
 10
572.5
 20
450.5829162597656
 11
572.5
 21
504.5000305175781
  0
LINE
  8
0
  6
CONTINUOUS
 62
     7
 10
574
 20
450.5829162597656
 11
574
 21
540.5
  0
LINE
  8
0
  6
CONTINUOUS
 62
     7
 10
8.360671997070313
 20
92.5
 11
5.773818969726563
 21
92.5
  0
LINE
  8
0
  6
CONTINUOUS
 62
     7
 10
8.360694885253906
 20
99.5
 11
5.773818969726563
 21
99.5
  0
LINE
  8
0
  6
CONTINUOUS
 62
     7
 10
4.041457176208496
 20
102.9999923706055
 11
6.062178611755371
 21
99.5
  0
LINE
  8
0
  6
CONTINUOUS
 62
     7
 10
-4.041451930999756
 20
102.9999771118164
 11
4.041433811187744
 21
102.9999771118164
  0
LINE
  8
0
  6
CONTINUOUS
 62
     7
 10
6.062195301055908
 20
92.5
 11
4.041459083557129
 21
88.99997711181641
  0
LINE
  8
0
  6
CENTER
 62
     7
 10
-9.9193115234375
 20
96
 11
15.83950805664063
 21
96
  0
LINE
  8
0
  6
CONTINUOUS
 62
     7
 10
-4.04151201248169
 20
89
 11
4.041495800018311
 21
89
  0
LINE
  8
0
  6
CONTINUOUS
 62
     7
 10
-8.082882881164551
 20
95.99996185302734
 11
-4.041455268859863
 21
89.00000762939453
  0
LINE
  8
0
  6
CONTINUOUS
 62
     7
 10
-4.041420936584473
 20
102.9999694824219
 11
-8.082863807678223
 21
95.99998474121094
  0
LINE
  8
0
  6
CONTINUOUS
 62
     7
 10
11.51142978668213
 20
99.26840209960938
 11
13.95835590362549
 21
98.37702178955078
  0
LINE
  8
0
  6
CONTINUOUS
 62
     7
 10
11.51142024993897
 20
92.73160552978516
 11
13.95835018157959
 21
93.62299346923828
  0
LINE
  8
0
  6
CONTINUOUS
 62
     7
 10
9.660208702087402
 20
93.15267181396484
 11
11.20188999176025
 21
92.71895599365234
  0
LINE
  8
0
  6
CONTINUOUS
 62
     7
 10
9.660224914550781
 20
98.84734344482422
 11
11.20188045501709
 21
99.28105163574219
  0
LINE
  8
0
  6
CONTINUOUS
 62
     7
 10
571.0000610351563
 20
103
 11
577.0000610351563
 21
103
  0
LINE
  8
0
  6
CONTINUOUS
 62
     7
 10
571.0000610351563
 20
89
 11
577.0000610351563
 21
89
  0
LINE
  8
0
  6
CONTINUOUS
 62
     7
 10
571.0000610351563
 20
103
 11
571.0000610351563
 21
89
  0
LINE
  8
0
  6
CONTINUOUS
 62
     7
 10
571.0000610351563
 20
448.5621948242188
 11
571.0000610351563
 21
436.4378662109375
  0
LINE
  8
0
  6
CONTINUOUS
 62
     7
 10
571.5000610351563
 20
450.5829162597656
 11
576.5000610351563
 21
450.5829162597656
  0
LINE
  8
0
  6
CONTINUOUS
 62
     7
 10
571.0000610351563
 20
446.5414733886719
 11
577.0000610351563
 21
446.5414733886719
  0
LINE
  8
0
  6
CONTINUOUS
 62
     7
 10
571.0000610351563
 20
438.4585876464844
 11
577.0000610351563
 21
438.4585876464844
  0
LINE
  8
0
  6
CONTINUOUS
 62
     7
 10
571.5000610351563
 20
434.4171447753906
 11
576.5000610351563
 21
434.4171447753906
  0
ARC
  8
0
  6
CONTINUOUS
 62
     7
 10
59.32550048828125
 20
40.54899597167969
 40
8.329999923706055
 50
106.2099060465618
 51
193.1264538011836
  0
ARC
  8
0
  6
CONTINUOUS
 62
     7
 10
43.3353271484375
 20
68.66098022460938
 40
8.329999923706057
 50
212.8243268589942
 51
297.1756672972234
  0
ARC
  8
0
  6
CONTINUOUS
 62
     7
 10
-59.32550048828125
 20
40.54899597167969
 40
8.329999923706051
 50
346.8737783115627
 51
73.78878756607385
  0
ARC
  8
0
  6
CONTINUOUS
 62
     7
 10
-43.33526611328125
 20
68.66098022460938
 40
8.329999923706055
 50
242.824197920226
 51
327.1757944905492
  0
ARC
  8
0
  6
CONTINUOUS
 62
     7
 10
565.9470825195313
 20
92.25
 40
2.99999999999998
 50
195.18928385602
 51
269.9999974955227
  0
ARC
  8
0
  6
CONTINUOUS
 62
     7
 10
579.7595825195313
 20
96
 40
17.31250000000001
 50
190.3452453947551
 51
195.1892838560198
  0
ARC
  8
0
  6
CONTINUOUS
 62
     7
 10
577.4471435546875
 20
102.3651123046875
 40
17.08318519592284
 50
214.3332385900551
 51
215.2730589594704
  0
ARC
  8
0
  6
CONTINUOUS
 62
     7
 10
577.4471435546875
 20
89.63491821289063
 40
17.08318519592289
 50
144.7269410405296
 51
145.6667614099449
  0
ARC
  8
0
  6
CONTINUOUS
 62
     7
 10
583.0086059570313
 20
86.1348876953125
 40
17.08318519592283
 50
144.7268590782594
 51
158.1243161163745
  0
ARC
  8
0
  6
CONTINUOUS
 62
     7
 10
579.7595825195313
 20
96
 40
17.31249999999999
 50
164.8107161439802
 51
169.6547546052449
  0
ARC
  8
0
  6
CONTINUOUS
 62
     7
 10
565.9470825195313
 20
99.75
 40
3.000000000000003
 50
90.00000250447738
 51
164.8107161439801
  0
ARC
  8
0
  6
CONTINUOUS
 62
     7
 10
583.0086059570313
 20
105.8651123046875
 40
17.08318519592281
 50
201.8756838836256
 51
215.2731409217406
  0
ARC
  8
0
  6
CONTINUOUS
 62
     7
 10
-72.03781890869141
 20
26.66846084594727
 40
12
 50
284.506035217065
 51
315.49396827382
  0
ARC
  8
0
  6
CONTINUOUS
 62
     7
 10
-69.43280792236328
 20
16.60000038146973
 40
1.600000023841854
 50
215.0000016568318
 51
284.5060352170651
  0
ARC
  8
0
  6
CONTINUOUS
 62
     7
 10
-64.62078857421875
 20
19.37822341918945
 40
1.600000023841855
 50
315.49396827382
 51
25.00000012650594
  0
ARC
  8
0
  6
CONTINUOUS
 62
     7
 10
69.43280792236328
 20
16.60000038146973
 40
1.600000023841859
 50
255.4939666041678
 51
325.0000001644011
  0
ARC
  8
0
  6
CONTINUOUS
 62
     7
 10
72.03781890869141
 20
26.66846084594727
 40
12
 50
224.5060267172237
 51
255.4939666041679
  0
ARC
  8
0
  6
CONTINUOUS
 62
     7
 10
64.62078857421875
 20
19.37822341918945
 40
1.600000023841856
 50
154.9999963447139
 51
224.5060367351363
  0
CIRCLE
  8
0
  6
CONTINUOUS
 62
     7
 10
345
 20
442.5000305175781
 40
19.5
  0
CIRCLE
  8
0
  6
CONTINUOUS
 62
     7
 10
345
 20
442.5000305175781
 40
13
  0
CIRCLE
  8
0
  6
CONTINUOUS
 62
     7
 10
630
 20
362.5000305175781
 40
8.75
  0
CIRCLE
  8
0
  6
CONTINUOUS
 62
     7
 10
630
 20
362.5000305175781
 40
10
  0
ARC
  8
0
  6
CONTINUOUS
 62
     7
 10
563.7510986328125
 20
431.1629943847656
 40
3.299999237060556
 50
337.5000181569004
 51
2.009806215165055
  0
ARC
  8
0
  6
CONTINUOUS
 62
     7
 10
571.5143432617188
 20
427.9473266601563
 40
6.000000000000011
 50
114.1278165022775
 51
131.2359377315422
  0
ARC
  8
0
  6
CONTINUOUS
 62
     7
 10
565.947021484375
 20
438.7500305175781
 40
2.999999999999977
 50
195.1892838560197
 51
200.5897231874528
  0
ARC
  8
0
  6
CONTINUOUS
 62
     7
 10
579.759521484375
 20
442.5000305175781
 40
17.31249999999999
 50
164.8107161439802
 51
195.1892802135542
  0
ARC
  8
0
  6
CONTINUOUS
 62
     7
 10
565.947021484375
 20
446.2500305175781
 40
3.000000000000003
 50
90.00000250447738
 51
164.8107161439803
  0
ARC
  8
0
  6
CONTINUOUS
 62
     7
 10
568.5481567382813
 20
431.3313293457031
 40
1.500000000000001
 50
131.2359377315422
 51
182.0098018326104
  0
ARC
  8
0
  6
CONTINUOUS
 62
     7
 10
563.7509765625
 20
431.1630249023438
 40
3.299999237060538
 50
132.9901898575898
 51
157.4999821847224
  0
ARC
  8
0
  6
CONTINUOUS
 62
     7
 10
560.47802734375
 20
434.674072265625
 40
1.500000000000049
 50
312.9901950939179
 51
3.764061756307692
  0
ARC
  8
0
  6
CONTINUOUS
 62
     7
 10
555.9877319335938
 20
434.378662109375
 40
5.999999999999963
 50
3.764061756307079
 51
20.87218554689281
  0
ARC
  8
0
  6
CONTINUOUS
 62
     7
 10
-0.7137680053710938
 20
92.869873046875
 40
7.875409126281738
 50
357.308301849047
 51
23.41950118275418
  0
ARC
  8
0
  6
CONTINUOUS
 62
     7
 10
13.19907379150391
 20
88.9517822265625
 40
6.000000000000003
 50
139.6351716180684
 51
143.7457433851222
  0
ARC
  8
0
  6
CONTINUOUS
 62
     7
 10
8.369361877441406
 20
94.92596435546875
 40
3.552768945693969
 50
162.4033613294958
 51
223.0653859146405
  0
ARC
  8
0
  6
CONTINUOUS
 62
     7
 10
-0.7137680053710938
 20
99.13015747070313
 40
7.875409126281737
 50
336.5804680813946
 51
2.691665707554334
  0
ARC
  8
0
  6
CONTINUOUS
 62
     7
 10
8.369361877441406
 20
97.07403564453125
 40
3.552768945693967
 50
136.9345694617588
 51
197.5965940469035
  0
ARC
  8
0
  6
CONTINUOUS
 62
     7
 10
13.19907379150391
 20
103.0482482910156
 40
6.000000000000004
 50
216.254625445093
 51
220.3651972121467
  0
ARC
  8
0
  6
CONTINUOUS
 62
     7
 10
0
 20
96
 40
6.750000000000004
 50
31.21928863941634
 51
328.7807179634017
  0
ARC
  8
0
  6
CONTINUOUS
 62
     7
 10
9.389419555664063
 20
99.80996704101563
 40
1
 50
220.3651972121467
 51
285.712717907542
  0
ARC
  8
0
  6
CONTINUOUS
 62
     7
 10
9.389396667480469
 20
92.19004821777344
 40
0.9999999999999941
 50
74.28728209245796
 51
139.6351716180682
  0
ARC
  8
0
  6
CONTINUOUS
 62
     7
 10
575.3333740234375
 20
448.5621948242188
 40
4.333314895629823
 50
152.2041676909959
 51
180.0537585977244
  0
ARC
  8
0
  6
CONTINUOUS
 62
     7
 10
572.666748046875
 20
448.5621948242188
 40
4.333314895629857
 50
359.9462420656572
 51
27.79583219531869
  0
ARC
  8
0
  6
CONTINUOUS
 62
     7
 10
575.3333740234375
 20
436.4378662109375
 40
4.333314895629939
 50
179.9462377598098
 51
207.7958286665387
  0
ARC
  8
0
  6
CONTINUOUS
 62
     7
 10
572.666748046875
 20
436.4378662109375
 40
4.33331489562985
 50
332.2041678046813
 51
0.05375793434279618
  0
POLYLINE
  8
0
  6
CONTINUOUS
 62
     7
 66
     1
 10
0
 20
0
  0
VERTEX
  8
0
  6
CONTINUOUS
 62
     7
 10
563.7510986328125
 20
92.70001220703125
 42
0.0731158090071984
  0
VERTEX
  8
0
  6
CONTINUOUS
 62
     7
 10
564.5661588314981
 20
92.82012323431708
 42
0.07062038014701602
  0
VERTEX
  8
0
  6
CONTINUOUS
 62
     7
 10
565.3137250987284
 20
93.16642338995175
 42
0.06680092357889467
  0
VERTEX
  8
0
  6
CONTINUOUS
 62
     7
 10
565.9401650176698
 20
93.70311577776785
 42
0.06287606906206354
  0
VERTEX
  8
0
  6
CONTINUOUS
 62
     7
 10
566.4085656518556
 20
94.38258987514368
 42
0.05987830180407111
  0
VERTEX
  8
0
  6
CONTINUOUS
 62
     7
 10
566.6984224371705
 20
95.15581623795954
 42
0.05828597703995821
  0
VERTEX
  8
0
  6
CONTINUOUS
 62
     7
 10
566.7997842015506
 20
95.97586755202185
 42
0.05815580911860672
  0
VERTEX
  8
0
  6
CONTINUOUS
 62
     7
 10
566.7098255691547
 20
96.79607883173685
 42
0.05969775614611227
  0
VERTEX
  8
0
  6
CONTINUOUS
 62
     7
 10
566.4312877804806
 20
97.57287016057302
 42
0.06266060754704753
  0
VERTEX
  8
0
  6
CONTINUOUS
 62
     7
 10
565.9732313522554
 20
98.2593773727067
 42
0.06660363679090824
  0
VERTEX
  8
0
  6
CONTINUOUS
 62
     7
 10
565.3549844318402
 20
98.80643741425168
 42
0.0705496662715419
  0
VERTEX
  8
0
  6
CONTINUOUS
 62
     7
 10
564.6118518353293
 20
99.16573927649982
 42
0.07311463113399926
  0
VERTEX
  8
0
  6
CONTINUOUS
 62
     7
 10
563.7980186361535
 20
99.2995969821651
 42
0.07318595817588632
  0
VERTEX
  8
0
  6
CONTINUOUS
 62
     7
 10
562.9810988724825
 20
99.19300830840413
 42
0.07079587560839476
  0
VERTEX
  8
0
  6
CONTINUOUS
 62
     7
 10
562.2282263033738
 20
98.85883206742012
 42
0.067047846693087
  0
VERTEX
  8
0
  6
CONTINUOUS
 62
     7
 10
561.5935677389093
 20
98.33161407229345
 42
0.06307933688736275
  0
VERTEX
  8
0
  6
CONTINUOUS
 62
     7
 10
561.1155217141734
 20
97.65892781481584
 42
0
  0
SEQEND
  8
0
  0
POLYLINE
  8
0
  6
CONTINUOUS
 62
     7
 66
     1
 10
0
 20
0
  0
VERTEX
  8
0
  6
CONTINUOUS
 62
     7
 10
561.1149776622603
 20
94.34208521610539
 42
0.01519446003683134
  0
VERTEX
  8
0
  6
CONTINUOUS
 62
     7
 10
561.216778353261
 20
94.16551739033685
 42
0.01540047950161315
  0
VERTEX
  8
0
  6
CONTINUOUS
 62
     7
 10
561.3291881097321
 20
93.99549875966504
 42
0.01562170618652282
  0
VERTEX
  8
0
  6
CONTINUOUS
 62
     7
 10
561.4519267602725
 20
93.83277001341068
 42
0.01585548865807278
  0
VERTEX
  8
0
  6
CONTINUOUS
 62
     7
 10
561.5846640501299
 20
93.67807824165701
 42
0.01609867799503603
  0
VERTEX
  8
0
  6
CONTINUOUS
 62
     7
 10
561.7270142409385
 20
93.53217273778488
 42
0.01634760467765272
  0
VERTEX
  8
0
  6
CONTINUOUS
 62
     7
 10
561.8785309173499
 20
93.39579939194856
 42
0.016598078830585
  0
VERTEX
  8
0
  6
CONTINUOUS
 62
     7
 10
562.038702302534
 20
93.26969360177343
 42
0.0168454241733469
  0
VERTEX
  8
0
  6
CONTINUOUS
 62
     7
 10
562.2069474355311
 20
93.15457169610988
 42
0.01708455153996014
  0
VERTEX
  8
0
  6
CONTINUOUS
 62
     7
 10
562.3826136001833
 20
93.0511209617724
 42
0.01731007850423217
  0
VERTEX
  8
0
  6
CONTINUOUS
 62
     7
 10
562.5649754074436
 20
92.95998847938439
 42
0.01751649715095218
  0
VERTEX
  8
0
  6
CONTINUOUS
 62
     7
 10
562.7532359095197
 20
92.88176910553693
 42
0.01769838604363496
  0
VERTEX
  8
0
  6
CONTINUOUS
 62
     7
 10
562.9465300567471
 20
92.8169930718296
 42
0.01785065580775006
  0
VERTEX
  8
0
  6
CONTINUOUS
 62
     7
 10
563.1439306920978
 20
92.76611378943281
 42
0.01796881089653598
  0
VERTEX
  8
0
  6
CONTINUOUS
 62
     7
 10
563.3444571168812
 20
92.72949653006798
 42
0.01804920538208862
  0
VERTEX
  8
0
  6
CONTINUOUS
 62
     7
 10
563.5470860666458
 20
92.70740868086568
 42
0.01811893325277557
  0
VERTEX
  8
0
  6
CONTINUOUS
 62
     7
 10
563.7510986328125
 20
92.70001220703125
 42
0
  0
SEQEND
  8
0
  0
POLYLINE
  8
0
  6
CONTINUOUS
 62
     7
 66
     1
 10
0
 20
0
 70
     1
  0
VERTEX
  8
0
  6
CONTINUOUS
 62
     7
 10
564.9351806640625
 20
96
 42
0.08828392604443383
  0
VERTEX
  8
0
  6
CONTINUOUS
 62
     7
 10
564.7777456759059
 20
96.88819133803506
 42
0.09354530404075165
  0
VERTEX
  8
0
  6
CONTINUOUS
 62
     7
 10
564.3165823713592
 20
97.66298539016286
 42
0.1024550683803488
  0
VERTEX
  8
0
  6
CONTINUOUS
 62
     7
 10
563.5953003240308
 20
98.20407321451762
 42
0.1097081876404059
  0
VERTEX
  8
0
  6
CONTINUOUS
 62
     7
 10
562.7178344726563
 20
98.39999389648438
 42
0.1096463443359625
  0
VERTEX
  8
0
  6
CONTINUOUS
 62
     7
 10
561.8408525647437
 20
98.20429413507897
 42
0.1023487763443693
  0
VERTEX
  8
0
  6
CONTINUOUS
 62
     7
 10
561.1201662874975
 20
97.66416500408411
 42
0.09358468408693609
  0
VERTEX
  8
0
  6
CONTINUOUS
 62
     7
 10
560.6584301948099
 20
96.88942613158073
 42
0.0884109709659598
  0
VERTEX
  8
0
  6
CONTINUOUS
 62
     7
 10
560.5005493164063
 20
96
 42
0.08827985218790861
  0
VERTEX
  8
0
  6
CONTINUOUS
 62
     7
 10
560.6579761253595
 20
95.11180664465474
 42
0.09354597574760692
  0
VERTEX
  8
0
  6
CONTINUOUS
 62
     7
 10
561.1191267841537
 20
94.33700500057445
 42
0.1024599657693363
  0
VERTEX
  8
0
  6
CONTINUOUS
 62
     7
 10
561.8404057782757
 20
93.79591418229433
 42
0.1097069692998006
  0
VERTEX
  8
0
  6
CONTINUOUS
 62
     7
 10
562.7178344726563
 20
93.60000610351563
 42
0.1096429101300365
  0
VERTEX
  8
0
  6
CONTINUOUS
 62
     7
 10
563.5948179008263
 20
93.795701854366
 42
0.1023442780101232
  0
VERTEX
  8
0
  6
CONTINUOUS
 62
     7
 10
564.3155167038086
 20
94.33581520889381
 42
0.09358435197994172
  0
VERTEX
  8
0
  6
CONTINUOUS
 62
     7
 10
564.7772780501363
 20
95.11053917400589
 42
0.08841896615313998
  0
SEQEND
  8
0
  0
POLYLINE
  8
0
  6
CONTINUOUS
 62
     7
 66
     1
 10
0
 20
0
 70
     1
  0
VERTEX
  8
0
  6
CONTINUOUS
 62
     7
 10
13.83154296875
 20
98.40000915527344
 42
0.2547050057858898
  0
VERTEX
  8
0
  6
CONTINUOUS
 62
     7
 10
13.32026563750223
 20
97.99374669703515
 42
0.06365237300961101
  0
VERTEX
  8
0
  6
CONTINUOUS
 62
     7
 10
13.07431071388762
 20
97.35813742956761
 42
0.03549875221984919
  0
VERTEX
  8
0
  6
CONTINUOUS
 62
     7
 10
12.95135926254632
 20
96.68541306933921
 42
0.02816725306359297
  0
VERTEX
  8
0
  6
CONTINUOUS
 62
     7
 10
12.91310923516391
 20
96.00226631334989
 42
0.02812347652238588
  0
VERTEX
  8
0
  6
CONTINUOUS
 62
     7
 10
12.95078549627849
 20
95.31963988902849
 42
0.03541277106684532
  0
VERTEX
  8
0
  6
CONTINUOUS
 62
     7
 10
13.07306991177084
 20
94.64660374648548
 42
0.0634745963320803
  0
VERTEX
  8
0
  6
CONTINUOUS
 62
     7
 10
13.31863677592632
 20
94.00912262056994
 42
0.2547692361184455
  0
VERTEX
  8
0
  6
CONTINUOUS
 62
     7
 10
13.83154296875
 20
93.60000610351563
 42
0.2547037754520883
  0
VERTEX
  8
0
  6
CONTINUOUS
 62
     7
 10
14.3428235219676
 20
94.00626512488061
 42
0.06365332165661565
  0
VERTEX
  8
0
  6
CONTINUOUS
 62
     7
 10
14.58878178840948
 20
94.64187301654472
 42
0.03549944801213702
  0
VERTEX
  8
0
  6
CONTINUOUS
 62
     7
 10
14.71173462838212
 20
95.31459709182488
 42
0.02816782885364748
  0
VERTEX
  8
0
  6
CONTINUOUS
 62
     7
 10
14.74998433529585
 20
95.99774359692528
 42
0.02812381740106774
  0
VERTEX
  8
0
  6
CONTINUOUS
 62
     7
 10
14.7123064491514
 20
96.68036986064563
 42
0.03541272322977483
  0
VERTEX
  8
0
  6
CONTINUOUS
 62
     7
 10
14.59002002068709
 20
97.35340563080352
 42
0.06347362881902773
  0
VERTEX
  8
0
  6
CONTINUOUS
 62
     7
 10
14.34445232774456
 20
97.9908864819468
 42
0.2547673441357972
  0
SEQEND
  8
0
  0
POLYLINE
  8
0
  6
CONTINUOUS
 62
     7
 66
     1
 10
0
 20
0
  0
VERTEX
  8
0
  6
CONTINUOUS
 62
     7
 10
11.51128484414741
 20
99.26844941362087
 42
0.2419549943324224
  0
VERTEX
  8
0
  6
CONTINUOUS
 62
     7
 10
11.04147379563734
 20
99.20832985347511
 42
0.1040602418273483
  0
VERTEX
  8
0
  6
CONTINUOUS
 62
     7
 10
10.70416787395761
 20
98.85566157672416
 42
0.04748772166623453
  0
VERTEX
  8
0
  6
CONTINUOUS
 62
     7
 10
10.47849792014485
 20
98.42001832917639
 42
0.02915041631277771
  0
VERTEX
  8
0
  6
CONTINUOUS
 62
     7
 10
10.3194353299451
 20
97.95413853396613
 42
0.02124433023225749
  0
VERTEX
  8
0
  6
CONTINUOUS
 62
     7
 10
10.20730615391152
 20
97.47460979409141
 42
0.01734001507270231
  0
VERTEX
  8
0
  6
CONTINUOUS
 62
     7
 10
10.13200472550042
 20
96.98688078878348
 42
0.01529278916301864
  0
VERTEX
  8
0
  6
CONTINUOUS
 62
     7
 10
10.08855204692387
 20
96.49591044812821
 42
0.01441683554769868
  0
VERTEX
  8
0
  6
CONTINUOUS
 62
     7
 10
10.07421170853373
 20
96.00318429319776
 42
0.01436644647236591
  0
VERTEX
  8
0
  6
CONTINUOUS
 62
     7
 10
10.08809799850468
 20
95.51195910200599
 42
0.0152559841738426
  0
VERTEX
  8
0
  6
CONTINUOUS
 62
     7
 10
10.1310163575059
 20
95.02139837165167
 42
0.01732076104877729
  0
VERTEX
  8
0
  6
CONTINUOUS
 62
     7
 10
10.20588141181709
 20
94.53286745316012
 42
0.02117974019742563
  0
VERTEX
  8
0
  6
CONTINUOUS
 62
     7
 10
10.31748397194494
 20
94.05281943964627
 42
0.0290260493320965
  0
VERTEX
  8
0
  6
CONTINUOUS
 62
     7
 10
10.4759731925974
 20
93.58611478565588
 42
0.04737184694925531
  0
VERTEX
  8
0
  6
CONTINUOUS
 62
     7
 10
10.70168277841445
 20
93.14810920699212
 42
0.1037999957856668
  0
VERTEX
  8
0
  6
CONTINUOUS
 62
     7
 10
11.03938475302447
 20
92.79298933629211
 42
0.2421695498686185
  0
VERTEX
  8
0
  6
CONTINUOUS
 62
     7
 10
11.50990270319089
 20
92.73104954885669
 42
0
  0
SEQEND
  8
0
  0
POLYLINE
  8
0
  6
CONTINUOUS
 62
     7
 66
     1
 10
0
 20
0
  0
VERTEX
  8
0
  6
CONTINUOUS
 62
     7
 10
9.591292277998804
 20
98.82794474228088
 42
0.1426553360552989
  0
VERTEX
  8
0
  6
CONTINUOUS
 62
     7
 10
9.274705862900735
 20
98.61023841690057
 42
0.06078303718221672
  0
VERTEX
  8
0
  6
CONTINUOUS
 62
     7
 10
9.059503280685291
 20
98.28626811073106
 42
0.0342398039136757
  0
VERTEX
  8
0
  6
CONTINUOUS
 62
     7
 10
8.906807122360162
 20
97.92816440817322
 42
0.02354281437490011
  0
VERTEX
  8
0
  6
CONTINUOUS
 62
     7
 10
8.795393524991207
 20
97.55424943149403
 42
0.01829035794353231
  0
VERTEX
  8
0
  6
CONTINUOUS
 62
     7
 10
8.71519565121074
 20
97.1719439304707
 42
0.01545182576179751
  0
VERTEX
  8
0
  6
CONTINUOUS
 62
     7
 10
8.660782172061127
 20
96.78503746535209
 42
0.0139249104829048
  0
VERTEX
  8
0
  6
CONTINUOUS
 62
     7
 10
8.62907755679851
 20
96.39555775786043
 42
0.01324648276113037
  0
VERTEX
  8
0
  6
CONTINUOUS
 62
     7
 10
8.618501355473054
 20
96.00487615214303
 42
0.01319882441775534
  0
VERTEX
  8
0
  6
CONTINUOUS
 62
     7
 10
8.628500454154532
 20
95.61533306686506
 42
0.0138779669245843
  0
VERTEX
  8
0
  6
CONTINUOUS
 62
     7
 10
8.659548044953484
 20
95.22628175291509
 42
0.01542128772598129
  0
VERTEX
  8
0
  6
CONTINUOUS
 62
     7
 10
8.713383095951253
 20
94.83858899028354
 42
0.01824157842776542
  0
VERTEX
  8
0
  6
CONTINUOUS
 62
     7
 10
8.793060067942115
 20
94.45513995239034
 42
0.02340744572050307
  0
VERTEX
  8
0
  6
CONTINUOUS
 62
     7
 10
8.903794734860037
 20
94.08041295145415
 42
0.03403058240505227
  0
VERTEX
  8
0
  6
CONTINUOUS
 62
     7
 10
9.056005670015239
 20
93.72053254047103
 42
0.06024399300366809
  0
VERTEX
  8
0
  6
CONTINUOUS
 62
     7
 10
9.270575531287962
 20
93.39447005797551
 42
0.1417951362056849
  0
VERTEX
  8
0
  6
CONTINUOUS
 62
     7
 10
9.58756870864765
 20
93.17312590100949
 42
0
  0
SEQEND
  8
0
  0
TEXT
  8
0
  6
CONTINUOUS
 62
     7
 10
-11.28550004959106
 20
-31.79999995231628
 40
3.599999904632568
 41
1.008382419577613
  1
SR120T
  0
ENDSEC
  0
EOF
