  0
SECTION
  2
HEADER
  0
ENDSEC
  0
SECTION
  2
TABLES
  0
TABLE
  2
LTYPE
 70
    22
  0
LTYPE
  2
CONTINUOUS
 70
    64
  3
Solid line
 72
    65
 73
     0
 40
0.000000
  0
LTYPE
  2
DASHED
 70
    64
  3
__ __ __ __ __ __ __ __ __ __ __ __ __ __ __
 72
    65
 73
     2
 40
3.500000
 49
2.000000
 49
-1.500000
  0
LTYPE
  2
CENTER
 70
    64
  3
____ _ ____ _ ____ _ ____ _ ____ _ ____ _ ____
 72
    65
 73
     4
 40
17.500000
 49
13.000000
 49
-1.500000
 49
1.500000
 49
-1.500000
  0
LTYPE
  2
PHANTOM
 70
    64
  3
_____ _ _ _____ _ _ _____ _ _ _____ _ _ ____  
 72
    65
 73
     6
 40
15.500000
 49
8.000000
 49
-1.500000
 49
1.500000
 49
-1.500000
 49
1.500000
 49
-1.500000
  0
LTYPE
  2
DOT
 70
    64
  3
. . . . . . . . . . . . . . . . . . . . . . . .
 72
    65
 73
     2
 40
0.25
 49
0.0
 49
-0.25
  0
ENDTAB
  0
TABLE
  2
LAYER
 70
     1
  0
LAYER
  2
0
 70
     0
 62
     7
  6
CONTINUOUS
  0
ENDTAB
  0
TABLE
  2
STYLE
 70
     1
  0
STYLE
  2
STANDARD
 70
     0
 40
0.000000
 41
1.000000
 50
0.000000
 71
     0
 42
0.200000
  3
txt
  0
ENDTAB
  0
TABLE
  2
VIEW
 70
     0
  0
ENDTAB
  0
ENDSEC
  0
SECTION
  2
BLOCKS
  0
ENDSEC
  0
SECTION
  2
ENTITIES
  0
LINE
  8
0
  6
CONTINUOUS
 62
     7
 10
162
 20
6.699996948242188
 11
168.5500640869141
 21
6.699996948242188
  0
LINE
  8
0
  6
CENTER
 62
     7
 10
0
 20
24.99997711181641
 11
0
 21
-1
  0
LINE
  8
0
  6
DASHED
 62
     7
 10
-10.99981689453125
 20
16.99998474121094
 11
-10.99981689453125
 21
23.99997711181641
  0
LINE
  8
0
  6
DASHED
 62
     7
 10
-14.99981689453125
 20
16.99998474121094
 11
-14.99981689453125
 21
23.99997711181641
  0
LINE
  8
0
  6
DASHED
 62
     7
 10
-11.30017375946045
 20
16.47902679443359
 11
-11.00012493133545
 21
16.99872589111328
  0
LINE
  8
0
  6
DASHED
 62
     7
 10
-14.70006561279297
 20
16.47990036010742
 11
-15.00011444091797
 21
16.99959945678711
  0
LINE
  8
0
  6
DASHED
 62
     7
 10
-12.99929046630859
 20
14.01720142364502
 11
-11.29937744140625
 21
14.99864673614502
  0
LINE
  8
0
  6
DASHED
 62
     7
 10
-12.9991979598999
 20
14.0178337097168
 11
-14.69911193847656
 21
14.99927806854248
  0
LINE
  8
0
  6
CONTINUOUS
 62
     7
 10
-14.61993408203125
 20
5.500243663787842
 11
-8.899868011474609
 21
5.500243663787842
  0
LINE
  8
0
  6
CONTINUOUS
 62
     7
 10
-14.61993408203125
 20
6.5
 11
-14.61993408203125
 21
5.500243663787842
  0
LINE
  8
0
  6
CONTINUOUS
 62
     7
 10
-7.89990234375
 20
6.5
 11
-7.89990234375
 21
6.60009765625
  0
LINE
  8
0
  6
CONTINUOUS
 62
     7
 10
-8.49981689453125
 20
6.5
 11
-8.49981689453125
 21
6.60009765625
  0
LINE
  8
0
  6
CENTER
 62
     7
 10
-5
 20
18
 11
5
 21
18
  0
LINE
  8
0
  6
CONTINUOUS
 62
     7
 10
-16.69989013671875
 20
7.5
 11
-16.69989013671875
 21
17.99997711181641
  0
LINE
  8
0
  6
CONTINUOUS
 62
     7
 10
-9.930696487426758
 20
4.500184059143066
 11
-8.000368118286133
 21
4.500184059143066
  0
LINE
  8
0
  6
CONTINUOUS
 62
     7
 10
-8
 20
4.499977111816406
 11
-6.78728199005127
 21
6.60009765625
  0
LINE
  8
0
  6
CONTINUOUS
 62
     7
 10
-9.930665969848633
 20
5.500243663787842
 11
-9.930665969848633
 21
4.500184059143066
  0
LINE
  8
0
  6
CONTINUOUS
 62
     7
 10
168.5500640869141
 20
23.09999084472656
 11
168.5500640869141
 21
6.5
  0
LINE
  8
0
  6
CONTINUOUS
 62
     7
 10
161
 20
20.79998779296875
 11
161
 21
12.19999694824219
  0
LINE
  8
0
  6
CONTINUOUS
 62
     7
 10
191.4499359130859
 20
6.699996948242188
 11
198
 21
6.699996948242188
  0
LINE
  8
0
  6
CONTINUOUS
 62
     7
 10
169.5504608154297
 20
23.99949836730957
 11
168.5504608154297
 21
22.9995002746582
  0
LINE
  8
0
  6
CONTINUOUS
 62
     7
 10
-5.999829292297363
 20
6.598402976989746
 11
-5.661538124084473
 21
6.793715476989746
  0
LINE
  8
0
  6
CONTINUOUS
 62
     7
 10
-10.39980888366699
 20
6.598358631134033
 11
-8.312155723571777
 21
7.803665637969971
  0
LINE
  8
0
  6
CONTINUOUS
 62
     7
 10
-9.299478530883789
 20
10.51470756530762
 11
-8.128824234008789
 21
8.487074851989746
  0
LINE
  8
0
  6
CONTINUOUS
 62
     7
 10
-9.29998779296875
 20
12.86131286621094
 11
-9.29998779296875
 21
10.51585388183594
  0
LINE
  8
0
  6
CONTINUOUS
 62
     7
 10
-7.660725116729736
 20
14.49886131286621
 11
-9.299360275268555
 21
12.86022186279297
  0
LINE
  8
0
  6
CONTINUOUS
 62
     7
 10
191.4499359130859
 20
23.09999084472656
 11
191.4499359130859
 21
6.5
  0
LINE
  8
0
  6
CONTINUOUS
 62
     7
 10
168.5500640869141
 20
6.499984741210938
 11
191.4499359130859
 21
6.499984741210938
  0
LINE
  8
0
  6
CONTINUOUS
 62
     7
 10
190.4503173828125
 20
23.99961471557617
 11
191.4503173828125
 21
22.99960899353027
  0
LINE
  8
0
  6
CONTINUOUS
 62
     7
 10
169.5500640869141
 20
23.99998474121094
 11
190.4499359130859
 21
23.99998474121094
  0
LINE
  8
0
  6
CONTINUOUS
 62
     7
 10
197.7003631591797
 20
23.09960746765137
 11
198.0002899169922
 21
22.79967880249023
  0
LINE
  8
0
  6
CONTINUOUS
 62
     7
 10
162.3003387451172
 20
23.09960746765137
 11
162.0003356933594
 21
22.79961967468262
  0
LINE
  8
0
  6
CONTINUOUS
 62
     7
 10
168.5500640869141
 20
17.99998474121094
 11
191.4499359130859
 21
17.99998474121094
  0
LINE
  8
0
  6
CONTINUOUS
 62
     7
 10
159.5
 20
13.19999694824219
 11
159.5
 21
6.599990844726563
  0
LINE
  8
0
  6
CONTINUOUS
 62
     7
 10
162.2999572753906
 20
23.09999084472656
 11
168.5500640869141
 21
23.09999084472656
  0
LINE
  8
0
  6
CONTINUOUS
 62
     7
 10
162
 20
23.09999084472656
 11
162
 21
6.599990844726563
  0
LINE
  8
0
  6
CONTINUOUS
 62
     7
 10
161
 20
23.09999084472656
 11
162
 21
23.09999084472656
  0
LINE
  8
0
  6
CONTINUOUS
 62
     7
 10
159.5
 20
6.599990844726563
 11
162
 21
6.599990844726563
  0
LINE
  8
0
  6
CONTINUOUS
 62
     7
 10
161.0000610351563
 20
14.49983024597168
 11
159.5000610351563
 21
13.19983291625977
  0
LINE
  8
0
  6
CONTINUOUS
 62
     7
 10
198
 20
6.699996948242188
 11
198
 21
22.80000305175781
  0
LINE
  8
0
  6
CONTINUOUS
 62
     7
 10
198
 20
6.599990844726563
 11
198
 21
23.09999084472656
  0
LINE
  8
0
  6
CONTINUOUS
 62
     7
 10
199
 20
6.599990844726563
 11
199
 21
23.09999084472656
  0
LINE
  8
0
  6
CONTINUOUS
 62
     7
 10
200.5
 20
6.599990844726563
 11
200.5
 21
13.19999694824219
  0
LINE
  8
0
  6
CONTINUOUS
 62
     7
 10
198
 20
23.09999084472656
 11
199
 21
23.09999084472656
  0
LINE
  8
0
  6
CONTINUOUS
 62
     7
 10
198
 20
6.599990844726563
 11
200.5
 21
6.599990844726563
  0
LINE
  8
0
  6
CONTINUOUS
 62
     7
 10
200.5002899169922
 20
13.19967555999756
 11
199.0003509521484
 21
14.49962329864502
  0
LINE
  8
0
  6
CENTER
 62
     7
 10
180
 20
24.99998474121094
 11
180
 21
12.85364532470703
  0
LINE
  8
0
  6
DASHED
 62
     7
 10
178.2999725341797
 20
23.99998474121094
 11
178.2999725341797
 21
15
  0
LINE
  8
0
  6
DASHED
 62
     7
 10
181.7000274658203
 20
23.99998474121094
 11
181.7000274658203
 21
15
  0
LINE
  8
0
  6
DASHED
 62
     7
 10
178
 20
16.99998474121094
 11
182
 21
16.99998474121094
  0
LINE
  8
0
  6
DASHED
 62
     7
 10
178.2999572753906
 20
14.99998474121094
 11
181.7000274658203
 21
14.99998474121094
  0
LINE
  8
0
  6
DASHED
 62
     7
 10
178
 20
23.99998474121094
 11
178
 21
17
  0
LINE
  8
0
  6
DASHED
 62
     7
 10
182
 20
23.99998474121094
 11
182
 21
17
  0
LINE
  8
0
  6
DASHED
 62
     7
 10
178.0002746582031
 20
16.99950408935547
 11
178.3002471923828
 21
16.47994995117188
  0
LINE
  8
0
  6
DASHED
 62
     7
 10
182.0003051757813
 20
16.99970817565918
 11
181.7003021240234
 21
16.48008728027344
  0
LINE
  8
0
  6
DASHED
 62
     7
 10
178.3002471923828
 20
14.99974155426025
 11
180.0001525878906
 21
14.01829528808594
  0
LINE
  8
0
  6
DASHED
 62
     7
 10
181.7000579833984
 20
14.99965763092041
 11
180.0000610351563
 21
14.01816654205322
  0
LINE
  8
0
  6
CONTINUOUS
 62
     7
 10
70
 20
12.5
 11
159.5
 21
12.5
  0
LINE
  8
0
  6
CONTINUOUS
 62
     7
 10
70
 20
0
 11
290
 21
0
  0
LINE
  8
0
  6
CONTINUOUS
 62
     7
 10
17
 20
22.8991641998291
 11
17
 21
18.30162048339844
  0
LINE
  8
0
  6
CONTINUOUS
 62
     7
 10
8.5
 20
6.5
 11
15.70001220703125
 21
6.5
  0
LINE
  8
0
  6
CONTINUOUS
 62
     7
 10
-5
 20
23.49997711181641
 11
5
 21
23.49997711181641
  0
LINE
  8
0
  6
CONTINUOUS
 62
     7
 10
16.70001220703125
 20
17.99997711181641
 11
16.70001220703125
 21
7.5
  0
LINE
  8
0
  6
CONTINUOUS
 62
     7
 10
5.5
 20
23.99997711181641
 11
15.90005493164063
 21
23.99997711181641
  0
LINE
  8
0
  6
CONTINUOUS
 62
     7
 10
5.500655174255371
 20
23.99874114990234
 11
5.00070858001709
 21
23.49879455566406
  0
LINE
  8
0
  6
CONTINUOUS
 62
     7
 10
15.90028476715088
 20
23.99889755249023
 11
17
 21
22.8991641998291
  0
LINE
  8
0
  6
CONTINUOUS
 62
     7
 10
16.70013236999512
 20
18.00009727478027
 11
16.99999618530273
 21
18.29996109008789
  0
LINE
  8
0
  6
CONTINUOUS
 62
     7
 10
16.70001220703125
 20
7.498390674591065
 11
15.70011901855469
 21
6.498497486114502
  0
LINE
  8
0
  6
CONTINUOUS
 62
     7
 10
-7.04998779296875
 20
12.49997711181641
 11
-6.666015625
 21
12.49997711181641
  0
LINE
  8
0
  6
CONTINUOUS
 62
     7
 10
-7.5
 20
12.05003356933594
 11
-7.5
 21
10.86176300048828
  0
LINE
  8
0
  6
CONTINUOUS
 62
     7
 10
7.5
 20
12.05003356933594
 11
7.5
 21
10.86167812347412
  0
LINE
  8
0
  6
CONTINUOUS
 62
     7
 10
5.159935474395752
 20
6.924881458282471
 11
6.65712833404541
 21
9.518095016479492
  0
LINE
  8
0
  6
CONTINUOUS
 62
     7
 10
-5.160163402557373
 20
6.925712585449219
 11
-6.657477378845215
 21
9.519138336181641
  0
LINE
  8
0
  6
CONTINUOUS
 62
     7
 10
5.4167160987854
 20
5.969392776489258
 11
7.500563621520996
 21
4.76628303527832
  0
LINE
  8
0
  6
CONTINUOUS
 62
     7
 10
-5.416408538818359
 20
5.969395160675049
 11
-7.500282287597656
 21
4.766270637512207
  0
LINE
  8
0
  6
CONTINUOUS
 62
     7
 10
7.049790382385254
 20
12.4992561340332
 11
7.499888420104981
 21
12.04915714263916
  0
LINE
  8
0
  6
CONTINUOUS
 62
     7
 10
7.500235080718994
 20
0.8482919335365295
 11
6.650187492370606
 21
-0.001755388802848756
  0
LINE
  8
0
  6
CONTINUOUS
 62
     7
 10
-6.649887084960938
 20
-0.001593601889908314
 11
-7.49989128112793
 21
0.8484106063842773
  0
LINE
  8
0
  6
CONTINUOUS
 62
     7
 10
6.666168212890625
 20
12.49997711181641
 11
7.05010986328125
 21
12.49997711181641
  0
LINE
  8
0
  6
CONTINUOUS
 62
     7
 10
7.5
 20
4.766845703125
 11
7.5
 21
0.85009765625
  0
LINE
  8
0
  6
CONTINUOUS
 62
     7
 10
200.5
 20
12.5
 11
290
 21
12.5
  0
LINE
  8
0
  6
CONTINUOUS
 62
     7
 10
159
 20
20.99998474121094
 11
159.5
 21
20.99998474121094
  0
LINE
  8
0
  6
CONTINUOUS
 62
     7
 10
159
 20
14.99998474121094
 11
159.5
 21
14.99998474121094
  0
LINE
  8
0
  6
CENTER
 62
     7
 10
154.5
 20
17.99998474121094
 11
161.84814453125
 21
17.99998474121094
  0
LINE
  8
0
  6
CONTINUOUS
 62
     7
 10
159.5
 20
21.74998474121094
 11
161
 21
21.74998474121094
  0
LINE
  8
0
  6
CONTINUOUS
 62
     7
 10
159.5
 20
14.24998474121094
 11
160.71142578125
 21
14.24998474121094
  0
LINE
  8
0
  6
CONTINUOUS
 62
     7
 10
159.5
 20
21.75
 11
159.5
 21
14.25
  0
LINE
  8
0
  6
CONTINUOUS
 62
     7
 10
162
 20
6.499832153320313
 11
162
 21
4.500184059143066
  0
LINE
  8
0
  6
CONTINUOUS
 62
     7
 10
198
 20
6.699996948242188
 11
198
 21
4.500184059143066
  0
LINE
  8
0
  6
CONTINUOUS
 62
     7
 10
162
 20
6.499832153320313
 11
198
 21
6.499832153320313
  0
LINE
  8
0
  6
CONTINUOUS
 62
     7
 10
-7.6611328125
 20
14.49997711181641
 11
-6.36444091796875
 21
14.49997711181641
  0
LINE
  8
0
  6
CONTINUOUS
 62
     7
 10
-16.49978828430176
 20
7.69831657409668
 11
-15.49989414215088
 21
6.698423385620117
  0
LINE
  8
0
  6
CONTINUOUS
 62
     7
 10
-15.49984741210938
 20
6.699951171875
 11
-14.84994506835938
 21
6.699951171875
  0
LINE
  8
0
  6
CONTINUOUS
 62
     7
 10
-16.49981689453125
 20
7.699935913085938
 11
-16.49981689453125
 21
21.59915542602539
  0
LINE
  8
0
  6
CENTER
 62
     7
 10
-12.99981689453125
 20
13.01754379272461
 11
-12.99981689453125
 21
24.99997711181641
  0
LINE
  8
0
  6
DASHED
 62
     7
 10
-14.69989013671875
 20
14.99997711181641
 11
-11.29998779296875
 21
14.99997711181641
  0
LINE
  8
0
  6
DASHED
 62
     7
 10
-14.99984741210938
 20
16.99997711181641
 11
-10.99984741210938
 21
16.99997711181641
  0
LINE
  8
0
  6
DASHED
 62
     7
 10
-14.69989013671875
 20
14.99998474121094
 11
-14.69989013671875
 21
23.99997711181641
  0
LINE
  8
0
  6
DASHED
 62
     7
 10
-11.29998779296875
 20
14.99998474121094
 11
-11.29998779296875
 21
23.99997711181641
  0
LINE
  8
0
  6
CONTINUOUS
 62
     7
 10
-9.420237541198731
 20
6.499447345733643
 11
-9.247075080871582
 21
6.599422931671143
  0
LINE
  8
0
  6
DASHED
 62
     7
 10
-3
 20
12.49998474121094
 11
-3
 21
7.999984741210938
  0
LINE
  8
0
  6
DASHED
 62
     7
 10
1.75
 20
7.999977111816406
 11
1.75
 21
0.148743748664856
  0
LINE
  8
0
  6
DASHED
 62
     7
 10
3
 20
12.49998474121094
 11
3
 21
7.999984741210938
  0
LINE
  8
0
  6
CONTINUOUS
 62
     7
 10
-5.13543701171875
 20
14.49997711181641
 11
-1.34619140625
 21
14.49997711181641
  0
LINE
  8
0
  6
CONTINUOUS
 62
     7
 10
-14.74984741210938
 20
6.60009765625
 11
-5.999847412109375
 21
6.60009765625
  0
LINE
  8
0
  6
CONTINUOUS
 62
     7
 10
-14.74980163574219
 20
6.59846830368042
 11
-16.24985694885254
 21
8.09852409362793
  0
LINE
  8
0
  6
CONTINUOUS
 62
     7
 10
191.4499359130859
 20
23.09999084472656
 11
197.6999969482422
 21
23.09999084472656
  0
LINE
  8
0
  6
DASHED
 62
     7
 10
-3
 20
7.999977111816406
 11
3
 21
7.999977111816406
  0
LINE
  8
0
  6
CONTINUOUS
 62
     7
 10
-1.5
 20
0.400146484375
 11
1.5
 21
0.400146484375
  0
LINE
  8
0
  6
CONTINUOUS
 62
     7
 10
1.500102400779724
 20
0.3986413776874542
 11
1.900158882141113
 21
-0.001415190054103732
  0
LINE
  8
0
  6
CONTINUOUS
 62
     7
 10
-1.499966382980347
 20
0.3984630405902863
 11
-1.89995813369751
 21
-0.001528817927464843
  0
LINE
  8
0
  6
CONTINUOUS
 62
     7
 10
-6.651481151580811
 20
0
 11
-1.89990234375
 21
0
  0
LINE
  8
0
  6
CONTINUOUS
 62
     7
 10
14.74983406066895
 20
23.09918022155762
 11
16.24986076354981
 21
21.5991382598877
  0
LINE
  8
0
  6
CONTINUOUS
 62
     7
 10
16.25
 20
21.60008239746094
 11
16.25
 21
8.100082397460938
  0
LINE
  8
0
  6
CONTINUOUS
 62
     7
 10
-14.99890041351318
 20
23.10007476806641
 11
15
 21
23.10007476806641
  0
LINE
  8
0
  6
CONTINUOUS
 62
     7
 10
1.900054931640625
 20
0
 11
6.650054931640625
 21
0
  0
LINE
  8
0
  6
CONTINUOUS
 62
     7
 10
5.66181755065918
 20
6.793839454650879
 11
6.00010871887207
 21
6.598526954650879
  0
LINE
  8
0
  6
CONTINUOUS
 62
     7
 10
6
 20
6.60009765625
 11
14.75
 21
6.60009765625
  0
LINE
  8
0
  6
CONTINUOUS
 62
     7
 10
1.346343994140625
 20
14.49997711181641
 11
5.13555908203125
 21
14.49997711181641
  0
LINE
  8
0
  6
CONTINUOUS
 62
     7
 10
16.25005912780762
 20
8.098503112792969
 11
14.75004577636719
 21
6.598490238189697
  0
LINE
  8
0
  6
CONTINUOUS
 62
     7
 10
8.312381744384766
 20
7.80375862121582
 11
10.40006160736084
 21
6.59843635559082
  0
LINE
  8
0
  6
CONTINUOUS
 62
     7
 10
6.36456298828125
 20
14.49997711181641
 11
7.661285400390625
 21
14.49997711181641
  0
LINE
  8
0
  6
CONTINUOUS
 62
     7
 10
9.299722671508789
 20
12.86057567596436
 11
7.661173820495606
 21
14.49912834167481
  0
LINE
  8
0
  6
CONTINUOUS
 62
     7
 10
9.30010986328125
 20
10.51585388183594
 11
9.30010986328125
 21
12.86131286621094
  0
LINE
  8
0
  6
CONTINUOUS
 62
     7
 10
8.128938674926758
 20
8.48695182800293
 11
9.299592971801758
 21
10.5145845413208
  0
LINE
  8
0
  6
CONTINUOUS
 62
     7
 10
14.85009765625
 20
6.699951171875
 11
15.5
 21
6.699951171875
  0
LINE
  8
0
  6
CONTINUOUS
 62
     7
 10
16.5
 20
21.60008239746094
 11
16.5
 21
7.699935913085938
  0
LINE
  8
0
  6
CONTINUOUS
 62
     7
 10
15.50014877319336
 20
6.698412418365479
 11
16.50004386901856
 21
7.698306083679199
  0
LINE
  8
0
  6
CENTER
 62
     7
 10
13
 20
24.99997711181641
 11
13
 21
13.01754379272461
  0
LINE
  8
0
  6
CONTINUOUS
 62
     7
 10
9.247248649597168
 20
6.599465847015381
 11
9.420331954956055
 21
6.499536037445068
  0
LINE
  8
0
  6
CONTINUOUS
 62
     7
 10
14.99993705749512
 20
23.09903907775879
 11
16.49983978271484
 21
21.5991325378418
  0
LINE
  8
0
  6
CONTINUOUS
 62
     7
 10
8.5
 20
6.60009765625
 11
8.5
 21
6.5
  0
LINE
  8
0
  6
CONTINUOUS
 62
     7
 10
7.90008544921875
 20
6.60009765625
 11
7.90008544921875
 21
6.5
  0
LINE
  8
0
  6
CONTINUOUS
 62
     7
 10
-15.69989013671875
 20
6.5
 11
-8.499847412109375
 21
6.5
  0
LINE
  8
0
  6
CONTINUOUS
 62
     7
 10
-16.99981689453125
 20
18.30151176452637
 11
-16.99981689453125
 21
22.89892387390137
  0
LINE
  8
0
  6
CONTINUOUS
 62
     7
 10
-7.049345016479492
 20
12.49986839294434
 11
-7.499875068664551
 21
12.04933834075928
  0
LINE
  8
0
  6
CONTINUOUS
 62
     7
 10
-5.000269412994385
 20
23.49900627136231
 11
-5.500216007232666
 21
23.99895286560059
  0
LINE
  8
0
  6
CONTINUOUS
 62
     7
 10
-16.24981689453125
 20
8.100082397460938
 11
-16.24981689453125
 21
21.59918212890625
  0
LINE
  8
0
  6
CONTINUOUS
 62
     7
 10
-15.69983196258545
 20
6.49854850769043
 11
-16.69970321655273
 21
7.498420715332031
  0
LINE
  8
0
  6
CONTINUOUS
 62
     7
 10
-16.99981689453125
 20
18.29990386962891
 11
-16.69989013671875
 21
17.99997711181641
  0
LINE
  8
0
  6
CONTINUOUS
 62
     7
 10
-16.99981689453125
 20
22.89892387390137
 11
-15.89994335174561
 21
23.99881553649902
  0
LINE
  8
0
  6
CONTINUOUS
 62
     7
 10
-15.89878273010254
 20
23.99997711181641
 11
-5.499847412109375
 21
23.99997711181641
  0
LINE
  8
0
  6
DASHED
 62
     7
 10
-1.75
 20
7.999977111816406
 11
-1.75
 21
0.1484292596578598
  0
LINE
  8
0
  6
CONTINUOUS
 62
     7
 10
161
 20
23.09999084472656
 11
161
 21
6.599990844726563
  0
LINE
  8
0
  6
CONTINUOUS
 62
     7
 10
-7.5
 20
4.766845703125
 11
-7.5
 21
0.85009765625
  0
LINE
  8
0
  6
CONTINUOUS
 62
     7
 10
-4.84375
 20
12.49997711181641
 11
4.843902587890625
 21
12.49997711181641
  0
LINE
  8
0
  6
CONTINUOUS
 62
     7
 10
-14.99993705749512
 20
23.09903907775879
 11
-16.49983978271484
 21
21.5991325378418
  0
LINE
  8
0
  6
CONTINUOUS
 62
     7
 10
-14.74983406066895
 20
23.09918022155762
 11
-16.24986076354981
 21
21.5991382598877
  0
LINE
  8
0
  6
CENTER
 62
     7
 10
90
 20
13.5
 11
90
 21
-1
  0
LINE
  8
0
  6
CONTINUOUS
 62
     7
 10
70
 20
12.5
 11
70
 21
0
  0
LINE
  8
0
  6
CONTINUOUS
 62
     7
 10
290
 20
12.5
 11
290
 21
0
  0
LINE
  8
0
  6
CONTINUOUS
 62
     7
 10
70
 20
10.86167812347412
 11
159.5
 21
10.86167812347412
  0
LINE
  8
0
  6
CONTINUOUS
 62
     7
 10
70
 20
9.518491744995117
 11
159.5
 21
9.518491744995117
  0
LINE
  8
0
  6
CONTINUOUS
 62
     7
 10
70
 20
4.766608238220215
 11
162
 21
4.766608238220215
  0
LINE
  8
0
  6
DASHED
 62
     7
 10
88.25
 20
8
 11
88.25
 21
0
  0
LINE
  8
0
  6
DASHED
 62
     7
 10
87
 20
8
 11
93
 21
8
  0
LINE
  8
0
  6
DASHED
 62
     7
 10
93
 20
12.50000762939453
 11
93
 21
8.000007629394531
  0
LINE
  8
0
  6
DASHED
 62
     7
 10
91.75
 20
8
 11
91.75
 21
0
  0
LINE
  8
0
  6
DASHED
 62
     7
 10
87
 20
12.50000762939453
 11
87
 21
8.000007629394531
  0
LINE
  8
0
  6
CENTER
 62
     7
 10
150
 20
13.5
 11
150
 21
-1
  0
LINE
  8
0
  6
CENTER
 62
     7
 10
210
 20
13.5
 11
210
 21
-1
  0
LINE
  8
0
  6
CENTER
 62
     7
 10
270
 20
13.5
 11
270
 21
-1
  0
LINE
  8
0
  6
CONTINUOUS
 62
     7
 10
290
 20
9.518491744995117
 11
200.5
 21
9.518491744995117
  0
LINE
  8
0
  6
CONTINUOUS
 62
     7
 10
290
 20
10.86167812347412
 11
200.5
 21
10.86167812347412
  0
LINE
  8
0
  6
CONTINUOUS
 62
     7
 10
168.5500640869141
 20
117.9999847412109
 11
168.5500640869141
 21
83.99998474121094
  0
LINE
  8
0
  6
CONTINUOUS
 62
     7
 10
162
 20
117.4999847412109
 11
162
 21
84.49998474121094
  0
LINE
  8
0
  6
CONTINUOUS
 62
     7
 10
161
 20
117.2499847412109
 11
161
 21
84.74998474121094
  0
LINE
  8
0
  6
CONTINUOUS
 62
     7
 10
159.5
 20
109.1999816894531
 11
159.5
 21
92.79998779296875
  0
LINE
  8
0
  6
CONTINUOUS
 62
     7
 10
168.5500640869141
 20
117.9999847412109
 11
191.4499359130859
 21
117.9999847412109
  0
LINE
  8
0
  6
CONTINUOUS
 62
     7
 10
162
 20
84.49998474121094
 11
168.5500640869141
 21
84.49998474121094
  0
LINE
  8
0
  6
CONTINUOUS
 62
     7
 10
161
 20
84.74998474121094
 11
162
 21
84.74998474121094
  0
LINE
  8
0
  6
CONTINUOUS
 62
     7
 10
70
 20
93.49998474121094
 11
159.5
 21
93.49998474121094
  0
LINE
  8
0
  6
CONTINUOUS
 62
     7
 10
159.5
 20
92.79998016357422
 11
161
 21
91.29998779296875
  0
LINE
  8
0
  6
CONTINUOUS
 62
     7
 10
162
 20
117.4999847412109
 11
168.5500640869141
 21
117.4999847412109
  0
LINE
  8
0
  6
CONTINUOUS
 62
     7
 10
161
 20
117.2499847412109
 11
162
 21
117.2499847412109
  0
LINE
  8
0
  6
CONTINUOUS
 62
     7
 10
159.5
 20
109.1999893188477
 11
161
 21
110.6999893188477
  0
LINE
  8
0
  6
CONTINUOUS
 62
     7
 10
70
 20
108.4999847412109
 11
159.5
 21
108.4999847412109
  0
LINE
  8
0
  6
CONTINUOUS
 62
     7
 10
70
 20
108.4999847412109
 11
70
 21
93.49998474121094
  0
LINE
  8
0
  6
CENTER
 62
     7
 10
90
 20
104.9999847412109
 11
90
 21
96.99998474121094
  0
LINE
  8
0
  6
CONTINUOUS
 62
     7
 10
70
 20
96.15611267089844
 11
159.5
 21
96.15611267089844
  0
LINE
  8
0
  6
CONTINUOUS
 62
     7
 10
70
 20
94.33372497558594
 11
159.5
 21
94.33372497558594
  0
LINE
  8
0
  6
CONTINUOUS
 62
     7
 10
159
 20
103.9999847412109
 11
159.5
 21
103.9999847412109
  0
LINE
  8
0
  6
CONTINUOUS
 62
     7
 10
159
 20
97.99998474121094
 11
159.5
 21
97.99998474121094
  0
LINE
  8
0
  6
CONTINUOUS
 62
     7
 10
159.5
 20
104.7499847412109
 11
161
 21
104.7499847412109
  0
LINE
  8
0
  6
CONTINUOUS
 62
     7
 10
159.5
 20
97.24998474121094
 11
161
 21
97.24998474121094
  0
LINE
  8
0
  6
CENTER
 62
     7
 10
180
 20
90.99998474121094
 11
180
 21
84.99998474121094
  0
LINE
  8
0
  6
CENTER
 62
     7
 10
177
 20
87.99998474121094
 11
183
 21
87.99998474121094
  0
LINE
  8
0
  6
CENTER
 62
     7
 10
180
 20
110.9999847412109
 11
180
 21
116.9999847412109
  0
LINE
  8
0
  6
CENTER
 62
     7
 10
177
 20
113.9999847412109
 11
183
 21
113.9999847412109
  0
LINE
  8
0
  6
CONTINUOUS
 62
     7
 10
70
 20
105.8438568115234
 11
159.5
 21
105.8438568115234
  0
LINE
  8
0
  6
CONTINUOUS
 62
     7
 10
70
 20
107.6662445068359
 11
159.5
 21
107.6662445068359
  0
LINE
  8
0
  6
CENTER
 62
     7
 10
150
 20
104.9999847412109
 11
150
 21
96.99998474121094
  0
LINE
  8
0
  6
CONTINUOUS
 62
     7
 10
191.4499359130859
 20
83.99998474121094
 11
168.5500640869141
 21
83.99998474121094
  0
LINE
  8
0
  6
CENTER
 62
     7
 10
291
 20
100.9999847412109
 11
69
 21
100.9999847412109
  0
LINE
  8
0
  6
CONTINUOUS
 62
     7
 10
200.5
 20
109.1999816894531
 11
200.5
 21
92.79998779296875
  0
LINE
  8
0
  6
CONTINUOUS
 62
     7
 10
199
 20
117.2499847412109
 11
199
 21
84.74998474121094
  0
LINE
  8
0
  6
CONTINUOUS
 62
     7
 10
198
 20
117.4999847412109
 11
198
 21
84.49998474121094
  0
LINE
  8
0
  6
CONTINUOUS
 62
     7
 10
191.4499359130859
 20
117.9999847412109
 11
191.4499359130859
 21
83.99998474121094
  0
LINE
  8
0
  6
CONTINUOUS
 62
     7
 10
198
 20
117.4999847412109
 11
191.4499359130859
 21
117.4999847412109
  0
LINE
  8
0
  6
CONTINUOUS
 62
     7
 10
290
 20
108.4999847412109
 11
290
 21
93.49998474121094
  0
LINE
  8
0
  6
CONTINUOUS
 62
     7
 10
290
 20
93.49998474121094
 11
200.5
 21
93.49998474121094
  0
LINE
  8
0
  6
CONTINUOUS
 62
     7
 10
198
 20
84.49998474121094
 11
191.4499359130859
 21
84.49998474121094
  0
LINE
  8
0
  6
CONTINUOUS
 62
     7
 10
290
 20
96.15611267089844
 11
200.5
 21
96.15611267089844
  0
LINE
  8
0
  6
CONTINUOUS
 62
     7
 10
199
 20
84.74998474121094
 11
198
 21
84.74998474121094
  0
LINE
  8
0
  6
CONTINUOUS
 62
     7
 10
199
 20
117.2499847412109
 11
198
 21
117.2499847412109
  0
LINE
  8
0
  6
CONTINUOUS
 62
     7
 10
200.5
 20
92.79998779296875
 11
199
 21
91.29998779296875
  0
LINE
  8
0
  6
CONTINUOUS
 62
     7
 10
200.5
 20
109.1999816894531
 11
199
 21
110.6999816894531
  0
LINE
  8
0
  6
CONTINUOUS
 62
     7
 10
290
 20
108.4999847412109
 11
200.5
 21
108.4999847412109
  0
LINE
  8
0
  6
CONTINUOUS
 62
     7
 10
191.4499359130859
 20
95.49809265136719
 11
168.5500640869141
 21
95.49809265136719
  0
LINE
  8
0
  6
CENTER
 62
     7
 10
270
 20
104.9999847412109
 11
270
 21
96.99998474121094
  0
LINE
  8
0
  6
CONTINUOUS
 62
     7
 10
290
 20
94.33372497558594
 11
200.5
 21
94.33372497558594
  0
LINE
  8
0
  6
CONTINUOUS
 62
     7
 10
191.4499359130859
 20
106.5018768310547
 11
168.5500640869141
 21
106.5018768310547
  0
LINE
  8
0
  6
CONTINUOUS
 62
     7
 10
290
 20
105.8438568115234
 11
200.5
 21
105.8438568115234
  0
LINE
  8
0
  6
CONTINUOUS
 62
     7
 10
290
 20
107.6662445068359
 11
200.5
 21
107.6662445068359
  0
LINE
  8
0
  6
CENTER
 62
     7
 10
210
 20
104.9999847412109
 11
210
 21
96.99998474121094
  0
LINE
  8
0
  6
CONTINUOUS
 62
     7
 10
9.930665969848633
 20
5.500243663787842
 11
9.930665969848633
 21
4.500184059143066
  0
LINE
  8
0
  6
CONTINUOUS
 62
     7
 10
8
 20
4.499977111816406
 11
6.78728199005127
 21
6.60009765625
  0
LINE
  8
0
  6
CONTINUOUS
 62
     7
 10
9.930696487426758
 20
4.500184059143066
 11
8.000368118286133
 21
4.500184059143066
  0
LINE
  8
0
  6
CONTINUOUS
 62
     7
 10
14.61993408203125
 20
6.5
 11
14.61993408203125
 21
5.500243663787842
  0
LINE
  8
0
  6
CONTINUOUS
 62
     7
 10
14.61993408203125
 20
5.500243663787842
 11
8.899868011474609
 21
5.500243663787842
  0
LINE
  8
0
  6
CONTINUOUS
 62
     7
 10
162
 20
5.500243663787842
 11
198
 21
5.500243663787842
  0
LINE
  8
0
  6
CONTINUOUS
 62
     7
 10
162
 20
4.500184059143066
 11
198
 21
4.500184059143066
  0
LINE
  8
0
  6
CONTINUOUS
 62
     7
 10
198
 20
4.766608238220215
 11
290
 21
4.766608238220215
  0
ARC
  8
0
  6
CONTINUOUS
 62
     7
 10
-8.10693359375
 20
9.544898986816406
 40
1.449999570846558
 50
1.798608904022511E-005
 51
65.25534729254585
  0
ARC
  8
0
  6
CONTINUOUS
 62
     7
 10
5.75506591796875
 20
13.62790679931641
 40
1.449999570846558
 50
231.0715460568984
 51
308.9284386888615
  0
ARC
  8
0
  6
CONTINUOUS
 62
     7
 10
8.10711669921875
 20
9.544898986816406
 40
1.449999570846557
 50
114.7526285471719
 51
181.0080453078018
  0
ARC
  8
0
  6
CONTINUOUS
 62
     7
 10
-8.10693359375
 20
9.544898986816406
 40
1.449999570846558
 50
358.9918822211961
 51
1.798608904022511E-005
  0
ARC
  8
0
  6
CONTINUOUS
 62
     7
 10
-5.7548828125
 20
13.62790679931641
 40
1.449999570846558
 50
231.0715460568984
 51
308.9284386888615
  0
ARC
  8
0
  6
CONTINUOUS
 62
     7
 10
5.76629638671875
 20
6.576171875
 40
0.6999995112419132
 50
149.9999700231845
 51
239.9998973955817
  0
ARC
  8
0
  6
CONTINUOUS
 62
     7
 10
159
 20
17.99998474121094
 40
2.999999999999999
 50
89.99998201391043
 51
269.9999460417319
  0
ARC
  8
0
  6
CONTINUOUS
 62
     7
 10
5.75
 20
14.92990875244141
 40
0.7499994039535524
 50
214.9829535046634
 51
325.0170312410966
  0
ARC
  8
0
  6
CONTINUOUS
 62
     7
 10
-5.76611328125
 20
6.576171875
 40
0.699999511241913
 50
300.0000666322396
 51
30.00001108010978
  0
ARC
  8
0
  6
CONTINUOUS
 62
     7
 10
8.5625
 20
8.238258361816406
 40
0.4999999999999997
 50
149.9999700231845
 51
239.9998973955818
  0
CIRCLE
  8
0
  6
CONTINUOUS
 62
     7
 10
0
 20
18
 40
3.75
  0
ARC
  8
0
  6
CONTINUOUS
 62
     7
 10
-8.899816513061523
 20
6.499999523162842
 40
0.9999998211860662
 50
270.0000726276027
 51
3.597217804432112E-005
  0
ARC
  8
0
  6
CONTINUOUS
 62
     7
 10
-8.56231689453125
 20
8.238258361816406
 40
0.4999999999999996
 50
300.0001212737529
 51
30.00002815558259
  0
ARC
  8
0
  6
CONTINUOUS
 62
     7
 10
5.91180419921875
 20
7.228271484375
 40
0.4999999999999997
 50
149.9999700231845
 51
239.9998973955817
  0
CIRCLE
  8
0
  6
CONTINUOUS
 62
     7
 10
0
 20
18
 40
3
  0
ARC
  8
0
  6
CONTINUOUS
 62
     7
 10
-5.75
 20
14.92990875244141
 40
0.7499994039535521
 50
214.9830081461766
 51
325.0170483165694
  0
ARC
  8
0
  6
CONTINUOUS
 62
     7
 10
-5.91162109375
 20
7.228271484375
 40
0.4999999999999996
 50
300.0001212737529
 51
30.00002815558273
  0
CIRCLE
  8
0
  6
CONTINUOUS
 62
     7
 10
90
 20
100.9999847412109
 40
1.75
  0
CIRCLE
  8
0
  6
CONTINUOUS
 62
     7
 10
90
 20
100.9999847412109
 40
3
  0
ARC
  8
0
  6
CONTINUOUS
 62
     7
 10
159
 20
100.9999847412109
 40
3.000000000000006
 50
89.99998201391043
 51
269.9999460417319
  0
CIRCLE
  8
0
  6
CONTINUOUS
 62
     7
 10
180
 20
87.99998474121094
 40
2
  0
CIRCLE
  8
0
  6
CONTINUOUS
 62
     7
 10
180
 20
87.99998474121094
 40
1.700000047683716
  0
ARC
  8
0
  6
CONTINUOUS
 62
     7
 10
8.899816513061523
 20
6.499999523162842
 40
0.9999998211860656
 50
179.9999640278213
 51
269.9999187209753
  0
TEXT
  8
0
  6
CONTINUOUS
 62
     7
 10
-1.285500049591065
 20
-11.79999995231628
 40
3.599999904632568
 41
1.008382419577613
  1
SR15VM
  0
ENDSEC
  0
EOF
