  0
SECTION
  2
HEADER
  0
ENDSEC
  0
SECTION
  2
TABLES
  0
TABLE
  2
LTYPE
 70
    22
  0
LTYPE
  2
CONTINUOUS
 70
    64
  3
Solid line
 72
    65
 73
     0
 40
0.000000
  0
LTYPE
  2
DASHED
 70
    64
  3
__ __ __ __ __ __ __ __ __ __ __ __ __ __ __
 72
    65
 73
     2
 40
3.500000
 49
2.000000
 49
-1.500000
  0
LTYPE
  2
CENTER
 70
    64
  3
____ _ ____ _ ____ _ ____ _ ____ _ ____ _ ____
 72
    65
 73
     4
 40
17.500000
 49
13.000000
 49
-1.500000
 49
1.500000
 49
-1.500000
  0
LTYPE
  2
PHANTOM
 70
    64
  3
_____ _ _ _____ _ _ _____ _ _ _____ _ _ ____  
 72
    65
 73
     6
 40
15.500000
 49
8.000000
 49
-1.500000
 49
1.500000
 49
-1.500000
 49
1.500000
 49
-1.500000
  0
LTYPE
  2
DOT
 70
    64
  3
. . . . . . . . . . . . . . . . . . . . . . . .
 72
    65
 73
     2
 40
0.25
 49
0.0
 49
-0.25
  0
ENDTAB
  0
TABLE
  2
LAYER
 70
     1
  0
LAYER
  2
0
 70
     0
 62
     7
  6
CONTINUOUS
  0
ENDTAB
  0
TABLE
  2
STYLE
 70
     1
  0
STYLE
  2
STANDARD
 70
     0
 40
0.000000
 41
1.000000
 50
0.000000
 71
     0
 42
0.200000
  3
txt
  0
ENDTAB
  0
TABLE
  2
VIEW
 70
     0
  0
ENDTAB
  0
ENDSEC
  0
SECTION
  2
BLOCKS
  0
ENDSEC
  0
SECTION
  2
ENTITIES
  0
LINE
  8
0
  6
CONTINUOUS
 62
     7
 10
8.820068359375
 20
0
 11
3.10009765625
 21
0
  0
LINE
  8
0
  6
CONTINUOUS
 62
     7
 10
-10
 20
14.53999328613281
 11
-10
 21
13.37950134277344
  0
LINE
  8
0
  6
CONTINUOUS
 62
     7
 10
10
 20
14.53999328613281
 11
10
 21
12.99019622802734
  0
LINE
  8
0
  6
CONTINUOUS
 62
     7
 10
-9.039794921875
 20
15.5
 11
-8.797119140625
 21
15.5
  0
LINE
  8
0
  6
CONTINUOUS
 62
     7
 10
-6.839708805084229
 20
7.90634298324585
 11
-9.017693519592285
 21
11.67872619628906
  0
LINE
  8
0
  6
CONTINUOUS
 62
     7
 10
-7.096071243286133
 20
6.949710369110107
 11
-9.999852180480957
 21
5.273212909698486
  0
LINE
  8
0
  6
CONTINUOUS
 62
     7
 10
6.84079647064209
 20
7.905784606933594
 11
9.018782615661621
 21
11.67816734313965
  0
LINE
  8
0
  6
CONTINUOUS
 62
     7
 10
7.096458435058594
 20
6.949949264526367
 11
10.00026607513428
 21
5.273435592651367
  0
LINE
  8
0
  6
CONTINUOUS
 62
     7
 10
-9.039872169494629
 20
15.49982929229736
 11
-9.999866485595703
 21
14.53983688354492
  0
LINE
  8
0
  6
CONTINUOUS
 62
     7
 10
9.040242195129395
 20
15.49987316131592
 11
10.00025749206543
 21
14.53985786437988
  0
LINE
  8
0
  6
CONTINUOUS
 62
     7
 10
-8.819723129272461
 20
-0.0001255589013453573
 11
-9.999844551086426
 21
1.179997324943543
  0
LINE
  8
0
  6
CONTINUOUS
 62
     7
 10
8.820536613464356
 20
-0.0005639291484840214
 11
10.0005407333374
 21
1.179439663887024
  0
LINE
  8
0
  6
CONTINUOUS
 62
     7
 10
-10
 20
14.53999328613281
 11
-10
 21
13.37950134277344
  0
LINE
  8
0
  6
CONTINUOUS
 62
     7
 10
-2.5
 20
0.5999908447265625
 11
2.5
 21
0.5999908447265625
  0
LINE
  8
0
  6
CONTINUOUS
 62
     7
 10
-3.099487543106079
 20
-0.0005235609714873135
 11
-2.499488830566406
 21
0.5994748473167419
  0
LINE
  8
0
  6
CONTINUOUS
 62
     7
 10
2.500386953353882
 20
0.6001423001289368
 11
3.100417852401733
 21
0.0001111959063564427
  0
LINE
  8
0
  6
CONTINUOUS
 62
     7
 10
-9.660988807678223
 20
12.79294681549072
 11
-9.999702453613281
 21
13.37961673736572
  0
LINE
  8
0
  6
CONTINUOUS
 62
     7
 10
-6.502685546875
 20
15.5
 11
6.5029296875
 21
15.5
  0
LINE
  8
0
  6
CONTINUOUS
 62
     7
 10
8.79736328125
 20
15.5
 11
9.0400390625
 21
15.5
  0
LINE
  8
0
  6
CONTINUOUS
 62
     7
 10
-10
 20
14.53999328613281
 11
-10
 21
13.37950134277344
  0
LINE
  8
0
  6
CONTINUOUS
 62
     7
 10
-10
 20
5.27349853515625
 11
-10
 21
1.17999267578125
  0
LINE
  8
0
  6
CONTINUOUS
 62
     7
 10
10
 20
5.27349853515625
 11
10
 21
1.17999267578125
  0
LINE
  8
0
  6
CONTINUOUS
 62
     7
 10
-3.098963975906372
 20
0
 11
-8.81982421875
 21
0
  0
LINE
  8
0
  6
DASHED
 62
     7
 10
-4.75
 20
15.5
 11
-4.75
 21
7
  0
LINE
  8
0
  6
DASHED
 62
     7
 10
4.75
 20
15.5
 11
4.75
 21
7
  0
LINE
  8
0
  6
DASHED
 62
     7
 10
-3
 20
7
 11
-3
 21
0.09896398335695267
  0
LINE
  8
0
  6
DASHED
 62
     7
 10
3
 20
7
 11
3
 21
0.1005291864275932
  0
LINE
  8
0
  6
DASHED
 62
     7
 10
-4.75
 20
7
 11
4.75
 21
7
  0
LINE
  8
0
  6
CONTINUOUS
 62
     7
 10
-19.30033111572266
 20
27.29998779296875
 11
19.300048828125
 21
27.29998779296875
  0
LINE
  8
0
  6
CONTINUOUS
 62
     7
 10
20.050048828125
 20
25.79997253417969
 11
20.050048828125
 21
9.399993896484375
  0
LINE
  8
0
  6
CONTINUOUS
 62
     7
 10
18.55009269714356
 20
27.29988479614258
 11
20.05010223388672
 21
25.79987144470215
  0
LINE
  8
0
  6
CONTINUOUS
 62
     7
 10
20.05051612854004
 20
9.399471282958984
 11
18.55050277709961
 21
7.899459362030029
  0
LINE
  8
0
  6
CONTINUOUS
 62
     7
 10
1.426047563552856
 20
18.19999694824219
 11
6.824462890625
 21
18.19999694824219
  0
LINE
  8
0
  6
CONTINUOUS
 62
     7
 10
7.64013671875
 20
7.899993896484375
 11
21.46533203125
 21
7.899993896484375
  0
LINE
  8
0
  6
CONTINUOUS
 62
     7
 10
8.8134765625
 20
15.5
 11
9
 21
15.5
  0
LINE
  8
0
  6
CONTINUOUS
 62
     7
 10
7.470538139343262
 20
7.99789571762085
 11
7.640106678009033
 21
7.89999532699585
  0
LINE
  8
0
  6
CONTINUOUS
 62
     7
 10
8.475830078125
 20
18.19999694824219
 11
10.118408203125
 21
18.19999694824219
  0
LINE
  8
0
  6
CONTINUOUS
 62
     7
 10
12.300048828125
 20
16.01845359802246
 11
10.11851692199707
 21
18.19998741149902
  0
LINE
  8
0
  6
CONTINUOUS
 62
     7
 10
12.300048828125
 20
12.97135925292969
 11
12.300048828125
 21
16.01845359802246
  0
LINE
  8
0
  6
CONTINUOUS
 62
     7
 10
12.30052089691162
 20
12.97115898132324
 11
10.78955745697022
 21
10.35409259796143
  0
LINE
  8
0
  6
CONTINUOUS
 62
     7
 10
11.15514183044434
 20
8.988216400146484
 11
13.04005813598633
 21
7.899960517883301
  0
LINE
  8
0
  6
CONTINUOUS
 62
     7
 10
20.300048828125
 20
26.29997253417969
 11
20.300048828125
 21
9.29998779296875
  0
LINE
  8
0
  6
CONTINUOUS
 62
     7
 10
18.9501953125
 20
8.29998779296875
 11
19.300048828125
 21
8.29998779296875
  0
LINE
  8
0
  6
CONTINUOUS
 62
     7
 10
19.30025482177734
 20
27.3000659942627
 11
20.30031585693359
 21
26.29999351501465
  0
LINE
  8
0
  6
CONTINUOUS
 62
     7
 10
20.30006790161133
 20
9.299935340881348
 11
19.3000659942627
 21
8.299934387207031
  0
LINE
  8
0
  6
CENTER
 62
     7
 10
-6.369873046875
 20
22
 11
13.31005859375
 21
22
  0
LINE
  8
0
  6
CONTINUOUS
 62
     7
 10
1.780029296875
 20
25.5
 11
5.860107421875
 21
25.5
  0
LINE
  8
0
  6
CONTINUOUS
 62
     7
 10
1.780029296875
 20
18.5
 11
5.860107421875
 21
18.5
  0
LINE
  8
0
  6
CONTINUOUS
 62
     7
 10
1.130281090736389
 20
22.0000057220459
 11
1.780274868011475
 21
18.5000057220459
  0
LINE
  8
0
  6
CONTINUOUS
 62
     7
 10
1.130374550819397
 20
21.99990844726563
 11
1.793964624404907
 21
25.5731201171875
  0
LINE
  8
0
  6
CONTINUOUS
 62
     7
 10
3.440481901168823
 20
22.00002098083496
 11
4.090490341186523
 21
18.50002288818359
  0
LINE
  8
0
  6
CONTINUOUS
 62
     7
 10
3.440593004226685
 20
21.99986267089844
 11
4.090601444244385
 21
25.49986076354981
  0
LINE
  8
0
  6
CONTINUOUS
 62
     7
 10
5.950665473937988
 20
18.96984672546387
 11
5.860652923583984
 21
18.49983978271484
  0
LINE
  8
0
  6
CONTINUOUS
 62
     7
 10
5.950966835021973
 20
25.02015686035156
 11
5.8609619140625
 21
25.5001335144043
  0
LINE
  8
0
  6
CONTINUOUS
 62
     7
 10
7.766204357147217
 20
18.75422859191895
 11
10.52007484436035
 21
19.49986076354981
  0
LINE
  8
0
  6
CONTINUOUS
 62
     7
 10
7.750245571136475
 20
25.24988555908203
 11
10.52037620544434
 21
24.49985122680664
  0
LINE
  8
0
  6
CONTINUOUS
 62
     7
 10
0.002546134870499373
 20
17.38188171386719
 11
1.94785749912262
 21
18.49989128112793
  0
LINE
  8
0
  6
CONTINUOUS
 62
     7
 10
0.006673026829957962
 20
26.61515045166016
 11
1.938104271888733
 21
25.50003814697266
  0
LINE
  8
0
  6
CENTER
 62
     7
 10
0
 20
29
 11
0
 21
-1
  0
LINE
  8
0
  6
CONTINUOUS
 62
     7
 10
-20.0498046875
 20
9.399993896484375
 11
-20.0498046875
 21
25.80016708374023
  0
LINE
  8
0
  6
CONTINUOUS
 62
     7
 10
-18.54947090148926
 20
7.900132179260254
 11
-20.04948425292969
 21
9.400144577026367
  0
LINE
  8
0
  6
CONTINUOUS
 62
     7
 10
-6.82421875
 20
18.19999694824219
 11
-1.414054155349731
 21
18.19999694824219
  0
LINE
  8
0
  6
CONTINUOUS
 62
     7
 10
-21.465087890625
 20
7.899993896484375
 11
-7.639892578125
 21
7.899993896484375
  0
LINE
  8
0
  6
CONTINUOUS
 62
     7
 10
-7.639880657196045
 20
7.899831771850586
 11
-7.470206260681152
 21
7.997793197631836
  0
LINE
  8
0
  6
CONTINUOUS
 62
     7
 10
-10.1181640625
 20
18.19999694824219
 11
-8.4755859375
 21
18.19999694824219
  0
LINE
  8
0
  6
CONTINUOUS
 62
     7
 10
-10.11810111999512
 20
18.1998233795166
 11
-12.2998046875
 21
16.01811790466309
  0
LINE
  8
0
  6
CONTINUOUS
 62
     7
 10
-12.2998046875
 20
16.01811790466309
 11
-12.2998046875
 21
12.97135925292969
  0
LINE
  8
0
  6
CONTINUOUS
 62
     7
 10
-10.78884887695313
 20
10.35439682006836
 11
-12.29981231689453
 21
12.97146320343018
  0
LINE
  8
0
  6
CONTINUOUS
 62
     7
 10
-13.03988933563232
 20
7.899896621704102
 11
-11.15494632720947
 21
8.988167762756348
  0
LINE
  8
0
  6
CONTINUOUS
 62
     7
 10
-20.2998046875
 20
9.29998779296875
 11
-20.2998046875
 21
26.30050277709961
  0
LINE
  8
0
  6
CONTINUOUS
 62
     7
 10
-19.2998046875
 20
8.29998779296875
 11
-18.949951171875
 21
8.29998779296875
  0
LINE
  8
0
  6
CONTINUOUS
 62
     7
 10
-19.29972457885742
 20
8.299911499023438
 11
-20.29979133605957
 21
9.29997730255127
  0
LINE
  8
0
  6
CONTINUOUS
 62
     7
 10
-17.704833984375
 20
6.949984073638916
 11
-11.05483436584473
 21
6.949984073638916
  0
LINE
  8
0
  6
CONTINUOUS
 62
     7
 10
-17.704833984375
 20
6.949984073638916
 11
-17.704833984375
 21
7.899993896484375
  0
LINE
  8
0
  6
CONTINUOUS
 62
     7
 10
-3.997874021530151
 20
19.6917667388916
 11
0.002630653325468302
 21
17.3820743560791
  0
LINE
  8
0
  6
CONTINUOUS
 62
     7
 10
-3.997957468032837
 20
24.31345558166504
 11
0.006585025694221258
 21
26.61494636535645
  0
LINE
  8
0
  6
CONTINUOUS
 62
     7
 10
-3.998046875
 20
19.69168090820313
 11
-3.998046875
 21
24.31356811523438
  0
LINE
  8
0
  6
CONTINUOUS
 62
     7
 10
-11.53114891052246
 20
6
 11
-9.800832748413086
 21
6
  0
LINE
  8
0
  6
CONTINUOUS
 62
     7
 10
-9.80023193359375
 20
5.999597549438477
 11
-8.702751159667969
 21
7.899993896484375
  0
LINE
  8
0
  6
CONTINUOUS
 62
     7
 10
-11.53114891052246
 20
6.949984073638916
 11
-11.53114891052246
 21
6
  0
LINE
  8
0
  6
CONTINUOUS
 62
     7
 10
70
 20
0
 11
290
 21
0
  0
LINE
  8
0
  6
CONTINUOUS
 62
     7
 10
70
 20
15.5
 11
146.75
 21
15.5
  0
LINE
  8
0
  6
CONTINUOUS
 62
     7
 10
156.6500549316406
 20
7.900009155273438
 11
203.3499450683594
 21
7.900009155273438
  0
LINE
  8
0
  6
CONTINUOUS
 62
     7
 10
156.6500549316406
 20
27.29998779296875
 11
156.6500549316406
 21
7.900009155273438
  0
LINE
  8
0
  6
CONTINUOUS
 62
     7
 10
203.3499450683594
 20
27.29998779296875
 11
203.3499450683594
 21
7.900009155273438
  0
LINE
  8
0
  6
CONTINUOUS
 62
     7
 10
149.75
 20
27.29998779296875
 11
149.75
 21
8.29998779296875
  0
LINE
  8
0
  6
CONTINUOUS
 62
     7
 10
210.25
 20
27.29998779296875
 11
210.25
 21
8.29998779296875
  0
LINE
  8
0
  6
CONTINUOUS
 62
     7
 10
149.75
 20
27.29998779296875
 11
156.6500549316406
 21
27.29998779296875
  0
LINE
  8
0
  6
CONTINUOUS
 62
     7
 10
149.75
 20
8.29998779296875
 11
156.6500549316406
 21
8.29998779296875
  0
LINE
  8
0
  6
CONTINUOUS
 62
     7
 10
203.3499450683594
 20
27.29998779296875
 11
210.25
 21
27.29998779296875
  0
LINE
  8
0
  6
CONTINUOUS
 62
     7
 10
203.3499450683594
 20
8.29998779296875
 11
210.25
 21
8.29998779296875
  0
LINE
  8
0
  6
CONTINUOUS
 62
     7
 10
149.75
 20
27.29998779296875
 11
149.75
 21
7.900009155273438
  0
LINE
  8
0
  6
CONTINUOUS
 62
     7
 10
148.75
 20
27.29998779296875
 11
148.75
 21
7.900009155273438
  0
LINE
  8
0
  6
CONTINUOUS
 62
     7
 10
146.75
 20
16.19999694824219
 11
146.75
 21
7.900009155273438
  0
LINE
  8
0
  6
CONTINUOUS
 62
     7
 10
148.75
 20
27.29998779296875
 11
149.75
 21
27.29998779296875
  0
LINE
  8
0
  6
CONTINUOUS
 62
     7
 10
146.75
 20
7.900009155273438
 11
149.75
 21
7.900009155273438
  0
LINE
  8
0
  6
CONTINUOUS
 62
     7
 10
146.7505493164063
 20
16.1993408203125
 11
148.7505493164063
 21
18.19934463500977
  0
LINE
  8
0
  6
CONTINUOUS
 62
     7
 10
210.25
 20
7.899993896484375
 11
210.25
 21
27.29998779296875
  0
LINE
  8
0
  6
CENTER
 62
     7
 10
135.550048828125
 20
22.09996032714844
 11
151.478515625
 21
22.09996032714844
  0
LINE
  8
0
  6
CONTINUOUS
 62
     7
 10
146.75
 20
17.97996520996094
 11
146.75
 21
26.21994018554688
  0
LINE
  8
0
  6
CONTINUOUS
 62
     7
 10
143.75
 20
26.09996032714844
 11
146.75
 21
26.09996032714844
  0
LINE
  8
0
  6
CONTINUOUS
 62
     7
 10
148.75
 20
26.71995544433594
 11
147.25
 21
26.71995544433594
  0
LINE
  8
0
  6
CONTINUOUS
 62
     7
 10
148.030029296875
 20
17.47996520996094
 11
147.25
 21
17.47996520996094
  0
LINE
  8
0
  6
CONTINUOUS
 62
     7
 10
148.75
 20
19.78996276855469
 11
146.75
 21
19.78996276855469
  0
LINE
  8
0
  6
CONTINUOUS
 62
     7
 10
147.25
 20
17.4798698425293
 11
146.7500610351563
 21
17.97981643676758
  0
LINE
  8
0
  6
CONTINUOUS
 62
     7
 10
146.7500762939453
 20
26.21978569030762
 11
147.2500610351563
 21
26.71977424621582
  0
LINE
  8
0
  6
CONTINUOUS
 62
     7
 10
144.85009765625
 20
18.59996032714844
 11
139.64990234375
 21
18.59996032714844
  0
LINE
  8
0
  6
CONTINUOUS
 62
     7
 10
144.85009765625
 20
18.55995178222656
 11
144.85009765625
 21
18.59996032714844
  0
LINE
  8
0
  6
CONTINUOUS
 62
     7
 10
146.3504486083984
 20
22.09983253479004
 11
144.8504486083984
 21
18.59982681274414
  0
LINE
  8
0
  6
CONTINUOUS
 62
     7
 10
145.4502563476563
 20
22.09982109069824
 11
143.8502502441406
 21
18.59984016418457
  0
LINE
  8
0
  6
CONTINUOUS
 62
     7
 10
139.6502838134766
 20
18.5994987487793
 11
139.2502593994141
 21
19.17952728271484
  0
LINE
  8
0
  6
CONTINUOUS
 62
     7
 10
139.6501159667969
 20
25.59971046447754
 11
139.2501220703125
 21
25.01970481872559
  0
LINE
  8
0
  6
CONTINUOUS
 62
     7
 10
144.85009765625
 20
25.59996032714844
 11
139.64990234375
 21
25.59996032714844
  0
LINE
  8
0
  6
CONTINUOUS
 62
     7
 10
145.4501190185547
 20
22.09978485107422
 11
143.8501129150391
 21
25.59979438781738
  0
LINE
  8
0
  6
CONTINUOUS
 62
     7
 10
146.3499755859375
 20
22.09982872009277
 11
144.8499755859375
 21
25.59980583190918
  0
LINE
  8
0
  6
CONTINUOUS
 62
     7
 10
143.75
 20
18.09996032714844
 11
146.75
 21
18.09996032714844
  0
LINE
  8
0
  6
CONTINUOUS
 62
     7
 10
149.75
 20
7.899993896484375
 11
210.25
 21
7.899993896484375
  0
LINE
  8
0
  6
CONTINUOUS
 62
     7
 10
149.75
 20
7.899993896484375
 11
149.75
 21
6
  0
LINE
  8
0
  6
CONTINUOUS
 62
     7
 10
210.25
 20
7.899993896484375
 11
210.25
 21
6
  0
LINE
  8
0
  6
CONTINUOUS
 62
     7
 10
211.2499694824219
 20
7.900009155273438
 11
211.2499694824219
 21
27.29998779296875
  0
LINE
  8
0
  6
CONTINUOUS
 62
     7
 10
213.2499694824219
 20
7.900009155273438
 11
213.2499694824219
 21
16.19999694824219
  0
LINE
  8
0
  6
CONTINUOUS
 62
     7
 10
210.2499694824219
 20
27.29998779296875
 11
211.2499694824219
 21
27.29998779296875
  0
LINE
  8
0
  6
CONTINUOUS
 62
     7
 10
210.2499694824219
 20
7.900009155273438
 11
213.2499694824219
 21
7.900009155273438
  0
LINE
  8
0
  6
CONTINUOUS
 62
     7
 10
211.2501983642578
 20
18.19982147216797
 11
213.2501525878906
 21
16.19986152648926
  0
LINE
  8
0
  6
CONTINUOUS
 62
     7
 10
-18.55009269714356
 20
27.29988479614258
 11
-20.05010223388672
 21
25.79987144470215
  0
LINE
  8
0
  6
CONTINUOUS
 62
     7
 10
-19.30025482177734
 20
27.3000659942627
 11
-20.30031585693359
 21
26.29999351501465
  0
LINE
  8
0
  6
CONTINUOUS
 62
     7
 10
148.75
 20
24.40995788574219
 11
146.75
 21
24.40995788574219
  0
LINE
  8
0
  6
CONTINUOUS
 62
     7
 10
70
 20
15.5
 11
70
 21
0
  0
LINE
  8
0
  6
CENTER
 62
     7
 10
90
 20
16.5
 11
90
 21
-1
  0
LINE
  8
0
  6
DASHED
 62
     7
 10
85.25
 20
15.5
 11
85.25
 21
7
  0
LINE
  8
0
  6
DASHED
 62
     7
 10
94.75
 20
15.5
 11
94.75
 21
7
  0
LINE
  8
0
  6
DASHED
 62
     7
 10
93
 20
7
 11
93
 21
0
  0
LINE
  8
0
  6
DASHED
 62
     7
 10
87
 20
7
 11
87
 21
0
  0
LINE
  8
0
  6
DASHED
 62
     7
 10
85.25
 20
7
 11
94.75
 21
7
  0
LINE
  8
0
  6
CONTINUOUS
 62
     7
 10
70
 20
12.99019622802734
 11
146.75
 21
12.99019622802734
  0
LINE
  8
0
  6
CONTINUOUS
 62
     7
 10
70
 20
11.67633628845215
 11
146.75
 21
11.67633628845215
  0
LINE
  8
0
  6
CONTINUOUS
 62
     7
 10
70
 20
5.273589134216309
 11
290
 21
5.273589134216309
  0
LINE
  8
0
  6
CONTINUOUS
 62
     7
 10
70
 20
14.540114402771
 11
146.75
 21
14.540114402771
  0
LINE
  8
0
  6
CENTER
 62
     7
 10
270
 20
16.5
 11
270
 21
-1
  0
LINE
  8
0
  6
CONTINUOUS
 62
     7
 10
290
 20
15.5
 11
290
 21
0
  0
LINE
  8
0
  6
CONTINUOUS
 62
     7
 10
290
 20
15.5
 11
213.25
 21
15.5
  0
LINE
  8
0
  6
CONTINUOUS
 62
     7
 10
290
 20
11.67633628845215
 11
213.25
 21
11.67633628845215
  0
LINE
  8
0
  6
CONTINUOUS
 62
     7
 10
290
 20
12.99019622802734
 11
213.25
 21
12.99019622802734
  0
LINE
  8
0
  6
CONTINUOUS
 62
     7
 10
290
 20
14.540114402771
 11
213.25
 21
14.540114402771
  0
LINE
  8
0
  6
CENTER
 62
     7
 10
210
 20
7.899993896484375
 11
210
 21
-1
  0
LINE
  8
0
  6
CENTER
 62
     7
 10
150
 20
7.899993896484375
 11
150
 21
-1
  0
LINE
  8
0
  6
CONTINUOUS
 62
     7
 10
149.75
 20
97.19999694824219
 11
156.6500549316406
 21
97.19999694824219
  0
LINE
  8
0
  6
CONTINUOUS
 62
     7
 10
148.75
 20
97.44999694824219
 11
149.75
 21
97.44999694824219
  0
LINE
  8
0
  6
CONTINUOUS
 62
     7
 10
70
 20
110.9969940185547
 11
138.5153350830078
 21
110.9969940185547
  0
LINE
  8
0
  6
CONTINUOUS
 62
     7
 10
70
 20
107.5
 11
139.3878479003906
 21
107.5
  0
LINE
  8
0
  6
CONTINUOUS
 62
     7
 10
146.75
 20
106.8000030517578
 11
148.75
 21
104.8000030517578
  0
LINE
  8
0
  6
CONTINUOUS
 62
     7
 10
70
 20
108.7027130126953
 11
138.2842712402344
 21
108.7027130126953
  0
LINE
  8
0
  6
CONTINUOUS
 62
     7
 10
70
 20
108.4598846435547
 11
138.2670135498047
 21
108.4598846435547
  0
LINE
  8
0
  6
CONTINUOUS
 62
     7
 10
70
 20
126.5401153564453
 11
146.75
 21
126.5401153564453
  0
LINE
  8
0
  6
CONTINUOUS
 62
     7
 10
146.75
 20
106.8000030517578
 11
146.75
 21
111.7085037231445
  0
LINE
  8
0
  6
CONTINUOUS
 62
     7
 10
70
 20
107.5
 11
70
 21
127.5
  0
LINE
  8
0
  6
CONTINUOUS
 62
     7
 10
70
 20
126.2972869873047
 11
146.75
 21
126.2972869873047
  0
LINE
  8
0
  6
CONTINUOUS
 62
     7
 10
146.75
 20
128.1999969482422
 11
148.75
 21
130.1999969482422
  0
LINE
  8
0
  6
CONTINUOUS
 62
     7
 10
70
 20
127.5
 11
146.75
 21
127.5
  0
LINE
  8
0
  6
CONTINUOUS
 62
     7
 10
149.75
 20
97.19999694824219
 11
149.75
 21
137.8000030517578
  0
LINE
  8
0
  6
CONTINUOUS
 62
     7
 10
148.75
 20
137.5500030517578
 11
149.75
 21
137.5500030517578
  0
LINE
  8
0
  6
CONTINUOUS
 62
     7
 10
70
 20
124.0030059814453
 11
146.75
 21
124.0030059814453
  0
LINE
  8
0
  6
CONTINUOUS
 62
     7
 10
149.75
 20
137.8000030517578
 11
156.6500549316406
 21
137.8000030517578
  0
LINE
  8
0
  6
CONTINUOUS
 62
     7
 10
148.75
 20
97.44999694824219
 11
148.75
 21
113.5
  0
LINE
  8
0
  6
CENTER
 62
     7
 10
90
 20
123.25
 11
90
 21
111.75
  0
LINE
  8
0
  6
CENTER
 62
     7
 10
150
 20
123.25
 11
150
 21
111.75
  0
LINE
  8
0
  6
CONTINUOUS
 62
     7
 10
290
 20
108.4598846435547
 11
213.25
 21
108.4598846435547
  0
LINE
  8
0
  6
CONTINUOUS
 62
     7
 10
211.25
 20
97.44999694824219
 11
211.25
 21
137.5500030517578
  0
LINE
  8
0
  6
CONTINUOUS
 62
     7
 10
210.25
 20
137.8000030517578
 11
203.3499450683594
 21
137.8000030517578
  0
LINE
  8
0
  6
CONTINUOUS
 62
     7
 10
290
 20
124.0030059814453
 11
213.25
 21
124.0030059814453
  0
LINE
  8
0
  6
CONTINUOUS
 62
     7
 10
290
 20
127.5
 11
213.25
 21
127.5
  0
LINE
  8
0
  6
CONTINUOUS
 62
     7
 10
211.25
 20
137.5500030517578
 11
210.25
 21
137.5500030517578
  0
LINE
  8
0
  6
CONTINUOUS
 62
     7
 10
210.25
 20
97.19999694824219
 11
210.25
 21
137.8000030517578
  0
LINE
  8
0
  6
CONTINUOUS
 62
     7
 10
290
 20
126.2972869873047
 11
213.25
 21
126.2972869873047
  0
LINE
  8
0
  6
CONTINUOUS
 62
     7
 10
203.3499450683594
 20
88
 11
203.3499450683594
 21
147
  0
LINE
  8
0
  6
CENTER
 62
     7
 10
210
 20
123.25
 11
210
 21
111.75
  0
LINE
  8
0
  6
CONTINUOUS
 62
     7
 10
213.2499847412109
 20
128.1999969482422
 11
211.2499847412109
 21
130.1999969482422
  0
LINE
  8
0
  6
CONTINUOUS
 62
     7
 10
213.25
 20
106.8000030517578
 11
213.25
 21
128.1999969482422
  0
LINE
  8
0
  6
CONTINUOUS
 62
     7
 10
290
 20
126.5401153564453
 11
213.25
 21
126.5401153564453
  0
LINE
  8
0
  6
CONTINUOUS
 62
     7
 10
290
 20
107.5
 11
290
 21
127.5
  0
LINE
  8
0
  6
CENTER
 62
     7
 10
291
 20
117.5
 11
69
 21
117.5
  0
LINE
  8
0
  6
CONTINUOUS
 62
     7
 10
290
 20
108.7027130126953
 11
213.25
 21
108.7027130126953
  0
LINE
  8
0
  6
CONTINUOUS
 62
     7
 10
213.2499847412109
 20
106.8000030517578
 11
211.2499847412109
 21
104.7999954223633
  0
LINE
  8
0
  6
CONTINUOUS
 62
     7
 10
290
 20
107.5
 11
213.25
 21
107.5
  0
LINE
  8
0
  6
CENTER
 62
     7
 10
270
 20
123.25
 11
270
 21
111.75
  0
LINE
  8
0
  6
CONTINUOUS
 62
     7
 10
211.25
 20
97.44999694824219
 11
210.25
 21
97.44999694824219
  0
LINE
  8
0
  6
CONTINUOUS
 62
     7
 10
290
 20
110.9969940185547
 11
213.25
 21
110.9969940185547
  0
LINE
  8
0
  6
CONTINUOUS
 62
     7
 10
210.25
 20
97.19999694824219
 11
203.3499450683594
 21
97.19999694824219
  0
LINE
  8
0
  6
CONTINUOUS
 62
     7
 10
147.7500305175781
 20
113.4999847412109
 11
147.7500305175781
 21
121.4999847412109
  0
LINE
  8
0
  6
CONTINUOUS
 62
     7
 10
144.4501190185547
 20
121.5
 11
147.7500305175781
 21
121.5
  0
LINE
  8
0
  6
CONTINUOUS
 62
     7
 10
146.0701446533203
 20
113.5
 11
147.7500305175781
 21
113.5
  0
LINE
  8
0
  6
CONTINUOUS
 62
     7
 10
140.4501037597656
 20
117.5
 11
140.4501037597656
 21
115.827880859375
  0
LINE
  8
0
  6
CONTINUOUS
 62
     7
 10
147.7500152587891
 20
121.5
 11
149.7500152587891
 21
121.5
  0
LINE
  8
0
  6
CONTINUOUS
 62
     7
 10
147.7500152587891
 20
113.5
 11
149.7500152587891
 21
113.5
  0
LINE
  8
0
  6
CENTER
 62
     7
 10
140.0018768310547
 20
105.9778823852539
 11
144.8671722412109
 21
117.7237701416016
  0
LINE
  8
0
  6
CONTINUOUS
 62
     7
 10
138.2328033447266
 20
107.9784393310547
 11
142.6674194335938
 21
106.1415634155273
  0
LINE
  8
0
  6
CONTINUOUS
 62
     7
 10
138.4345550537109
 20
110.8173446655273
 11
144.5321655273438
 21
108.291633605957
  0
LINE
  8
0
  6
CONTINUOUS
 62
     7
 10
138.2327880859375
 20
107.9784545898438
 11
138.4345550537109
 21
110.8173446655273
  0
LINE
  8
0
  6
CONTINUOUS
 62
     7
 10
142.6674194335938
 20
106.1415634155273
 11
144.5321655273438
 21
108.291633605957
  0
LINE
  8
0
  6
CONTINUOUS
 62
     7
 10
139.1732788085938
 20
114.5381927490234
 11
139.5879364013672
 21
115.5392684936523
  0
LINE
  8
0
  6
CONTINUOUS
 62
     7
 10
146.640869140625
 20
111.4450073242188
 11
147.0555114746094
 21
112.4460754394531
  0
LINE
  8
0
  6
CONTINUOUS
 62
     7
 10
140.3673706054688
 20
115.8620910644531
 11
139.5879364013672
 21
115.5392379760742
  0
LINE
  8
0
  6
CONTINUOUS
 62
     7
 10
140.8105621337891
 20
113.2105941772461
 11
141.6831359863281
 21
115.3171615600586
  0
LINE
  8
0
  6
CONTINUOUS
 62
     7
 10
140.3673858642578
 20
115.8621597290039
 11
146.7326965332031
 21
113.2255630493164
  0
LINE
  8
0
  6
CONTINUOUS
 62
     7
 10
147.0555419921875
 20
112.4460601806641
 11
146.732666015625
 21
113.2255172729492
  0
LINE
  8
0
  6
CONTINUOUS
 62
     7
 10
139.5648193359375
 20
112.2394866943359
 11
144.7385406494141
 21
110.0964508056641
  0
LINE
  8
0
  6
CONTINUOUS
 62
     7
 10
146.75
 20
121.5
 11
146.75
 21
128.1999969482422
  0
LINE
  8
0
  6
CONTINUOUS
 62
     7
 10
148.75
 20
121.5
 11
148.75
 21
137.5500030517578
  0
LINE
  8
0
  6
CONTINUOUS
 62
     7
 10
139.4948272705078
 20
113.7555923461914
 11
145.8601226806641
 21
111.1189956665039
  0
LINE
  8
0
  6
CONTINUOUS
 62
     7
 10
144.5443267822266
 20
111.6640090942383
 11
145.4169006347656
 21
113.7705841064453
  0
LINE
  8
0
  6
CONTINUOUS
 62
     7
 10
145.819091796875
 20
110.9969940185547
 11
146.75
 21
110.9969940185547
  0
LINE
  8
0
  6
CONTINUOUS
 62
     7
 10
144.6715393066406
 20
108.7027130126953
 11
146.75
 21
108.7027130126953
  0
LINE
  8
0
  6
CONTINUOUS
 62
     7
 10
144.5965423583984
 20
108.4598846435547
 11
146.75
 21
108.4598846435547
  0
LINE
  8
0
  6
CONTINUOUS
 62
     7
 10
143.8455810546875
 20
107.5
 11
146.75
 21
107.5
  0
LINE
  8
0
  6
CONTINUOUS
 62
     7
 10
146.75
 20
113.1836318969727
 11
146.75
 21
113.5
  0
LINE
  8
0
  6
CONTINUOUS
 62
     7
 10
157.5502014160156
 20
28
 11
202.4501647949219
 21
28
  0
LINE
  8
0
  6
CENTER
 62
     7
 10
164.0001525878906
 20
7.29998779296875
 11
164.0001525878906
 21
29
  0
LINE
  8
0
  6
CONTINUOUS
 62
     7
 10
-28.599853515625
 20
28
 11
-18.449951171875
 21
28
  0
LINE
  8
0
  6
CONTINUOUS
 62
     7
 10
-29.5
 20
27.09999084472656
 11
-29.5
 21
20
  0
LINE
  8
0
  6
CONTINUOUS
 62
     7
 10
-5.5498046875
 20
28
 11
5.550048828125
 21
28
  0
LINE
  8
0
  6
CONTINUOUS
 62
     7
 10
-18
 20
27.54998779296875
 11
-5.99993896484375
 21
27.54998779296875
  0
LINE
  8
0
  6
CONTINUOUS
 62
     7
 10
-5.549839496612549
 20
27.99980354309082
 11
-5.999826431274414
 21
27.54980850219727
  0
LINE
  8
0
  6
CONTINUOUS
 62
     7
 10
-18.44968032836914
 20
27.9998893737793
 11
-17.99979782104492
 21
27.55000686645508
  0
LINE
  8
0
  6
CONTINUOUS
 62
     7
 10
-28.499755859375
 20
19
 11
-28.276123046875
 21
19
  0
LINE
  8
0
  6
CONTINUOUS
 62
     7
 10
-28.59980201721191
 20
27.9998722076416
 11
-29.49980354309082
 21
27.09986686706543
  0
LINE
  8
0
  6
CONTINUOUS
 62
     7
 10
-29.49969673156738
 20
19.99996185302734
 11
-28.49980354309082
 21
19.00006866455078
  0
LINE
  8
0
  6
CONTINUOUS
 62
     7
 10
-25.37804412841797
 20
16.77656745910645
 11
-23.39680099487305
 21
9.382465362548828
  0
LINE
  8
0
  6
CENTER
 62
     7
 10
-24.5
 20
29
 11
-24.5
 21
12.07072448730469
  0
LINE
  8
0
  6
DASHED
 62
     7
 10
-27.25
 20
28
 11
-27.25
 21
19
  0
LINE
  8
0
  6
DASHED
 62
     7
 10
-21.75
 20
28
 11
-21.75
 21
19
  0
LINE
  8
0
  6
DASHED
 62
     7
 10
-19.75
 20
19
 11
-19.75
 21
7.899993896484375
  0
LINE
  8
0
  6
CONTINUOUS
 62
     7
 10
18.4501953125
 20
28
 11
28.60009765625
 21
28
  0
LINE
  8
0
  6
CONTINUOUS
 62
     7
 10
29.5
 20
20
 11
29.5
 21
27.09999084472656
  0
LINE
  8
0
  6
CONTINUOUS
 62
     7
 10
6
 20
27.54998779296875
 11
18
 21
27.54998779296875
  0
LINE
  8
0
  6
CONTINUOUS
 62
     7
 10
6.000259876251221
 20
27.54990005493164
 11
5.550208568572998
 21
27.99995994567871
  0
LINE
  8
0
  6
CONTINUOUS
 62
     7
 10
18.00020980834961
 20
27.54973983764648
 11
18.4502124786377
 21
27.99974250793457
  0
LINE
  8
0
  6
CONTINUOUS
 62
     7
 10
28.2763671875
 20
19
 11
28.5
 21
19
  0
LINE
  8
0
  6
CENTER
 62
     7
 10
24.5
 20
12.07072448730469
 11
24.5
 21
29
  0
LINE
  8
0
  6
CONTINUOUS
 62
     7
 10
23.39741706848145
 20
9.382284164428711
 11
25.37866020202637
 21
16.7763843536377
  0
LINE
  8
0
  6
CONTINUOUS
 62
     7
 10
29.50015068054199
 20
27.0998420715332
 11
28.60002136230469
 21
27.99997711181641
  0
LINE
  8
0
  6
CONTINUOUS
 62
     7
 10
28.50022697448731
 20
18.99977493286133
 11
29.50022888183594
 21
19.99977493286133
  0
LINE
  8
0
  6
CONTINUOUS
 62
     7
 10
156.6502990722656
 20
18.99996948242188
 11
203.3501739501953
 21
18.99996948242188
  0
LINE
  8
0
  6
DASHED
 62
     7
 10
-28.276123046875
 20
19
 11
-19.75
 21
19
  0
LINE
  8
0
  6
DASHED
 62
     7
 10
166.7501525878906
 20
18.99996948242188
 11
166.7501525878906
 21
28
  0
LINE
  8
0
  6
CONTINUOUS
 62
     7
 10
202.4502410888672
 20
27.99989128112793
 11
203.3503570556641
 21
27.09977531433106
  0
LINE
  8
0
  6
DASHED
 62
     7
 10
161.2501525878906
 20
18.99996948242188
 11
161.2501525878906
 21
28
  0
LINE
  8
0
  6
CONTINUOUS
 62
     7
 10
156.6503753662109
 20
27.09980773925781
 11
157.5503387451172
 21
27.99979782104492
  0
LINE
  8
0
  6
CONTINUOUS
 62
     7
 10
193.7392425537109
 20
9.662298202514648
 11
191.2502899169922
 21
18.99977684020996
  0
LINE
  8
0
  6
CONTINUOUS
 62
     7
 10
168.7505035400391
 20
18.99986457824707
 11
166.2615661621094
 21
9.662428855895996
  0
LINE
  8
0
  6
CONTINUOUS
 62
     7
 10
198.2615509033203
 20
9.662446975708008
 11
200.75048828125
 21
18.99988746643066
  0
LINE
  8
0
  6
CONTINUOUS
 62
     7
 10
159.2503662109375
 20
18.99974822998047
 11
161.7392730712891
 21
9.662454605102539
  0
LINE
  8
0
  6
CENTER
 62
     7
 10
196.0001678466797
 20
7.29998779296875
 11
196.0001678466797
 21
29
  0
LINE
  8
0
  6
CONTINUOUS
 62
     7
 10
203.3499450683594
 20
88
 11
156.6500549316406
 21
88
  0
LINE
  8
0
  6
CONTINUOUS
 62
     7
 10
203.3499450683594
 20
147
 11
156.6500549316406
 21
147
  0
LINE
  8
0
  6
CONTINUOUS
 62
     7
 10
156.6499481201172
 20
88
 11
156.6499481201172
 21
147
  0
LINE
  8
0
  6
CENTER
 62
     7
 10
163.9999389648438
 20
96.75
 11
163.9999389648438
 21
89.25
  0
LINE
  8
0
  6
CENTER
 62
     7
 10
160.2499389648438
 20
93
 11
167.7499389648438
 21
93
  0
LINE
  8
0
  6
CENTER
 62
     7
 10
163.9999389648438
 20
138.25
 11
163.9999389648438
 21
145.75
  0
LINE
  8
0
  6
CENTER
 62
     7
 10
160.2499389648438
 20
142
 11
167.7499389648438
 21
142
  0
LINE
  8
0
  6
CENTER
 62
     7
 10
195.9999389648438
 20
96.75
 11
195.9999389648438
 21
89.25
  0
LINE
  8
0
  6
CENTER
 62
     7
 10
199.7499389648438
 20
93
 11
192.2499389648438
 21
93
  0
LINE
  8
0
  6
CENTER
 62
     7
 10
195.9999389648438
 20
138.25
 11
195.9999389648438
 21
145.75
  0
LINE
  8
0
  6
CENTER
 62
     7
 10
199.7499389648438
 20
142
 11
192.2499389648438
 21
142
  0
LINE
  8
0
  6
CONTINUOUS
 62
     7
 10
203.3499450683594
 20
111.9498291015625
 11
156.6499481201172
 21
111.9498291015625
  0
LINE
  8
0
  6
CONTINUOUS
 62
     7
 10
203.3499450683594
 20
99.04953002929688
 11
156.6499481201172
 21
99.04953002929688
  0
LINE
  8
0
  6
CONTINUOUS
 62
     7
 10
203.3499450683594
 20
123.0501708984375
 11
156.6499481201172
 21
123.0501708984375
  0
LINE
  8
0
  6
CONTINUOUS
 62
     7
 10
203.3499450683594
 20
135.9504699707031
 11
156.6499481201172
 21
135.9504699707031
  0
LINE
  8
0
  6
CONTINUOUS
 62
     7
 10
17.704833984375
 20
6.949984073638916
 11
17.704833984375
 21
7.899993896484375
  0
LINE
  8
0
  6
CONTINUOUS
 62
     7
 10
17.704833984375
 20
6.949984073638916
 11
11.05483436584473
 21
6.949984073638916
  0
LINE
  8
0
  6
CONTINUOUS
 62
     7
 10
11.53114891052246
 20
6.949984073638916
 11
11.53114891052246
 21
6
  0
LINE
  8
0
  6
CONTINUOUS
 62
     7
 10
9.80023193359375
 20
5.999597549438477
 11
8.702751159667969
 21
7.899993896484375
  0
LINE
  8
0
  6
CONTINUOUS
 62
     7
 10
11.53114891052246
 20
6
 11
9.800832748413086
 21
6
  0
LINE
  8
0
  6
CONTINUOUS
 62
     7
 10
149.75
 20
6.949984073638916
 11
210.25
 21
6.949984073638916
  0
LINE
  8
0
  6
CONTINUOUS
 62
     7
 10
149.75
 20
6
 11
210.25
 21
6
  0
ARC
  8
0
  6
CONTINUOUS
 62
     7
 10
-7.64990234375
 20
16.68598937988281
 40
1.649999618530273
 50
225.9545322552649
 51
314.0454627357787
  0
ARC
  8
0
  6
CONTINUOUS
 62
     7
 10
-10.6552734375
 20
11.47599792480469
 40
1.649999618530274
 50
7.05314020490028
 51
52.94684438927891
  0
ARC
  8
0
  6
CONTINUOUS
 62
     7
 10
7.650146484375
 20
16.68598937988281
 40
1.649999618530273
 50
225.9545322552649
 51
314.0454627357787
  0
ARC
  8
0
  6
CONTINUOUS
 62
     7
 10
10.655517578125
 20
11.47599792480469
 40
1.649999618530273
 50
113.4084678090809
 51
172.9469467663261
  0
ARC
  8
0
  6
CONTINUOUS
 62
     7
 10
-7.446044921875
 20
7.55621337890625
 40
0.6999999880790714
 50
300.0000119907263
 51
29.99999058954229
  0
ARC
  8
0
  6
CONTINUOUS
 62
     7
 10
7.4462890625
 20
7.55621337890625
 40
0.6999999880790713
 50
150.0000246646978
 51
239.9999520370951
  0
ARC
  8
0
  6
CONTINUOUS
 62
     7
 10
7.650146484375
 20
18.66999816894531
 40
0.9499995708465582
 50
209.652455310332
 51
330.3475465109009
  0
ARC
  8
0
  6
CONTINUOUS
 62
     7
 10
11.6552734375
 20
9.854293823242188
 40
1.000000000000001
 50
150.0000246646978
 51
239.9999520370951
  0
ARC
  8
0
  6
CONTINUOUS
 62
     7
 10
7.720458984375
 20
8.43096923828125
 40
0.5
 50
150.0000246646979
 51
239.9999520370951
  0
ARC
  8
0
  6
CONTINUOUS
 62
     7
 10
7.610107421875
 20
19.70999145507813
 40
0.9683421850204466
 50
215.3314570768741
 51
278.2972225067941
  0
ARC
  8
0
  6
CONTINUOUS
 62
     7
 10
6.6201171875
 20
17.91999816894531
 40
1.246148109436035
 50
80.76452806729958
 51
142.1250351177266
  0
ARC
  8
0
  6
CONTINUOUS
 62
     7
 10
6.6201171875
 20
26.08000183105469
 40
1.254199028015136
 50
217.8749648822735
 51
279.2353626496737
  0
ARC
  8
0
  6
CONTINUOUS
 62
     7
 10
7.610107421875
 20
24.28999328613281
 40
0.9701611399650563
 50
81.7028867762326
 51
144.668542923126
  0
ARC
  8
0
  6
CONTINUOUS
 62
     7
 10
0
 20
22
 40
3.998106002807619
 50
61.09402038976974
 51
298.9059076658729
  0
ARC
  8
0
  6
CONTINUOUS
 62
     7
 10
-7.64990234375
 20
18.66999816894531
 40
0.9499995708465574
 50
209.652455310332
 51
330.3475465109009
  0
ARC
  8
0
  6
CONTINUOUS
 62
     7
 10
-11.655029296875
 20
9.854293823242188
 40
1
 50
300.0000666322396
 51
29.99997351406931
  0
ARC
  8
0
  6
CONTINUOUS
 62
     7
 10
-7.72021484375
 20
8.43096923828125
 40
0.5000000000000001
 50
300.0000666322396
 51
29.99997351406931
  0
ARC
  8
0
  6
CONTINUOUS
 62
     7
 10
-11.05483436584473
 20
7.899993896484375
 40
0.9499999284744259
 50
270.0000179860894
 51
0.0003091797122737126
  0
ARC
  8
0
  6
CONTINUOUS
 62
     7
 10
143.75
 20
22.10005187988281
 40
3.999999999999998
 50
89.99998201391055
 51
118.4958044387708
  0
ARC
  8
0
  6
CONTINUOUS
 62
     7
 10
143.75
 20
22.10005187988281
 40
3.982465744018556
 50
241.5040862782025
 51
269.9999087030627
  0
CIRCLE
  8
0
  6
CONTINUOUS
 62
     7
 10
90
 20
117.5
 40
4.75
  0
CIRCLE
  8
0
  6
CONTINUOUS
 62
     7
 10
90
 20
117.5
 40
3
  0
ARC
  8
0
  6
CONTINUOUS
 62
     7
 10
141.4833679199219
 20
109.5544738769531
 40
3.299999237060557
 50
131.5803705110075
 51
157.4999548639651
  0
ARC
  8
0
  6
CONTINUOUS
 62
     7
 10
141.4833679199219
 20
109.5544738769531
 40
3.29999923706055
 50
337.5000181569006
 51
3.419602296415186
  0
ARC
  8
0
  6
CONTINUOUS
 62
     7
 10
133.5670166015625
 20
112.4005737304688
 40
6.00000000000001
 50
2.43365082934552
 51
20.87173987704913
  0
ARC
  8
0
  6
CONTINUOUS
 62
     7
 10
149.0935363769531
 20
105.9692687988281
 40
6.000000000000011
 50
114.1278165022775
 51
132.5663219780771
  0
ARC
  8
0
  6
CONTINUOUS
 62
     7
 10
138.7622985839844
 20
112.6213684082031
 40
0.7999999523162822
 50
311.5798327472963
 51
2.433049772698627
  0
ARC
  8
0
  6
CONTINUOUS
 62
     7
 10
145.5760498046875
 20
109.7990264892578
 40
0.7999999523162747
 50
132.5669776762372
 51
183.4201402735702
  0
ARC
  8
0
  6
CONTINUOUS
 62
     7
 10
144.4501037597656
 20
117.5
 40
3.999999999999998
 50
89.99998201391055
 51
180.0000186693347
  0
ARC
  8
0
  6
CONTINUOUS
 62
     7
 10
-21.465087890625
 20
9.899993896484375
 40
2
 50
195.0001149367672
 51
270.0004551181962
  0
ARC
  8
0
  6
CONTINUOUS
 62
     7
 10
-28.276123046875
 20
16
 40
3
 50
14.99997651175091
 51
89.99987273088391
  0
ARC
  8
0
  6
CONTINUOUS
 62
     7
 10
164.0001525878906
 20
10.26524353027344
 40
2.339999198913572
 50
194.9254199880039
 51
345.0744964558643
  0
ARC
  8
0
  6
CONTINUOUS
 62
     7
 10
196.0001831054688
 20
10.26524353027344
 40
2.339999198913585
 50
194.9255292710305
 51
345.0745818332289
  0
ARC
  8
0
  6
CONTINUOUS
 62
     7
 10
21.46533203125
 20
9.899993896484375
 40
2
 50
269.9995808539825
 51
344.9998868844657
  0
ARC
  8
0
  6
CONTINUOUS
 62
     7
 10
28.2763671875
 20
16
 40
3
 50
90.00000250447812
 51
164.9999943462596
  0
CIRCLE
  8
0
  6
CONTINUOUS
 62
     7
 10
163.9999389648438
 20
93
 40
2.75
  0
ARC
  8
0
  6
CONTINUOUS
 62
     7
 10
11.05483436584473
 20
7.899993896484375
 40
0.9499999284744271
 50
179.9996908202545
 51
269.9999733624886
  0
POLYLINE
  8
0
  6
CONTINUOUS
 62
     7
 66
     1
 10
0
 20
0
  0
VERTEX
  8
0
  6
CONTINUOUS
 62
     7
 10
6.820068359375
 20
24.8499755859375
 42
0.1885789354394468
  0
VERTEX
  8
0
  6
CONTINUOUS
 62
     7
 10
6.460340646671255
 20
24.69028472367525
 42
0.07574244361860745
  0
VERTEX
  8
0
  6
CONTINUOUS
 62
     7
 10
6.216109078558669
 20
24.37244727503471
 42
0.03933441130898555
  0
VERTEX
  8
0
  6
CONTINUOUS
 62
     7
 10
6.046247817523368
 20
24.0071146554796
 42
0.0257702261281544
  0
VERTEX
  8
0
  6
CONTINUOUS
 62
     7
 10
5.924091743984418
 20
23.6229656167918
 42
0.01950444828012556
  0
VERTEX
  8
0
  6
CONTINUOUS
 62
     7
 10
5.836597916854423
 20
23.22875562410386
 42
0.01621398503865195
  0
VERTEX
  8
0
  6
CONTINUOUS
 62
     7
 10
5.777233499820522
 20
22.82916637026607
 42
0.01446599208440805
  0
VERTEX
  8
0
  6
CONTINUOUS
 62
     7
 10
5.742360581290934
 20
22.42664322193476
 42
0.01369076240761477
  0
VERTEX
  8
0
  6
CONTINUOUS
 62
     7
 10
5.730106323576757
 20
22.02250032437938
 42
0.01360566335298707
  0
VERTEX
  8
0
  6
CONTINUOUS
 62
     7
 10
5.73982436726772
 20
21.61965627271868
 42
0.01431483577561537
  0
VERTEX
  8
0
  6
CONTINUOUS
 62
     7
 10
5.771975711061604
 20
21.21740613366577
 42
0.01598134685394616
  0
VERTEX
  8
0
  6
CONTINUOUS
 62
     7
 10
5.828487562983152
 20
20.8165893837605
 42
0.01902611244822086
  0
VERTEX
  8
0
  6
CONTINUOUS
 62
     7
 10
5.912549178179487
 20
20.42143711227581
 42
0.02487889210572565
  0
VERTEX
  8
0
  6
CONTINUOUS
 62
     7
 10
6.03056358886492
 20
20.03504180708984
 42
0.03729480303986422
  0
VERTEX
  8
0
  6
CONTINUOUS
 62
     7
 10
6.194635633313293
 20
19.66585824574866
 42
0.06998072190960362
  0
VERTEX
  8
0
  6
CONTINUOUS
 62
     7
 10
6.430216112886583
 20
19.33852528513459
 42
0.1738226602511774
  0
VERTEX
  8
0
  6
CONTINUOUS
 62
     7
 10
6.779979201797491
 20
19.15192197053593
 42
0
  0
SEQEND
  8
0
  0
POLYLINE
  8
0
  6
CONTINUOUS
 62
     7
 66
     1
 10
0
 20
0
 70
     1
  0
VERTEX
  8
0
  6
CONTINUOUS
 62
     7
 10
10.52001953125
 20
24.5
 42
0.2551605281481423
  0
VERTEX
  8
0
  6
CONTINUOUS
 62
     7
 10
9.990202750479739
 20
24.07511834744248
 42
0.06319271445580761
  0
VERTEX
  8
0
  6
CONTINUOUS
 62
     7
 10
9.736102618308747
 20
23.41223209505605
 42
0.03518703029839194
  0
VERTEX
  8
0
  6
CONTINUOUS
 62
     7
 10
9.609370472692845
 20
22.7121812488475
 42
0.02798589179772874
  0
VERTEX
  8
0
  6
CONTINUOUS
 62
     7
 10
9.57000732421875
 20
22
 42
0.02790009419002959
  0
VERTEX
  8
0
  6
CONTINUOUS
 62
     7
 10
9.609141740132959
 20
21.28985099016532
 42
0.03516093888087672
  0
VERTEX
  8
0
  6
CONTINUOUS
 62
     7
 10
9.735638526659862
 20
20.5895594726779
 42
0.06315679289242825
  0
VERTEX
  8
0
  6
CONTINUOUS
 62
     7
 10
9.98967590271929
 20
19.92581974598598
 42
0.2552812160363974
  0
VERTEX
  8
0
  6
CONTINUOUS
 62
     7
 10
10.52001953125
 20
19.5
 42
0.2551559578744377
  0
VERTEX
  8
0
  6
CONTINUOUS
 62
     7
 10
11.04983493541096
 20
19.92488519003005
 42
0.06319253877387372
  0
VERTEX
  8
0
  6
CONTINUOUS
 62
     7
 10
11.30393573583335
 20
20.58777121513414
 42
0.03518717651549724
  0
VERTEX
  8
0
  6
CONTINUOUS
 62
     7
 10
11.43066852454271
 20
21.28782195034705
 42
0.02798603583735517
  0
VERTEX
  8
0
  6
CONTINUOUS
 62
     7
 10
11.47003173828125
 20
22
 42
0.02789900851435107
  0
VERTEX
  8
0
  6
CONTINUOUS
 62
     7
 10
11.43089016769574
 20
22.71014864099245
 42
0.03515957623319515
  0
VERTEX
  8
0
  6
CONTINUOUS
 62
     7
 10
11.30438968761925
 20
23.41043954460519
 42
0.06315466501143441
  0
VERTEX
  8
0
  6
CONTINUOUS
 62
     7
 10
11.05035327340711
 20
24.0741798129032
 42
0.2552827079446852
  0
SEQEND
  8
0
  0
POLYLINE
  8
0
  6
CONTINUOUS
 62
     7
 66
     1
 10
0
 20
0
 70
     1
  0
VERTEX
  8
0
  6
CONTINUOUS
 62
     7
 10
139.449951171875
 20
24.60005187988281
 42
0.1103785476707938
  0
VERTEX
  8
0
  6
CONTINUOUS
 62
     7
 10
138.5377970741258
 20
24.39503453062283
 42
0.1025055567419272
  0
VERTEX
  8
0
  6
CONTINUOUS
 62
     7
 10
137.7904658750024
 20
23.8310270031657
 42
0.09328871158638327
  0
VERTEX
  8
0
  6
CONTINUOUS
 62
     7
 10
137.3128600553919
 20
23.02413811785567
 42
0.08782030193817757
  0
VERTEX
  8
0
  6
CONTINUOUS
 62
     7
 10
137.1499633789063
 20
22.10003662109375
 42
0.08777189560579667
  0
VERTEX
  8
0
  6
CONTINUOUS
 62
     7
 10
137.3126834883735
 20
21.17641986950956
 42
0.09326090936433087
  0
VERTEX
  8
0
  6
CONTINUOUS
 62
     7
 10
137.7899734797451
 20
20.36961263520663
 42
0.1026322129750716
  0
VERTEX
  8
0
  6
CONTINUOUS
 62
     7
 10
138.5381753728122
 20
19.80487952799877
 42
0.1103323247533414
  0
VERTEX
  8
0
  6
CONTINUOUS
 62
     7
 10
139.449951171875
 20
19.60005187988281
 42
0.110380606581062
  0
VERTEX
  8
0
  6
CONTINUOUS
 62
     7
 10
140.3621068990063
 20
19.80506041229234
 42
0.1025073495113161
  0
VERTEX
  8
0
  6
CONTINUOUS
 62
     7
 10
141.1094387137911
 20
20.36906670973414
 42
0.09328891142491323
  0
VERTEX
  8
0
  6
CONTINUOUS
 62
     7
 10
141.5870423650385
 20
21.17595677271468
 42
0.08781967708484612
  0
VERTEX
  8
0
  6
CONTINUOUS
 62
     7
 10
141.7499389648438
 20
22.10006713867188
 42
0.08777261078573682
  0
VERTEX
  8
0
  6
CONTINUOUS
 62
     7
 10
141.5872173633223
 20
23.02368350317806
 42
0.09326084649298931
  0
VERTEX
  8
0
  6
CONTINUOUS
 62
     7
 10
141.1099249850778
 20
23.83048929770449
 42
0.1026313650492278
  0
VERTEX
  8
0
  6
CONTINUOUS
 62
     7
 10
140.3617223918247
 20
24.39522162193844
 42
0.110330809345985
  0
SEQEND
  8
0
  0
POLYLINE
  8
0
  6
CONTINUOUS
 62
     7
 66
     1
 10
0
 20
0
  0
VERTEX
  8
0
  6
CONTINUOUS
 62
     7
 10
140.550048828125
 20
25.35005187988281
 42
0.01434915631586787
  0
VERTEX
  8
0
  6
CONTINUOUS
 62
     7
 10
140.3911678353358
 20
25.34549009831759
 42
0.01426049029341814
  0
VERTEX
  8
0
  6
CONTINUOUS
 62
     7
 10
140.2335568628332
 20
25.33191401355876
 42
0.01417559997392734
  0
VERTEX
  8
0
  6
CONTINUOUS
 62
     7
 10
140.0774579018059
 20
25.30947066383564
 42
0.0141507843192867
  0
VERTEX
  8
0
  6
CONTINUOUS
 62
     7
 10
139.9224958607122
 20
25.2781467711801
 42
0.01410149026912474
  0
VERTEX
  8
0
  6
CONTINUOUS
 62
     7
 10
139.7692340047077
 20
25.23803862357589
 42
0.01402948227645678
  0
VERTEX
  8
0
  6
CONTINUOUS
 62
     7
 10
139.6182173143447
 20
25.18929404720227
 42
0.01393689961178933
  0
VERTEX
  8
0
  6
CONTINUOUS
 62
     7
 10
139.4699670061811
 20
25.13210819307336
 42
0.01382617919137599
  0
VERTEX
  8
0
  6
CONTINUOUS
 62
     7
 10
139.3249759132851
 20
25.06671854677402
 42
0.01369997095095079
  0
VERTEX
  8
0
  6
CONTINUOUS
 62
     7
 10
139.1837048429439
 20
24.9933993788232
 42
0.01356105117484831
  0
VERTEX
  8
0
  6
CONTINUOUS
 62
     7
 10
139.0465799755129
 20
24.91245586987147
 42
0.01332231952173004
  0
VERTEX
  8
0
  6
CONTINUOUS
 62
     7
 10
138.9148697897184
 20
24.82483709229572
 42
0.01328775384995268
  0
VERTEX
  8
0
  6
CONTINUOUS
 62
     7
 10
138.786848703292
 20
24.72947355245597
 42
0.01315481199945225
  0
VERTEX
  8
0
  6
CONTINUOUS
 62
     7
 10
138.6637963264155
 20
24.62726789931057
 42
0.01293826890408421
  0
VERTEX
  8
0
  6
CONTINUOUS
 62
     7
 10
138.5467520613029
 20
24.51925338590325
 42
0.01278028624233431
  0
VERTEX
  8
0
  6
CONTINUOUS
 62
     7
 10
138.4354156340702
 20
24.4053642545118
 42
0.01262528523500519
  0
VERTEX
  8
0
  6
CONTINUOUS
 62
     7
 10
138.3300061663628
 20
24.28596706877532
 42
0
  0
SEQEND
  8
0
  0
POLYLINE
  8
0
  6
CONTINUOUS
 62
     7
 66
     1
 10
0
 20
0
  0
VERTEX
  8
0
  6
CONTINUOUS
 62
     7
 10
138.3259806841149
 20
19.91893179790173
 42
0.06283239169690852
  0
VERTEX
  8
0
  6
CONTINUOUS
 62
     7
 10
138.8902799078084
 20
19.39275994549155
 42
0.06649755648985326
  0
VERTEX
  8
0
  6
CONTINUOUS
 62
     7
 10
139.570281260078
 20
19.02825695854516
 42
0.06915606624042447
  0
VERTEX
  8
0
  6
CONTINUOUS
 62
     7
 10
140.3226367765117
 20
18.85940187373201
 42
0.06975032428302816
  0
VERTEX
  8
0
  6
CONTINUOUS
 62
     7
 10
141.0913919732763
 20
18.90339950184149
 42
0.06816399568859298
  0
VERTEX
  8
0
  6
CONTINUOUS
 62
     7
 10
141.8192358373926
 20
19.15521999111247
 42
0.06499630438174572
  0
VERTEX
  8
0
  6
CONTINUOUS
 62
     7
 10
142.4558014539494
 20
19.59005167978642
 42
0.06129109851658481
  0
VERTEX
  8
0
  6
CONTINUOUS
 62
     7
 10
142.963858069519
 20
20.17015357896987
 42
0.05807955620379592
  0
VERTEX
  8
0
  6
CONTINUOUS
 62
     7
 10
143.3208539027112
 20
20.85414831866779
 42
0.05590509360251502
  0
VERTEX
  8
0
  6
CONTINUOUS
 62
     7
 10
143.5145116733012
 20
21.60129262700258
 42
0.05496341954820747
  0
VERTEX
  8
0
  6
CONTINUOUS
 62
     7
 10
143.5395266040953
 20
22.37201525660079
 42
0.05547382898751659
  0
VERTEX
  8
0
  6
CONTINUOUS
 62
     7
 10
143.3954479842896
 20
23.12990472851046
 42
0.0572803830424445
  0
VERTEX
  8
0
  6
CONTINUOUS
 62
     7
 10
143.0860387949653
 20
23.83634672909609
 42
0.06026828388606619
  0
VERTEX
  8
0
  6
CONTINUOUS
 62
     7
 10
142.6208002160691
 20
24.45165620687124
 42
0.06395245113422776
  0
VERTEX
  8
0
  6
CONTINUOUS
 62
     7
 10
142.0185940118113
 20
24.93403520255264
 42
0.06744497101989233
  0
VERTEX
  8
0
  6
CONTINUOUS
 62
     7
 10
141.3119367639444
 20
25.24349749806653
 42
0.06944158250135915
  0
VERTEX
  8
0
  6
CONTINUOUS
 62
     7
 10
140.550048828125
 20
25.35005187988281
 42
0
  0
SEQEND
  8
0
  0
TEXT
  8
0
  6
CONTINUOUS
 62
     7
 10
-1.285500049591065
 20
-11.79999995231628
 40
3.599999904632568
 41
1.007125066575079
  1
SR20TBM
  0
ENDSEC
  0
EOF
