  0
SECTION
  2
HEADER
  0
ENDSEC
  0
SECTION
  2
TABLES
  0
TABLE
  2
LTYPE
 70
    22
  0
LTYPE
  2
CONTINUOUS
 70
    64
  3
Solid line
 72
    65
 73
     0
 40
0.000000
  0
LTYPE
  2
DASHED
 70
    64
  3
__ __ __ __ __ __ __ __ __ __ __ __ __ __ __
 72
    65
 73
     2
 40
3.500000
 49
2.000000
 49
-1.500000
  0
LTYPE
  2
CENTER
 70
    64
  3
____ _ ____ _ ____ _ ____ _ ____ _ ____ _ ____
 72
    65
 73
     4
 40
17.500000
 49
13.000000
 49
-1.500000
 49
1.500000
 49
-1.500000
  0
LTYPE
  2
PHANTOM
 70
    64
  3
_____ _ _ _____ _ _ _____ _ _ _____ _ _ ____  
 72
    65
 73
     6
 40
15.500000
 49
8.000000
 49
-1.500000
 49
1.500000
 49
-1.500000
 49
1.500000
 49
-1.500000
  0
LTYPE
  2
DOT
 70
    64
  3
. . . . . . . . . . . . . . . . . . . . . . . .
 72
    65
 73
     2
 40
0.25
 49
0.0
 49
-0.25
  0
ENDTAB
  0
TABLE
  2
LAYER
 70
     1
  0
LAYER
  2
0
 70
     0
 62
     7
  6
CONTINUOUS
  0
ENDTAB
  0
TABLE
  2
STYLE
 70
     1
  0
STYLE
  2
STANDARD
 70
     0
 40
0.000000
 41
1.000000
 50
0.000000
 71
     0
 42
0.200000
  3
txt
  4
BIGFONT
  0
ENDTAB
  0
TABLE
  2
VIEW
 70
     0
  0
ENDTAB
  0
ENDSEC
  0
SECTION
  2
BLOCKS
  0
ENDSEC
  0
SECTION
  2
ENTITIES
  0
LINE
  8
0
  6
CONTINUOUS
 62
     7
 10
142.0000610351563
 20
31.79998779296875
 11
142.0000610351563
 21
9.099990844726563
  0
LINE
  8
0
  6
CONTINUOUS
 62
     7
 10
140.5000610351563
 20
31.79998779296875
 11
142.0000610351563
 21
31.79998779296875
  0
LINE
  8
0
  6
CONTINUOUS
 62
     7
 10
142.5000610351563
 20
9.899978637695313
 11
150.5000610351563
 21
9.899978637695313
  0
LINE
  8
0
  6
CONTINUOUS
 62
     7
 10
142.5004577636719
 20
31.79952430725098
 11
142.0004577636719
 21
31.29954338073731
  0
LINE
  8
0
  6
CONTINUOUS
 62
     7
 10
140.5000610351563
 20
31.79998779296875
 11
140.5000610351563
 21
9.099990844726563
  0
LINE
  8
0
  6
CONTINUOUS
 62
     7
 10
138.5000610351563
 20
18.99998474121094
 11
138.5000610351563
 21
9.099990844726563
  0
LINE
  8
0
  6
CONTINUOUS
 62
     7
 10
138.5000610351563
 20
9.099990844726563
 11
142.0000610351563
 21
9.099990844726563
  0
LINE
  8
0
  6
CONTINUOUS
 62
     7
 10
140.5001983642578
 20
20.69972038269043
 11
138.5002136230469
 21
18.99972152709961
  0
LINE
  8
0
  6
CONTINUOUS
 62
     7
 10
142.5000610351563
 20
31.79998779296875
 11
150.5000610351563
 21
31.79998779296875
  0
LINE
  8
0
  6
CONTINUOUS
 62
     7
 10
217.9999389648438
 20
9.099990844726563
 11
217.9999389648438
 21
31.79998779296875
  0
LINE
  8
0
  6
CONTINUOUS
 62
     7
 10
217.9999389648438
 20
31.79998779296875
 11
219.4999389648438
 21
31.79998779296875
  0
LINE
  8
0
  6
CONTINUOUS
 62
     7
 10
219.4999389648438
 20
9.099990844726563
 11
219.4999389648438
 21
31.79998779296875
  0
LINE
  8
0
  6
CONTINUOUS
 62
     7
 10
221.4999389648438
 20
9.099990844726563
 11
221.4999389648438
 21
18.99998474121094
  0
LINE
  8
0
  6
CONTINUOUS
 62
     7
 10
217.9999389648438
 20
9.099990844726563
 11
221.4999389648438
 21
9.099990844726563
  0
LINE
  8
0
  6
CONTINUOUS
 62
     7
 10
221.5003356933594
 20
18.99960327148438
 11
219.500244140625
 21
20.69968032836914
  0
LINE
  8
0
  6
CONTINUOUS
 62
     7
 10
70
 20
18
 11
138.5000610351563
 21
18
  0
LINE
  8
0
  6
CONTINUOUS
 62
     7
 10
70
 20
0
 11
290
 21
0
  0
LINE
  8
0
  6
CONTINUOUS
 62
     7
 10
221.4999389648438
 20
18
 11
290
 21
18
  0
LINE
  8
0
  6
CONTINUOUS
 62
     7
 10
142.5003967285156
 20
9.899771690368652
 11
142.0002746582031
 21
10.39988803863525
  0
LINE
  8
0
  6
CONTINUOUS
 62
     7
 10
209.4999389648438
 20
9.899978637695313
 11
217.4999389648438
 21
9.899978637695313
  0
LINE
  8
0
  6
CONTINUOUS
 62
     7
 10
218.0000152587891
 20
31.29989624023438
 11
217.5000610351563
 21
31.79983329772949
  0
LINE
  8
0
  6
CONTINUOUS
 62
     7
 10
209.4999389648438
 20
31.79998779296875
 11
217.4999389648438
 21
31.79998779296875
  0
LINE
  8
0
  6
CONTINUOUS
 62
     7
 10
218.0003051757813
 20
10.39965438842773
 11
217.5002899169922
 21
9.899645805358887
  0
LINE
  8
0
  6
CONTINUOUS
 62
     7
 10
142.0000610351563
 20
8.899978637695313
 11
217.9999389648438
 21
8.899978637695313
  0
LINE
  8
0
  6
CONTINUOUS
 62
     7
 10
142.0000610351563
 20
9.699966430664063
 11
142.0000610351563
 21
8.899978637695313
  0
LINE
  8
0
  6
CONTINUOUS
 62
     7
 10
217.9999389648438
 20
9.699966430664063
 11
217.9999389648438
 21
8.899978637695313
  0
LINE
  8
0
  6
CONTINUOUS
 62
     7
 10
142.0000610351563
 20
9.699966430664063
 11
217.9410400390625
 21
9.699966430664063
  0
LINE
  8
0
  6
CENTER
 62
     7
 10
127.3001022338867
 20
25.99993896484375
 11
143.2285766601563
 21
25.99993896484375
  0
LINE
  8
0
  6
CONTINUOUS
 62
     7
 10
138.5000610351563
 20
21.87995910644531
 11
138.5000610351563
 21
30.11991882324219
  0
LINE
  8
0
  6
CONTINUOUS
 62
     7
 10
135.5000610351563
 20
29.99993896484375
 11
138.5000610351563
 21
29.99993896484375
  0
LINE
  8
0
  6
CONTINUOUS
 62
     7
 10
140.5000610351563
 20
30.61993408203125
 11
139.0000610351563
 21
30.61993408203125
  0
LINE
  8
0
  6
CONTINUOUS
 62
     7
 10
140.5000610351563
 20
28.3099365234375
 11
138.5000610351563
 21
28.3099365234375
  0
LINE
  8
0
  6
CONTINUOUS
 62
     7
 10
140.5000610351563
 20
23.68995666503906
 11
138.5000610351563
 21
23.68995666503906
  0
LINE
  8
0
  6
CONTINUOUS
 62
     7
 10
139.0000762939453
 20
21.37990760803223
 11
138.5001373291016
 21
21.87985420227051
  0
LINE
  8
0
  6
CONTINUOUS
 62
     7
 10
138.5000457763672
 20
30.11985015869141
 11
139.0000457763672
 21
30.61984062194824
  0
LINE
  8
0
  6
CONTINUOUS
 62
     7
 10
136.6001586914063
 20
22.49995422363281
 11
131.3999633789063
 21
22.49995422363281
  0
LINE
  8
0
  6
CONTINUOUS
 62
     7
 10
136.6001586914063
 20
22.45994567871094
 11
136.6001586914063
 21
22.49995422363281
  0
LINE
  8
0
  6
CONTINUOUS
 62
     7
 10
137.2005004882813
 20
25.99970245361328
 11
135.6004943847656
 21
22.49970626831055
  0
LINE
  8
0
  6
CONTINUOUS
 62
     7
 10
131.4002075195313
 20
22.49960517883301
 11
131.0001831054688
 21
23.07963752746582
  0
LINE
  8
0
  6
CONTINUOUS
 62
     7
 10
131.4000549316406
 20
29.49982452392578
 11
131.0000610351563
 21
28.91981887817383
  0
LINE
  8
0
  6
CONTINUOUS
 62
     7
 10
136.6001586914063
 20
29.49993896484375
 11
131.3999633789063
 21
29.49993896484375
  0
LINE
  8
0
  6
CONTINUOUS
 62
     7
 10
137.2002410888672
 20
25.99967384338379
 11
135.6002349853516
 21
29.49968528747559
  0
LINE
  8
0
  6
CONTINUOUS
 62
     7
 10
140.5000610351563
 20
21.37995910644531
 11
139.0000610351563
 21
21.37995910644531
  0
LINE
  8
0
  6
CONTINUOUS
 62
     7
 10
135.5000610351563
 20
21.99995422363281
 11
138.5000610351563
 21
21.99995422363281
  0
LINE
  8
0
  6
CONTINUOUS
 62
     7
 10
138.1005401611328
 20
25.99972724914551
 11
136.6005401611328
 21
22.49972152709961
  0
LINE
  8
0
  6
CONTINUOUS
 62
     7
 10
138.1001281738281
 20
25.99963760375977
 11
136.6001434326172
 21
29.49961280822754
  0
LINE
  8
0
  6
CENTER
 62
     7
 10
154.5
 20
9.899978637695313
 11
154.5
 21
5.999984741210938
  0
LINE
  8
0
  6
CONTINUOUS
 62
     7
 10
152.2499389648438
 20
8.899978637695313
 11
152.3183898925781
 21
7.917610168457031
  0
LINE
  8
0
  6
CONTINUOUS
 62
     7
 10
156.6817932128906
 20
7.917645931243897
 11
156.7502288818359
 21
8.899979591369629
  0
LINE
  8
0
  6
CENTER
 62
     7
 10
205.5
 20
9.899978637695313
 11
205.5
 21
5.999984741210938
  0
LINE
  8
0
  6
CONTINUOUS
 62
     7
 10
70
 20
15.73725318908691
 11
138.5000610351563
 21
15.73725318908691
  0
LINE
  8
0
  6
CONTINUOUS
 62
     7
 10
70
 20
6.063875675201416
 11
290
 21
6.063875675201416
  0
LINE
  8
0
  6
CONTINUOUS
 62
     7
 10
70
 20
17.1500244140625
 11
138.5000610351563
 21
17.1500244140625
  0
LINE
  8
0
  6
CONTINUOUS
 62
     7
 10
70
 20
0
 11
70
 21
18
  0
LINE
  8
0
  6
CENTER
 62
     7
 10
90
 20
19
 11
90
 21
-1
  0
LINE
  8
0
  6
DASHED
 62
     7
 10
84.5
 20
9
 11
95.5
 21
9
  0
LINE
  8
0
  6
DASHED
 62
     7
 10
84.5
 20
18
 11
84.5
 21
9
  0
LINE
  8
0
  6
DASHED
 62
     7
 10
95.5
 20
18
 11
95.5
 21
9
  0
LINE
  8
0
  6
DASHED
 62
     7
 10
86.5
 20
9
 11
86.5
 21
0
  0
LINE
  8
0
  6
DASHED
 62
     7
 10
93.50003051757813
 20
9
 11
93.50003051757813
 21
0
  0
LINE
  8
0
  6
CENTER
 62
     7
 10
150
 20
9.899978637695313
 11
150
 21
-1
  0
LINE
  8
0
  6
CENTER
 62
     7
 10
210
 20
9.899978637695313
 11
210
 21
-1
  0
LINE
  8
0
  6
CENTER
 62
     7
 10
270
 20
19
 11
270
 21
-1
  0
LINE
  8
0
  6
CONTINUOUS
 62
     7
 10
290
 20
0
 11
290
 21
18
  0
LINE
  8
0
  6
CONTINUOUS
 62
     7
 10
290
 20
15.73725318908691
 11
221.4999389648438
 21
15.73725318908691
  0
LINE
  8
0
  6
CONTINUOUS
 62
     7
 10
290
 20
17.1500244140625
 11
221.4999389648438
 21
17.1500244140625
  0
LINE
  8
0
  6
CONTINUOUS
 62
     7
 10
70
 20
13.67392158508301
 11
138.5000610351563
 21
13.67392158508301
  0
LINE
  8
0
  6
CONTINUOUS
 62
     7
 10
290
 20
13.67392158508301
 11
221.4999389648438
 21
13.67392158508301
  0
LINE
  8
0
  6
CENTER
 62
     7
 10
69
 20
129.4999847412109
 11
291
 21
129.4999847412109
  0
LINE
  8
0
  6
CONTINUOUS
 62
     7
 10
142.0000610351563
 20
105.9999847412109
 11
150.5000610351563
 21
105.9999847412109
  0
LINE
  8
0
  6
CONTINUOUS
 62
     7
 10
140.5000610351563
 20
106.2499847412109
 11
142.0000610351563
 21
106.2499847412109
  0
LINE
  8
0
  6
CONTINUOUS
 62
     7
 10
70
 20
117.9999847412109
 11
138.5000610351563
 21
117.9999847412109
  0
LINE
  8
0
  6
CONTINUOUS
 62
     7
 10
138.5000457763672
 20
116.9999771118164
 11
140.5000457763672
 21
114.9999771118164
  0
LINE
  8
0
  6
CENTER
 62
     7
 10
90
 20
135.9999847412109
 11
90
 21
122.9999847412109
  0
LINE
  8
0
  6
CONTINUOUS
 62
     7
 10
70
 20
121.7793197631836
 11
129.1108245849609
 21
121.7793197631836
  0
LINE
  8
0
  6
CONTINUOUS
 62
     7
 10
70
 20
119.0072708129883
 11
131.3274078369141
 21
119.0072708129883
  0
LINE
  8
0
  6
CONTINUOUS
 62
     7
 10
150.5000610351563
 20
92.99998474121094
 11
150.5000610351563
 21
165.9999847412109
  0
LINE
  8
0
  6
CONTINUOUS
 62
     7
 10
142.0000610351563
 20
105.9999847412109
 11
142.0000610351563
 21
152.9999847412109
  0
LINE
  8
0
  6
CONTINUOUS
 62
     7
 10
140.5000610351563
 20
106.2499847412109
 11
140.5000610351563
 21
152.7499847412109
  0
LINE
  8
0
  6
CONTINUOUS
 62
     7
 10
138.5000610351563
 20
116.9999847412109
 11
138.5000610351563
 21
125.4999847412109
  0
LINE
  8
0
  6
CONTINUOUS
 62
     7
 10
142.0000610351563
 20
152.9999847412109
 11
150.5000610351563
 21
152.9999847412109
  0
LINE
  8
0
  6
CONTINUOUS
 62
     7
 10
140.5000610351563
 20
152.7499847412109
 11
142.0000610351563
 21
152.7499847412109
  0
LINE
  8
0
  6
CONTINUOUS
 62
     7
 10
70
 20
137.2206573486328
 11
138.5000610351563
 21
137.2206573486328
  0
LINE
  8
0
  6
CONTINUOUS
 62
     7
 10
70
 20
140.9999847412109
 11
138.5000610351563
 21
140.9999847412109
  0
LINE
  8
0
  6
CONTINUOUS
 62
     7
 10
138.5000457763672
 20
141.9999847412109
 11
140.5000457763672
 21
143.9999847412109
  0
LINE
  8
0
  6
CONTINUOUS
 62
     7
 10
70
 20
117.9999847412109
 11
70
 21
140.9999847412109
  0
LINE
  8
0
  6
CONTINUOUS
 62
     7
 10
70
 20
139.9926910400391
 11
138.5000610351563
 21
139.9926910400391
  0
LINE
  8
0
  6
CONTINUOUS
 62
     7
 10
217.9999389648438
 20
105.9999847412109
 11
209.4999389648438
 21
105.9999847412109
  0
LINE
  8
0
  6
CONTINUOUS
 62
     7
 10
219.4999389648438
 20
106.2499847412109
 11
217.9999389648438
 21
106.2499847412109
  0
LINE
  8
0
  6
CONTINUOUS
 62
     7
 10
290
 20
121.7793197631836
 11
221.4999389648438
 21
121.7793197631836
  0
LINE
  8
0
  6
CONTINUOUS
 62
     7
 10
290
 20
117.9999847412109
 11
221.4999389648438
 21
117.9999847412109
  0
LINE
  8
0
  6
CONTINUOUS
 62
     7
 10
221.4999389648438
 20
116.9999771118164
 11
219.4999542236328
 21
114.9999923706055
  0
LINE
  8
0
  6
CONTINUOUS
 62
     7
 10
209.4999389648438
 20
92.99998474121094
 11
209.4999389648438
 21
165.9999847412109
  0
LINE
  8
0
  6
CONTINUOUS
 62
     7
 10
290
 20
119.0072708129883
 11
221.4999389648438
 21
119.0072708129883
  0
LINE
  8
0
  6
CENTER
 62
     7
 10
270
 20
135.9999847412109
 11
270
 21
122.9999847412109
  0
LINE
  8
0
  6
CONTINUOUS
 62
     7
 10
217.9999389648438
 20
105.9999847412109
 11
217.9999389648438
 21
152.9999847412109
  0
LINE
  8
0
  6
CONTINUOUS
 62
     7
 10
219.4999389648438
 20
106.2499847412109
 11
219.4999389648438
 21
152.7499847412109
  0
LINE
  8
0
  6
CONTINUOUS
 62
     7
 10
221.4999389648438
 20
116.9999847412109
 11
221.4999389648438
 21
141.9999847412109
  0
LINE
  8
0
  6
CONTINUOUS
 62
     7
 10
217.9999389648438
 20
152.9999847412109
 11
209.4999389648438
 21
152.9999847412109
  0
LINE
  8
0
  6
CONTINUOUS
 62
     7
 10
219.4999389648438
 20
152.7499847412109
 11
217.9999389648438
 21
152.7499847412109
  0
LINE
  8
0
  6
CONTINUOUS
 62
     7
 10
290
 20
137.2206573486328
 11
221.4999389648438
 21
137.2206573486328
  0
LINE
  8
0
  6
CONTINUOUS
 62
     7
 10
290
 20
140.9999847412109
 11
221.4999389648438
 21
140.9999847412109
  0
LINE
  8
0
  6
CONTINUOUS
 62
     7
 10
221.4999389648438
 20
141.9999847412109
 11
219.4999389648438
 21
143.9999847412109
  0
LINE
  8
0
  6
CONTINUOUS
 62
     7
 10
290
 20
117.9999847412109
 11
290
 21
140.9999847412109
  0
LINE
  8
0
  6
CONTINUOUS
 62
     7
 10
290
 20
139.9926910400391
 11
221.4999389648438
 21
139.9926910400391
  0
LINE
  8
0
  6
CENTER
 62
     7
 10
210
 20
135.9999847412109
 11
210
 21
122.9999847412109
  0
LINE
  8
0
  6
CENTER
 62
     7
 10
150
 20
135.9999847412109
 11
150
 21
122.9999847412109
  0
LINE
  8
0
  6
CONTINUOUS
 62
     7
 10
138.5000762939453
 20
125.4999694824219
 11
138.5000762939453
 21
133.4999694824219
  0
LINE
  8
0
  6
CONTINUOUS
 62
     7
 10
135.2001647949219
 20
133.4999847412109
 11
138.5000762939453
 21
133.4999847412109
  0
LINE
  8
0
  6
CONTINUOUS
 62
     7
 10
136.8201904296875
 20
125.4999847412109
 11
138.5000762939453
 21
125.4999847412109
  0
LINE
  8
0
  6
CONTINUOUS
 62
     7
 10
131.2001647949219
 20
129.4999847412109
 11
131.2001647949219
 21
127.8278656005859
  0
LINE
  8
0
  6
CONTINUOUS
 62
     7
 10
138.5000610351563
 20
133.4999847412109
 11
140.5000610351563
 21
133.4999847412109
  0
LINE
  8
0
  6
CONTINUOUS
 62
     7
 10
138.5000610351563
 20
125.4999847412109
 11
140.5000610351563
 21
125.4999847412109
  0
LINE
  8
0
  6
CENTER
 62
     7
 10
130.7519073486328
 20
117.9778594970703
 11
135.6172180175781
 21
129.7237396240234
  0
LINE
  8
0
  6
CONTINUOUS
 62
     7
 10
128.9828338623047
 20
119.9784164428711
 11
133.4174652099609
 21
118.1415405273438
  0
LINE
  8
0
  6
CONTINUOUS
 62
     7
 10
129.1846008300781
 20
122.8173217773438
 11
135.2821960449219
 21
120.2916107177734
  0
LINE
  8
0
  6
CONTINUOUS
 62
     7
 10
128.9828338623047
 20
119.9784317016602
 11
129.1846008300781
 21
122.8173294067383
  0
LINE
  8
0
  6
CONTINUOUS
 62
     7
 10
133.4174652099609
 20
118.1415405273438
 11
135.2822113037109
 21
120.291618347168
  0
LINE
  8
0
  6
CONTINUOUS
 62
     7
 10
129.9233245849609
 20
126.5381774902344
 11
130.3379974365234
 21
127.5392456054688
  0
LINE
  8
0
  6
CONTINUOUS
 62
     7
 10
137.3909149169922
 20
123.4449920654297
 11
137.8055572509766
 21
124.4460525512695
  0
LINE
  8
0
  6
CONTINUOUS
 62
     7
 10
131.1174163818359
 20
127.8620758056641
 11
130.3379669189453
 21
127.5392150878906
  0
LINE
  8
0
  6
CONTINUOUS
 62
     7
 10
131.5606079101563
 20
125.2105712890625
 11
132.4331817626953
 21
127.317138671875
  0
LINE
  8
0
  6
CONTINUOUS
 62
     7
 10
135.2943878173828
 20
123.6639938354492
 11
136.1669616699219
 21
125.7705612182617
  0
LINE
  8
0
  6
CONTINUOUS
 62
     7
 10
131.117431640625
 20
127.8621368408203
 11
137.4827423095703
 21
125.2255401611328
  0
LINE
  8
0
  6
CONTINUOUS
 62
     7
 10
137.8055725097656
 20
124.446044921875
 11
137.4826965332031
 21
125.2254943847656
  0
LINE
  8
0
  6
CONTINUOUS
 62
     7
 10
130.3148803710938
 20
124.2394714355469
 11
135.4885864257813
 21
122.0964279174805
  0
LINE
  8
0
  6
CONTINUOUS
 62
     7
 10
135.5257415771484
 20
121.7793197631836
 11
138.5000610351563
 21
121.7793197631836
  0
LINE
  8
0
  6
CONTINUOUS
 62
     7
 10
134.1683044433594
 20
119.0072708129883
 11
138.5000610351563
 21
119.0072708129883
  0
LINE
  8
0
  6
CONTINUOUS
 62
     7
 10
138.5000610351563
 20
133.4999847412109
 11
138.5000610351563
 21
141.9999847412109
  0
LINE
  8
0
  6
CONTINUOUS
 62
     7
 10
130.1531066894531
 20
125.793586730957
 11
136.701904296875
 21
123.0809860229492
  0
LINE
  8
0
  6
CONTINUOUS
 62
     7
 10
22.35009765625
 20
9.699981689453125
 11
22.7001953125
 21
9.699981689453125
  0
LINE
  8
0
  6
CENTER
 62
     7
 10
0
 20
34.75375366210938
 11
0
 21
-1.576812744140625
  0
LINE
  8
0
  6
CONTINUOUS
 62
     7
 10
-11.5
 20
17.14999389648438
 11
-11.5
 21
15.73735046386719
  0
LINE
  8
0
  6
CONTINUOUS
 62
     7
 10
11.5
 20
17.14999389648438
 11
11.5
 21
15.73735046386719
  0
LINE
  8
0
  6
CONTINUOUS
 62
     7
 10
7.815573215484619
 20
9.345678329467773
 11
10.31510066986084
 21
13.67498683929443
  0
LINE
  8
0
  6
CONTINUOUS
 62
     7
 10
8.181277275085449
 20
7.979915142059326
 11
11.50033664703369
 21
6.063655853271484
  0
LINE
  8
0
  6
CONTINUOUS
 62
     7
 10
-8.18089771270752
 20
7.979831218719482
 11
-11.49986457824707
 21
6.063625335693359
  0
LINE
  8
0
  6
CONTINUOUS
 62
     7
 10
-7.720458984375
 20
18
 11
7.720703125
 21
18
  0
LINE
  8
0
  6
CONTINUOUS
 62
     7
 10
10.49267578125
 20
18
 11
10.650146484375
 21
18
  0
LINE
  8
0
  6
CONTINUOUS
 62
     7
 10
10.65018749237061
 20
17.99995231628418
 11
11.50006294250488
 21
17.15007781982422
  0
LINE
  8
0
  6
CONTINUOUS
 62
     7
 10
-11.49970054626465
 20
1.350182056427002
 11
-10.14970684051514
 21
0.0001879221963463351
  0
LINE
  8
0
  6
CONTINUOUS
 62
     7
 10
11.50041675567627
 20
1.349668264389038
 11
10.15042304992676
 21
-0.0003259320219513029
  0
LINE
  8
0
  6
CONTINUOUS
 62
     7
 10
-11.5
 20
6.06378173828125
 11
-11.5
 21
1.349990844726563
  0
LINE
  8
0
  6
CONTINUOUS
 62
     7
 10
11.5
 20
6.06378173828125
 11
11.5
 21
1.349990844726563
  0
LINE
  8
0
  6
DASHED
 62
     7
 10
-5.5
 20
9
 11
5.5
 21
9
  0
LINE
  8
0
  6
DASHED
 62
     7
 10
-5.5
 20
18
 11
-5.5
 21
9
  0
LINE
  8
0
  6
DASHED
 62
     7
 10
5.5
 20
18
 11
5.5
 21
9
  0
LINE
  8
0
  6
DASHED
 62
     7
 10
-3.5
 20
9
 11
-3.5
 21
0
  0
LINE
  8
0
  6
DASHED
 62
     7
 10
3.5
 20
9
 11
3.5
 21
0
  0
LINE
  8
0
  6
CONTINUOUS
 62
     7
 10
-2.2998046875
 20
0.5999908447265625
 11
2.300048828125
 21
0.5999908447265625
  0
LINE
  8
0
  6
CONTINUOUS
 62
     7
 10
-2.299874782562256
 20
0.5998944640159607
 11
-2.899883985519409
 21
-0.0001148838709923439
  0
LINE
  8
0
  6
CONTINUOUS
 62
     7
 10
2.30003023147583
 20
0.600024402141571
 11
2.900104284286499
 21
-4.96405664307531E-005
  0
LINE
  8
0
  6
CONTINUOUS
 62
     7
 10
2.900146484375
 20
0
 11
10.150146484375
 21
0
  0
LINE
  8
0
  6
CONTINUOUS
 62
     7
 10
-21.999755859375
 20
31.79998779296875
 11
22
 21
31.79998779296875
  0
LINE
  8
0
  6
CONTINUOUS
 62
     7
 10
23.25
 20
30.29997253417969
 11
23.25
 21
10.59999084472656
  0
LINE
  8
0
  6
CONTINUOUS
 62
     7
 10
21.75029754638672
 20
31.79995727539063
 11
23.25026512145996
 21
30.29998779296875
  0
LINE
  8
0
  6
CONTINUOUS
 62
     7
 10
23.25039100646973
 20
10.59955978393555
 11
21.75041198730469
 21
9.099579811096191
  0
LINE
  8
0
  6
CONTINUOUS
 62
     7
 10
10.655029296875
 20
9.099990844726563
 11
21.75
 21
9.099990844726563
  0
LINE
  8
0
  6
CONTINUOUS
 62
     7
 10
-8.181884765625
 20
20.69998168945313
 11
8.18212890625
 21
20.69998168945313
  0
LINE
  8
0
  6
CONTINUOUS
 62
     7
 10
8.985006332397461
 20
10.28283596038818
 11
10.6552209854126
 21
9.100007057189941
  0
LINE
  8
0
  6
CONTINUOUS
 62
     7
 10
10.01806640625
 20
20.69998168945313
 11
11.792724609375
 21
20.69998168945313
  0
LINE
  8
0
  6
CONTINUOUS
 62
     7
 10
14.10009670257568
 20
18.3928394317627
 11
11.79289531707764
 21
20.70004081726074
  0
LINE
  8
0
  6
CONTINUOUS
 62
     7
 10
14.10009765625
 20
15.06689453125
 11
14.10009765625
 21
18.3928394317627
  0
LINE
  8
0
  6
CONTINUOUS
 62
     7
 10
14.10025882720947
 20
15.06679534912109
 11
12.65526008605957
 21
12.5639820098877
  0
LINE
  8
0
  6
CONTINUOUS
 62
     7
 10
13.02122211456299
 20
11.19799423217773
 11
16.65510368347168
 21
9.099971771240234
  0
LINE
  8
0
  6
CONTINUOUS
 62
     7
 10
-10.14951896667481
 20
0
 11
-2.89990234375
 21
0
  0
LINE
  8
0
  6
CONTINUOUS
 62
     7
 10
23.5
 20
30.29997253417969
 11
23.5
 21
11.39997863769531
  0
LINE
  8
0
  6
CONTINUOUS
 62
     7
 10
22.00030517578125
 20
31.79998397827148
 11
23.50026893615723
 21
30.30000877380371
  0
LINE
  8
0
  6
CONTINUOUS
 62
     7
 10
23.25039672851563
 20
11.14960384368897
 11
23.50040245056152
 21
11.39960956573486
  0
LINE
  8
0
  6
CENTER
 62
     7
 10
-8.1180419921875
 20
25.99998474121094
 11
13.31005859375
 21
25.99998474121094
  0
LINE
  8
0
  6
CONTINUOUS
 62
     7
 10
1.780029296875
 20
29.49998474121094
 11
5.860107421875
 21
29.49998474121094
  0
LINE
  8
0
  6
CONTINUOUS
 62
     7
 10
1.780029296875
 20
22.49998474121094
 11
5.860107421875
 21
22.49998474121094
  0
LINE
  8
0
  6
CONTINUOUS
 62
     7
 10
1.130215764045715
 20
25.99998664855957
 11
1.780209541320801
 21
22.49998474121094
  0
LINE
  8
0
  6
CONTINUOUS
 62
     7
 10
1.130349636077881
 20
25.99985694885254
 11
1.780337929725647
 21
29.49982643127441
  0
LINE
  8
0
  6
CONTINUOUS
 62
     7
 10
3.440249443054199
 20
25.99996185302734
 11
4.090258121490479
 21
22.49996376037598
  0
LINE
  8
0
  6
CONTINUOUS
 62
     7
 10
3.440257787704468
 20
25.9998836517334
 11
4.090266227722168
 21
29.49988174438477
  0
LINE
  8
0
  6
CONTINUOUS
 62
     7
 10
5.950213432312012
 20
22.9698657989502
 11
5.860201358795166
 21
22.49986267089844
  0
LINE
  8
0
  6
CONTINUOUS
 62
     7
 10
5.95060396194458
 20
29.02005386352539
 11
5.860596179962158
 21
29.50004386901856
  0
LINE
  8
0
  6
CONTINUOUS
 62
     7
 10
7.76627254486084
 20
22.75420570373535
 11
10.5201416015625
 21
23.49983596801758
  0
LINE
  8
0
  6
CONTINUOUS
 62
     7
 10
7.750194072723389
 20
29.24988746643066
 11
10.52032375335693
 21
28.49985313415527
  0
LINE
  8
0
  6
CONTINUOUS
 62
     7
 10
0.00245783175341785
 20
21.3818302154541
 11
1.947742819786072
 21
22.49982452392578
  0
LINE
  8
0
  6
CONTINUOUS
 62
     7
 10
0.006653442978858948
 20
30.61507415771484
 11
1.938084721565247
 21
29.49996185302734
  0
LINE
  8
0
  6
CONTINUOUS
 62
     7
 10
20.10009765625
 20
9.099990844726563
 11
20.10009765625
 21
8.899978637695313
  0
LINE
  8
0
  6
CONTINUOUS
 62
     7
 10
13.10009765625
 20
8.899978637695313
 11
20.10009765625
 21
8.899978637695313
  0
LINE
  8
0
  6
CONTINUOUS
 62
     7
 10
-35.699951171875
 20
32.99998474121094
 11
-21.449951171875
 21
32.99998474121094
  0
LINE
  8
0
  6
CONTINUOUS
 62
     7
 10
-24.64794921875
 20
9.699981689453125
 11
-22.349853515625
 21
9.699981689453125
  0
LINE
  8
0
  6
CONTINUOUS
 62
     7
 10
-10.31409358978272
 20
13.67552947998047
 11
-7.814566612243652
 21
9.346222877502441
  0
LINE
  8
0
  6
CONTINUOUS
 62
     7
 10
-10.64990234375
 20
18
 11
-10.492431640625
 21
18
  0
LINE
  8
0
  6
CONTINUOUS
 62
     7
 10
-11.49987602233887
 20
17.14988517761231
 11
-10.64987182617188
 21
17.9998893737793
  0
LINE
  8
0
  6
CONTINUOUS
 62
     7
 10
-23.25
 20
10.59999084472656
 11
-23.25
 21
30.29997253417969
  0
LINE
  8
0
  6
CONTINUOUS
 62
     7
 10
-23.24958229064941
 20
30.29952812194824
 11
-21.74958229064941
 21
31.79953002929688
  0
LINE
  8
0
  6
CONTINUOUS
 62
     7
 10
-21.74970626831055
 20
9.100189208984375
 11
-23.24954605102539
 21
10.60002899169922
  0
LINE
  8
0
  6
CONTINUOUS
 62
     7
 10
-21.749755859375
 20
9.099990844726563
 11
-10.65478515625
 21
9.099990844726563
  0
LINE
  8
0
  6
CONTINUOUS
 62
     7
 10
-10.65481853485107
 20
9.099789619445801
 11
-8.984492301940918
 21
10.28269767761231
  0
LINE
  8
0
  6
CONTINUOUS
 62
     7
 10
-11.79248046875
 20
20.69998168945313
 11
-10.017822265625
 21
20.69998168945313
  0
LINE
  8
0
  6
CONTINUOUS
 62
     7
 10
-11.79215812683106
 20
20.69955062866211
 11
-14.09985446929932
 21
18.39185523986816
  0
LINE
  8
0
  6
CONTINUOUS
 62
     7
 10
-14.099853515625
 20
18.39185333251953
 11
-14.099853515625
 21
15.06689453125
  0
LINE
  8
0
  6
CONTINUOUS
 62
     7
 10
-12.65480804443359
 20
12.56420135498047
 11
-14.0998067855835
 21
15.06701374053955
  0
LINE
  8
0
  6
CONTINUOUS
 62
     7
 10
-16.65490913391113
 20
9.099911689758301
 11
-13.02093601226807
 21
11.19798755645752
  0
LINE
  8
0
  6
CONTINUOUS
 62
     7
 10
-23.5
 20
11.39997863769531
 11
-23.5
 21
30.29997253417969
  0
LINE
  8
0
  6
CONTINUOUS
 62
     7
 10
-23.49943351745606
 20
30.29945182800293
 11
-21.99943733215332
 21
31.79945945739746
  0
LINE
  8
0
  6
CONTINUOUS
 62
     7
 10
-23.49954414367676
 20
11.40001392364502
 11
-23.24957084655762
 21
11.15004062652588
  0
LINE
  8
0
  6
CONTINUOUS
 62
     7
 10
-20.099853515625
 20
8.899978637695313
 11
-20.099853515625
 21
9.099990844726563
  0
LINE
  8
0
  6
CONTINUOUS
 62
     7
 10
-20.099853515625
 20
8.899978637695313
 11
-13.099853515625
 21
8.899978637695313
  0
LINE
  8
0
  6
CONTINUOUS
 62
     7
 10
-3.997882127761841
 20
23.69170951843262
 11
0.002622513798996806
 21
21.38201713562012
  0
LINE
  8
0
  6
CONTINUOUS
 62
     7
 10
-3.998064994812012
 20
28.31337547302246
 11
0.006490621250122786
 21
30.6148738861084
  0
LINE
  8
0
  6
CONTINUOUS
 62
     7
 10
-3.998046875
 20
28.31353759765625
 11
-3.998046875
 21
23.69166564941406
  0
LINE
  8
0
  6
CONTINUOUS
 62
     7
 10
-35.599853515625
 20
22.99998474121094
 11
-32.815673828125
 21
22.99998474121094
  0
LINE
  8
0
  6
CONTINUOUS
 62
     7
 10
-36.5
 20
32.19996643066406
 11
-36.5
 21
23.89999389648438
  0
LINE
  8
0
  6
CONTINUOUS
 62
     7
 10
-21
 20
32.54997253417969
 11
-9
 21
32.54997253417969
  0
LINE
  8
0
  6
CONTINUOUS
 62
     7
 10
-8.549845695495606
 20
32.99982070922852
 11
-8.999850273132324
 21
32.54980087280273
  0
LINE
  8
0
  6
CONTINUOUS
 62
     7
 10
-21.44962310791016
 20
33.00000381469727
 11
-20.99974060058594
 21
32.55012130737305
  0
LINE
  8
0
  6
CONTINUOUS
 62
     7
 10
-35.69952392578125
 20
32.9995231628418
 11
-36.4995231628418
 21
32.19951248168945
  0
LINE
  8
0
  6
CONTINUOUS
 62
     7
 10
-35.5996208190918
 20
23.00010681152344
 11
-36.49972534179688
 21
23.90022468566895
  0
LINE
  8
0
  6
CONTINUOUS
 62
     7
 10
-29.9173583984375
 20
20.77657890319824
 11
-27.54523277282715
 21
11.92368412017822
  0
LINE
  8
0
  6
CENTER
 62
     7
 10
-30
 20
34.83000183105469
 11
-30
 21
17.97903442382813
  0
LINE
  8
0
  6
DASHED
 62
     7
 10
-33.5
 20
32.99998474121094
 11
-33.5
 21
22.99998474121094
  0
LINE
  8
0
  6
DASHED
 62
     7
 10
-26.5
 20
32.99998474121094
 11
-26.5
 21
22.99998474121094
  0
LINE
  8
0
  6
DASHED
 62
     7
 10
-24.25
 20
22.99998474121094
 11
-24.25
 21
9.699981689453125
  0
LINE
  8
0
  6
CONTINUOUS
 62
     7
 10
21.4501953125
 20
32.99998474121094
 11
35.7001953125
 21
32.99998474121094
  0
LINE
  8
0
  6
CONTINUOUS
 62
     7
 10
22.35009765625
 20
9.699981689453125
 11
24.648193359375
 21
9.699981689453125
  0
LINE
  8
0
  6
CONTINUOUS
 62
     7
 10
32.81591796875
 20
22.99998474121094
 11
35.60009765625
 21
22.99998474121094
  0
LINE
  8
0
  6
CONTINUOUS
 62
     7
 10
36.5
 20
23.89999389648438
 11
36.5
 21
32.19996643066406
  0
LINE
  8
0
  6
CONTINUOUS
 62
     7
 10
-8.5498046875
 20
32.99998474121094
 11
8.550048828125
 21
32.99998474121094
  0
LINE
  8
0
  6
CONTINUOUS
 62
     7
 10
9
 20
32.54997253417969
 11
21
 21
32.54997253417969
  0
LINE
  8
0
  6
CONTINUOUS
 62
     7
 10
9.000244140625
 20
32.54975128173828
 11
8.550196647644043
 21
32.99981307983398
  0
LINE
  8
0
  6
CONTINUOUS
 62
     7
 10
21.0003604888916
 20
32.54959869384766
 11
21.45035171508789
 21
32.99958801269531
  0
LINE
  8
0
  6
CONTINUOUS
 62
     7
 10
36.50034713745117
 20
32.19998168945313
 11
35.7001953125
 21
33.00014495849609
  0
LINE
  8
0
  6
CONTINUOUS
 62
     7
 10
36.50036239624023
 20
23.89961051940918
 11
35.60036849975586
 21
22.99960136413574
  0
LINE
  8
0
  6
CONTINUOUS
 62
     7
 10
27.54607200622559
 20
11.92345333099365
 11
29.91819763183594
 21
20.77634620666504
  0
LINE
  8
0
  6
CENTER
 62
     7
 10
30
 20
17.97903442382813
 11
30
 21
34.83000183105469
  0
LINE
  8
0
  6
DASHED
 62
     7
 10
-32.815673828125
 20
22.99998474121094
 11
-24.25
 21
22.99998474121094
  0
LINE
  8
0
  6
CONTINUOUS
 62
     7
 10
-20.099853515625
 20
8.899978637695313
 11
-20.099853515625
 21
9.099990844726563
  0
LINE
  8
0
  6
CONTINUOUS
 62
     7
 10
150.5
 20
32.199951171875
 11
150.5
 21
9.699981689453125
  0
LINE
  8
0
  6
CONTINUOUS
 62
     7
 10
209.4998931884766
 20
32.199951171875
 11
209.4998931884766
 21
9.699981689453125
  0
LINE
  8
0
  6
CONTINUOUS
 62
     7
 10
151.300048828125
 20
32.99998474121094
 11
208.6999969482422
 21
32.99998474121094
  0
LINE
  8
0
  6
CENTER
 62
     7
 10
162.5
 20
33.99998474121094
 11
162.5
 21
9.217624664306641
  0
LINE
  8
0
  6
CENTER
 62
     7
 10
197.5
 20
33.99998474121094
 11
197.5
 21
9.217624664306641
  0
LINE
  8
0
  6
CONTINUOUS
 62
     7
 10
150.5
 20
22.99996948242188
 11
209.5
 21
22.99996948242188
  0
LINE
  8
0
  6
CONTINUOUS
 62
     7
 10
151.3003692626953
 20
32.99963760375977
 11
150.5003509521484
 21
32.19963455200195
  0
LINE
  8
0
  6
CONTINUOUS
 62
     7
 10
208.7001190185547
 20
32.99986267089844
 11
209.5001068115234
 21
32.19987869262695
  0
LINE
  8
0
  6
DASHED
 62
     7
 10
159
 20
32.99998474121094
 11
159
 21
22.99996948242188
  0
LINE
  8
0
  6
DASHED
 62
     7
 10
166
 20
32.99998474121094
 11
166
 21
22.99996948242188
  0
LINE
  8
0
  6
DASHED
 62
     7
 10
194
 20
32.99998474121094
 11
194
 21
22.99996948242188
  0
LINE
  8
0
  6
DASHED
 62
     7
 10
201
 20
32.99998474121094
 11
201
 21
22.99996948242188
  0
LINE
  8
0
  6
CONTINUOUS
 62
     7
 10
168.2504730224609
 20
22.99983596801758
 11
165.1936798095703
 21
12.251540184021
  0
LINE
  8
0
  6
CONTINUOUS
 62
     7
 10
156.7501678466797
 20
22.9998779296875
 11
159.8069763183594
 21
12.25155639648438
  0
LINE
  8
0
  6
CONTINUOUS
 62
     7
 10
194.8069610595703
 20
12.25163078308106
 11
191.7501373291016
 21
22.99996376037598
  0
LINE
  8
0
  6
CONTINUOUS
 62
     7
 10
200.1934814453125
 20
12.25160694122315
 11
203.2502899169922
 21
22.99989891052246
  0
LINE
  8
0
  6
CONTINUOUS
 62
     7
 10
20.099853515625
 20
9.099990844726563
 11
20.099853515625
 21
8.899978637695313
  0
LINE
  8
0
  6
CENTER
 62
     7
 10
-16.60000038146973
 20
9.899978637695313
 11
-16.60000038146973
 21
5.999984741210938
  0
LINE
  8
0
  6
CONTINUOUS
 62
     7
 10
-18.85004997253418
 20
8.899978637695313
 11
-18.78160095214844
 21
7.91761064529419
  0
LINE
  8
0
  6
CONTINUOUS
 62
     7
 10
-14.4182186126709
 20
7.917646408081055
 11
-14.34977245330811
 21
8.899978637695313
  0
LINE
  8
0
  6
CENTER
 62
     7
 10
16.60000038146973
 20
9.899978637695313
 11
16.60000038146973
 21
5.999984741210938
  0
LINE
  8
0
  6
CONTINUOUS
 62
     7
 10
150.5000610351563
 20
92.99998474121094
 11
209.4999389648438
 21
92.99998474121094
  0
LINE
  8
0
  6
CONTINUOUS
 62
     7
 10
150.5000610351563
 20
165.9999847412109
 11
209.4999389648438
 21
165.9999847412109
  0
LINE
  8
0
  6
CONTINUOUS
 62
     7
 10
150.5000610351563
 20
120.9503021240234
 11
209.4999389648438
 21
120.9503021240234
  0
LINE
  8
0
  6
CONTINUOUS
 62
     7
 10
150.5000610351563
 20
108.0503845214844
 11
209.4999389648438
 21
108.0503845214844
  0
LINE
  8
0
  6
CONTINUOUS
 62
     7
 10
150.5000610351563
 20
138.0496673583984
 11
209.4999389648438
 21
138.0496673583984
  0
LINE
  8
0
  6
CONTINUOUS
 62
     7
 10
150.5000610351563
 20
150.9495849609375
 11
209.4999389648438
 21
150.9495849609375
  0
LINE
  8
0
  6
CENTER
 62
     7
 10
162.5
 20
103.9999847412109
 11
162.5
 21
94.99998474121094
  0
LINE
  8
0
  6
CENTER
 62
     7
 10
158
 20
99.49998474121094
 11
167
 21
99.49998474121094
  0
LINE
  8
0
  6
CENTER
 62
     7
 10
158
 20
159.4999847412109
 11
167
 21
159.4999847412109
  0
LINE
  8
0
  6
CENTER
 62
     7
 10
162.5
 20
154.9999847412109
 11
162.5
 21
163.9999847412109
  0
LINE
  8
0
  6
CENTER
 62
     7
 10
202
 20
159.4999847412109
 11
193
 21
159.4999847412109
  0
LINE
  8
0
  6
CENTER
 62
     7
 10
202
 20
99.49998474121094
 11
193
 21
99.49998474121094
  0
LINE
  8
0
  6
CENTER
 62
     7
 10
197.5
 20
103.9999847412109
 11
197.5
 21
94.99998474121094
  0
LINE
  8
0
  6
CENTER
 62
     7
 10
197.5
 20
154.9999847412109
 11
197.5
 21
163.9999847412109
  0
ARC
  8
0
  6
CONTINUOUS
 62
     7
 10
135.5000610351563
 20
26.00003051757813
 40
3.999999999999998
 50
89.99998201391055
 51
118.4958044387708
  0
ARC
  8
0
  6
CONTINUOUS
 62
     7
 10
135.5000610351563
 20
26.00003051757813
 40
3.982465744018556
 50
241.5040862782025
 51
269.9999087030627
  0
ARC
  8
0
  6
CONTINUOUS
 62
     7
 10
154.5
 20
12.99998474121094
 40
5.999999999999999
 50
254.557342763284
 51
285.4426932088946
  0
ARC
  8
0
  6
CONTINUOUS
 62
     7
 10
155.884765625
 20
7.987533569335938
 40
0.7999999523162812
 50
285.4426932088939
 51
355.0000044143219
  0
ARC
  8
0
  6
CONTINUOUS
 62
     7
 10
153.11572265625
 20
7.987533569335938
 40
0.7999999523162842
 50
185.0000076521948
 51
254.5573427632844
  0
CIRCLE
  8
0
  6
CONTINUOUS
 62
     7
 10
90
 20
129.4999847412109
 40
3.5
  0
CIRCLE
  8
0
  6
CONTINUOUS
 62
     7
 10
90
 20
129.4999847412109
 40
5.5
  0
ARC
  8
0
  6
CONTINUOUS
 62
     7
 10
132.2333984375
 20
121.5544586181641
 40
3.299999237060557
 50
131.5803705110075
 51
157.4999548639651
  0
ARC
  8
0
  6
CONTINUOUS
 62
     7
 10
132.2333984375
 20
121.5544586181641
 40
3.29999923706055
 50
337.5000181569006
 51
3.419602296415186
  0
ARC
  8
0
  6
CONTINUOUS
 62
     7
 10
124.3170547485352
 20
124.4005584716797
 40
6.00000000000001
 50
2.43365082934552
 51
20.87173987704913
  0
ARC
  8
0
  6
CONTINUOUS
 62
     7
 10
139.8435974121094
 20
117.9692535400391
 40
6.000000000000011
 50
114.1278165022775
 51
132.5663219780771
  0
ARC
  8
0
  6
CONTINUOUS
 62
     7
 10
129.5123596191406
 20
124.6213531494141
 40
0.7999999523162822
 50
311.5798327472963
 51
2.433049772698627
  0
ARC
  8
0
  6
CONTINUOUS
 62
     7
 10
136.3260803222656
 20
121.7990112304688
 40
0.7999999523162747
 50
132.5669776762372
 51
183.4201402735702
  0
ARC
  8
0
  6
CONTINUOUS
 62
     7
 10
135.2001647949219
 20
129.4999847412109
 40
3.999999999999998
 50
89.99998201391055
 51
180.0000186693345
  0
ARC
  8
0
  6
CONTINUOUS
 62
     7
 10
0
 20
25.99998474121094
 40
3.998106002807619
 50
61.09402038976974
 51
298.9059076658729
  0
ARC
  8
0
  6
CONTINUOUS
 62
     7
 10
0
 20
25.99998474121094
 40
4
 50
240.0000239814524
 51
241.0449882829511
  0
ARC
  8
0
  6
CONTINUOUS
 62
     7
 10
13.10009765625
 20
9.699981689453125
 40
0.7999999523162841
 50
228.5898378031094
 51
270.0000179860894
  0
ARC
  8
0
  6
CONTINUOUS
 62
     7
 10
-9.099853515625
 20
21.22998046875
 40
1.059999465942384
 50
210.0000299768156
 51
329.9999718444173
  0
ARC
  8
0
  6
CONTINUOUS
 62
     7
 10
7.610107421875
 20
23.70997619628906
 40
0.9683421850204466
 50
215.3314570768741
 51
278.2972225067941
  0
ARC
  8
0
  6
CONTINUOUS
 62
     7
 10
9.33154296875
 20
10.77253723144531
 40
0.5999999642372126
 50
152.4775391823365
 51
234.6942064483157
  0
ARC
  8
0
  6
CONTINUOUS
 62
     7
 10
-13.52099609375
 20
12.0640869140625
 40
0.9999999999999991
 50
300.0001212737529
 51
29.99997351406931
  0
ARC
  8
0
  6
CONTINUOUS
 62
     7
 10
-9.331298828125
 20
10.77253723144531
 40
0.5999999642372124
 50
305.3057951455459
 51
29.99997351406932
  0
ARC
  8
0
  6
CONTINUOUS
 62
     7
 10
-13.099853515625
 20
9.699981689453125
 40
0.7999999523162845
 50
270.0000179860894
 51
311.4101640181236
  0
ARC
  8
0
  6
CONTINUOUS
 62
     7
 10
-32.815673828125
 20
19.99998474121094
 40
3.000000000000001
 50
14.99994577589969
 51
89.99976344785726
  0
ARC
  8
0
  6
CONTINUOUS
 62
     7
 10
-24.64794921875
 20
12.69998168945313
 40
3
 50
195.0000602952538
 51
270.0000726276027
  0
ARC
  8
0
  6
CONTINUOUS
 62
     7
 10
32.81591796875
 20
19.99998474121094
 40
3.000000000000001
 50
90.00020057996414
 51
165.0000489877729
  0
ARC
  8
0
  6
CONTINUOUS
 62
     7
 10
24.648193359375
 20
12.69998168945313
 40
3
 50
269.999963344576
 51
345.0000029976816
  0
ARC
  8
0
  6
CONTINUOUS
 62
     7
 10
12.36572265625
 20
13.86799621582031
 40
2.059999465942384
 50
114.8437842518349
 51
185.366470979457
  0
ARC
  8
0
  6
CONTINUOUS
 62
     7
 10
-12.365478515625
 20
13.86799621582031
 40
2.059999465942383
 50
354.6335511049722
 51
65.15623441749976
  0
ARC
  8
0
  6
CONTINUOUS
 62
     7
 10
-9.1064453125
 20
19.52398681640625
 40
2.059999465942383
 50
227.714863249674
 51
312.2851214960859
  0
ARC
  8
0
  6
CONTINUOUS
 62
     7
 10
9.106689453125
 20
19.52398681640625
 40
2.059999465942383
 50
227.714863249674
 51
312.2851214960859
  0
ARC
  8
0
  6
CONTINUOUS
 62
     7
 10
8.68115234375
 20
8.846023559570313
 40
0.9999999999999994
 50
149.9999700231845
 51
240.0000066786085
  0
ARC
  8
0
  6
CONTINUOUS
 62
     7
 10
-8.680908203125
 20
8.846023559570313
 40
0.9999999999999996
 50
300.0000119907263
 51
30.00000083482606
  0
ARC
  8
0
  6
CONTINUOUS
 62
     7
 10
9.10009765625
 20
21.22998046875
 40
1.059999465942384
 50
210.0000299768156
 51
329.9999718444173
  0
ARC
  8
0
  6
CONTINUOUS
 62
     7
 10
13.521240234375
 20
12.0640869140625
 40
1.000000000000001
 50
150.0000246646978
 51
239.9998973955817
  0
ARC
  8
0
  6
CONTINUOUS
 62
     7
 10
6.6201171875
 20
30.07998657226563
 40
1.254199028015136
 50
217.8749648822735
 51
279.2353626496737
  0
ARC
  8
0
  6
CONTINUOUS
 62
     7
 10
7.610107421875
 20
28.28997802734375
 40
0.9701611399650563
 50
81.7028867762326
 51
144.668542923126
  0
ARC
  8
0
  6
CONTINUOUS
 62
     7
 10
6.6201171875
 20
21.91998291015625
 40
1.246148109436035
 50
80.76452806729958
 51
142.1250351177266
  0
ARC
  8
0
  6
CONTINUOUS
 62
     7
 10
162.5
 20
13.01762390136719
 40
2.799999237060558
 50
195.8756905468494
 51
344.1243010290997
  0
ARC
  8
0
  6
CONTINUOUS
 62
     7
 10
197.5000152587891
 20
13.01762390136719
 40
2.799999237060542
 50
195.8757451883628
 51
344.1243112743833
  0
ARC
  8
0
  6
CONTINUOUS
 62
     7
 10
-16.60000038146973
 20
12.99998474121094
 40
6.000000000000001
 50
254.557342763284
 51
285.4426932088946
  0
ARC
  8
0
  6
CONTINUOUS
 62
     7
 10
-15.21523475646973
 20
7.987533569335938
 40
0.7999999523162841
 50
285.4426932088946
 51
355.0000044143218
  0
ARC
  8
0
  6
CONTINUOUS
 62
     7
 10
-17.98427772521973
 20
7.987533569335938
 40
0.7999999523162842
 50
185.0000076521948
 51
254.5573427632839
  0
CIRCLE
  8
0
  6
CONTINUOUS
 62
     7
 10
162.5
 20
99.49998474121094
 40
3.5
  0
POLYLINE
  8
0
  6
CONTINUOUS
 62
     7
 66
     1
 10
0
 20
0
  0
VERTEX
  8
0
  6
CONTINUOUS
 62
     7
 10
132.3001098632813
 20
29.25003051757813
 42
0.01434915805958267
  0
VERTEX
  8
0
  6
CONTINUOUS
 62
     7
 10
132.1412288511863
 20
29.24546873490361
 42
0.01426049202758043
  0
VERTEX
  8
0
  6
CONTINUOUS
 62
     7
 10
131.9836178596039
 20
29.23189264684225
 42
0.01417560169498946
  0
VERTEX
  8
0
  6
CONTINUOUS
 62
     7
 10
131.8275188798557
 20
29.20944929166183
 42
0.01415078602794582
  0
VERTEX
  8
0
  6
CONTINUOUS
 62
     7
 10
131.6725568205278
 20
29.17812539141541
 42
0.01410149195053358
  0
VERTEX
  8
0
  6
CONTINUOUS
 62
     7
 10
131.5192949469746
 20
29.13801723414478
 42
0.0140294839339518
  0
VERTEX
  8
0
  6
CONTINUOUS
 62
     7
 10
131.3682782399352
 20
29.0892726461104
 42
0.01393690122434616
  0
VERTEX
  8
0
  6
CONTINUOUS
 62
     7
 10
131.2200279161399
 20
29.0320867784277
 42
0.01382618076442691
  0
VERTEX
  8
0
  6
CONTINUOUS
 62
     7
 10
131.0750368088124
 20
28.96669711679957
 42
0.01369997247501144
  0
VERTEX
  8
0
  6
CONTINUOUS
 62
     7
 10
130.9337657253771
 20
28.89337793187587
 42
0.01356105266011687
  0
VERTEX
  8
0
  6
CONTINUOUS
 62
     7
 10
130.796640846308
 20
28.81243440444731
 42
0.0133223211078966
  0
VERTEX
  8
0
  6
CONTINUOUS
 62
     7
 10
130.6649306489329
 20
28.72481560607531
 42
0.01328775540118122
  0
VERTEX
  8
0
  6
CONTINUOUS
 62
     7
 10
130.5369095525337
 20
28.6294520438397
 42
0.01315481343696028
  0
VERTEX
  8
0
  6
CONTINUOUS
 62
     7
 10
130.4138571682349
 20
28.52724636765176
 42
0.01293827021249798
  0
VERTEX
  8
0
  6
CONTINUOUS
 62
     7
 10
130.2968128982535
 20
28.41923183097361
 42
0.01278028751889869
  0
VERTEX
  8
0
  6
CONTINUOUS
 62
     7
 10
130.1854764679411
 20
28.30534267551633
 42
0.01262528647551474
  0
VERTEX
  8
0
  6
CONTINUOUS
 62
     7
 10
130.0800669989793
 20
28.18594546505733
 42
0
  0
SEQEND
  8
0
  0
POLYLINE
  8
0
  6
CONTINUOUS
 62
     7
 66
     1
 10
0
 20
0
  0
VERTEX
  8
0
  6
CONTINUOUS
 62
     7
 10
130.0760415205637
 20
23.81891067339518
 42
0.06283239181222054
  0
VERTEX
  8
0
  6
CONTINUOUS
 62
     7
 10
130.6403407070326
 20
23.29273875294227
 42
0.06649755693791656
  0
VERTEX
  8
0
  6
CONTINUOUS
 62
     7
 10
131.32034204119
 20
22.92823569133628
 42
0.06915606738000943
  0
VERTEX
  8
0
  6
CONTINUOUS
 62
     7
 10
132.0726975608397
 20
22.75938053208386
 42
0.06975032619684719
  0
VERTEX
  8
0
  6
CONTINUOUS
 62
     7
 10
132.8414527806968
 20
22.80337809427584
 42
0.06816399809970666
  0
VERTEX
  8
0
  6
CONTINUOUS
 62
     7
 10
133.5692966821876
 20
23.05519853252113
 42
0.0649963069695056
  0
VERTEX
  8
0
  6
CONTINUOUS
 62
     7
 10
134.2058623442462
 20
23.4900301884001
 42
0.06129110091034614
  0
VERTEX
  8
0
  6
CONTINUOUS
 62
     7
 10
134.7139190063235
 20
24.07013207229518
 42
0.05807955825090942
  0
VERTEX
  8
0
  6
CONTINUOUS
 62
     7
 10
135.0709148822803
 20
24.75412681127775
 42
0.05590509530234893
  0
VERTEX
  8
0
  6
CONTINUOUS
 62
     7
 10
135.2645726891612
 20
25.50127113009522
 42
0.05496342096561524
  0
VERTEX
  8
0
  6
CONTINUOUS
 62
     7
 10
135.2895876482594
 20
26.27199377808857
 42
0.05547383021882083
  0
VERTEX
  8
0
  6
CONTINUOUS
 62
     7
 10
135.1455090480994
 20
27.02988327329388
 42
0.05728038420473308
  0
VERTEX
  8
0
  6
CONTINUOUS
 62
     7
 10
134.8360998693685
 20
27.73632529951639
 42
0.0602682850968088
  0
VERTEX
  8
0
  6
CONTINUOUS
 62
     7
 10
134.3708612919409
 20
28.35163480248926
 42
0.06395245250315058
  0
VERTEX
  8
0
  6
CONTINUOUS
 62
     7
 10
133.7686550804399
 20
28.83401381989162
 42
0.06744497259980055
  0
VERTEX
  8
0
  6
CONTINUOUS
 62
     7
 10
133.0619978181196
 20
29.14347613035188
 42
0.06944158426764494
  0
VERTEX
  8
0
  6
CONTINUOUS
 62
     7
 10
132.3001098632813
 20
29.25003051757813
 42
0
  0
SEQEND
  8
0
  0
POLYLINE
  8
0
  6
CONTINUOUS
 62
     7
 66
     1
 10
0
 20
0
 70
     1
  0
VERTEX
  8
0
  6
CONTINUOUS
 62
     7
 10
131.2002563476563
 20
28.50003051757813
 42
0.1103764944182376
  0
VERTEX
  8
0
  6
CONTINUOUS
 62
     7
 10
130.2881038855972
 20
28.29500433630388
 42
0.1025037581043425
  0
VERTEX
  8
0
  6
CONTINUOUS
 62
     7
 10
129.540773310113
 20
27.73099556902766
 42
0.09328850765106911
  0
VERTEX
  8
0
  6
CONTINUOUS
 62
     7
 10
129.0631653147752
 20
26.92410786559341
 42
0.08782093042570148
  0
VERTEX
  8
0
  6
CONTINUOUS
 62
     7
 10
128.9002685546875
 20
26.00001525878907
 42
0.08777044084670649
  0
VERTEX
  8
0
  6
CONTINUOUS
 62
     7
 10
129.0629856185111
 20
25.07639771918612
 42
0.09326105345349876
  0
VERTEX
  8
0
  6
CONTINUOUS
 62
     7
 10
129.5402707761025
 20
24.26958757264977
 42
0.1026339323141519
  0
VERTEX
  8
0
  6
CONTINUOUS
 62
     7
 10
130.288471276515
 20
23.70485292021431
 42
0.1103353410567029
  0
VERTEX
  8
0
  6
CONTINUOUS
 62
     7
 10
131.2002563476563
 20
23.50003051757813
 42
0.1103785585009794
  0
VERTEX
  8
0
  6
CONTINUOUS
 62
     7
 10
132.1124104357543
 20
23.70504789474007
 42
0.1025055465480877
  0
VERTEX
  8
0
  6
CONTINUOUS
 62
     7
 10
132.8597416195052
 20
24.26905544284841
 42
0.09328870326229681
  0
VERTEX
  8
0
  6
CONTINUOUS
 62
     7
 10
133.337347451345
 20
25.07594432204814
 42
0.08782030841122017
  0
VERTEX
  8
0
  6
CONTINUOUS
 62
     7
 10
133.500244140625
 20
26.00004577636719
 42
0.08777115601943598
  0
VERTEX
  8
0
  6
CONTINUOUS
 62
     7
 10
133.3375255847707
 20
26.92366292893126
 42
0.09326099060828935
  0
VERTEX
  8
0
  6
CONTINUOUS
 62
     7
 10
132.8602380402902
 20
27.73047163569268
 42
0.1026330843960828
  0
VERTEX
  8
0
  6
CONTINUOUS
 62
     7
 10
132.1120368396412
 20
28.2952055050912
 42
0.1103338256215523
  0
SEQEND
  8
0
  0
POLYLINE
  8
0
  6
CONTINUOUS
 62
     7
 66
     1
 10
0
 20
0
  0
VERTEX
  8
0
  6
CONTINUOUS
 62
     7
 10
6.820068359375
 20
28.84996032714844
 42
0.1885789354395878
  0
VERTEX
  8
0
  6
CONTINUOUS
 62
     7
 10
6.460340646671255
 20
28.69026946488619
 42
0.07574244361845793
  0
VERTEX
  8
0
  6
CONTINUOUS
 62
     7
 10
6.216109078558669
 20
28.37243201624564
 42
0.03933441130898834
  0
VERTEX
  8
0
  6
CONTINUOUS
 62
     7
 10
6.046247817523368
 20
28.00709939669054
 42
0.02577022612805675
  0
VERTEX
  8
0
  6
CONTINUOUS
 62
     7
 10
5.924091743984418
 20
27.62295035800274
 42
0.0195044482801611
  0
VERTEX
  8
0
  6
CONTINUOUS
 62
     7
 10
5.836597916854423
 20
27.2287403653148
 42
0.01621398503864962
  0
VERTEX
  8
0
  6
CONTINUOUS
 62
     7
 10
5.777233499820523
 20
26.82915111147701
 42
0.01446599208444636
  0
VERTEX
  8
0
  6
CONTINUOUS
 62
     7
 10
5.742360581290933
 20
26.4266279631457
 42
0.013690762407594
  0
VERTEX
  8
0
  6
CONTINUOUS
 62
     7
 10
5.730106323576757
 20
26.02248506559032
 42
0.01360566335296786
  0
VERTEX
  8
0
  6
CONTINUOUS
 62
     7
 10
5.739824367267719
 20
25.61964101392962
 42
0.01431483577562925
  0
VERTEX
  8
0
  6
CONTINUOUS
 62
     7
 10
5.771975711061605
 20
25.2173908748767
 42
0.01598134685396237
  0
VERTEX
  8
0
  6
CONTINUOUS
 62
     7
 10
5.828487562983153
 20
24.81657412497144
 42
0.01902611244824396
  0
VERTEX
  8
0
  6
CONTINUOUS
 62
     7
 10
5.912549178179487
 20
24.42142185348675
 42
0.02487889210569255
  0
VERTEX
  8
0
  6
CONTINUOUS
 62
     7
 10
6.030563588864921
 20
24.03502654830077
 42
0.03729480303975538
  0
VERTEX
  8
0
  6
CONTINUOUS
 62
     7
 10
6.194635633313295
 20
23.66584298695959
 42
0.06998072190941373
  0
VERTEX
  8
0
  6
CONTINUOUS
 62
     7
 10
6.430216112886584
 20
23.33851002634552
 42
0.1738226602511976
  0
VERTEX
  8
0
  6
CONTINUOUS
 62
     7
 10
6.779979201797493
 20
23.15190671174687
 42
0
  0
SEQEND
  8
0
  0
POLYLINE
  8
0
  6
CONTINUOUS
 62
     7
 66
     1
 10
0
 20
0
 70
     1
  0
VERTEX
  8
0
  6
CONTINUOUS
 62
     7
 10
10.52001953125
 20
28.49998474121094
 42
0.255160528148053
  0
VERTEX
  8
0
  6
CONTINUOUS
 62
     7
 10
9.990202750479739
 20
28.07510308865343
 42
0.06319271445579344
  0
VERTEX
  8
0
  6
CONTINUOUS
 62
     7
 10
9.736102618308747
 20
27.41221683626699
 42
0.03518703029839516
  0
VERTEX
  8
0
  6
CONTINUOUS
 62
     7
 10
9.609370472692843
 20
26.71216599005845
 42
0.02798589179771518
  0
VERTEX
  8
0
  6
CONTINUOUS
 62
     7
 10
9.57000732421875
 20
25.99998474121094
 42
0.02790009419003748
  0
VERTEX
  8
0
  6
CONTINUOUS
 62
     7
 10
9.609141740132959
 20
25.28983573137625
 42
0.03516093888086638
  0
VERTEX
  8
0
  6
CONTINUOUS
 62
     7
 10
9.735638526659862
 20
24.58954421388883
 42
0.0631567928924706
  0
VERTEX
  8
0
  6
CONTINUOUS
 62
     7
 10
9.98967590271929
 20
23.92580448719692
 42
0.2552812160364112
  0
VERTEX
  8
0
  6
CONTINUOUS
 62
     7
 10
10.52001953125
 20
23.49998474121094
 42
0.2551559578744058
  0
VERTEX
  8
0
  6
CONTINUOUS
 62
     7
 10
11.04983493541096
 20
23.92486993124099
 42
0.06319253877387417
  0
VERTEX
  8
0
  6
CONTINUOUS
 62
     7
 10
11.30393573583335
 20
24.58775595634508
 42
0.03518717651548168
  0
VERTEX
  8
0
  6
CONTINUOUS
 62
     7
 10
11.43066852454271
 20
25.28780669155798
 42
0.02798603583736561
  0
VERTEX
  8
0
  6
CONTINUOUS
 62
     7
 10
11.47003173828125
 20
25.99998474121094
 42
0.02789900851438676
  0
VERTEX
  8
0
  6
CONTINUOUS
 62
     7
 10
11.43089016769575
 20
26.71013338220339
 42
0.03515957623320971
  0
VERTEX
  8
0
  6
CONTINUOUS
 62
     7
 10
11.30438968761925
 20
27.41042428581613
 42
0.06315466501142848
  0
VERTEX
  8
0
  6
CONTINUOUS
 62
     7
 10
11.05035327340711
 20
28.07416455411414
 42
0.2552827079446364
  0
SEQEND
  8
0
  0
TEXT
  8
0
  6
CONTINUOUS
 62
     7
 10
-11.28550004959106
 20
-31.79999995231628
 40
3.599999904632568
 41
0.8455426207593617
  1
ＳＲ２５Ｍ１ＴＢ
  0
ENDSEC
  0
EOF
