  0
SECTION
  2
HEADER
  0
ENDSEC
  0
SECTION
  2
TABLES
  0
TABLE
  2
LTYPE
 70
    22
  0
LTYPE
  2
CONTINUOUS
 70
    64
  3
Solid line
 72
    65
 73
     0
 40
0.000000
  0
LTYPE
  2
DASHED
 70
    64
  3
__ __ __ __ __ __ __ __ __ __ __ __ __ __ __
 72
    65
 73
     2
 40
3.500000
 49
2.000000
 49
-1.500000
  0
LTYPE
  2
CENTER
 70
    64
  3
____ _ ____ _ ____ _ ____ _ ____ _ ____ _ ____
 72
    65
 73
     4
 40
17.500000
 49
13.000000
 49
-1.500000
 49
1.500000
 49
-1.500000
  0
LTYPE
  2
PHANTOM
 70
    64
  3
_____ _ _ _____ _ _ _____ _ _ _____ _ _ ____  
 72
    65
 73
     6
 40
15.500000
 49
8.000000
 49
-1.500000
 49
1.500000
 49
-1.500000
 49
1.500000
 49
-1.500000
  0
LTYPE
  2
DOT
 70
    64
  3
. . . . . . . . . . . . . . . . . . . . . . . .
 72
    65
 73
     2
 40
0.25
 49
0.0
 49
-0.25
  0
ENDTAB
  0
TABLE
  2
LAYER
 70
     1
  0
LAYER
  2
0
 70
     0
 62
     7
  6
CONTINUOUS
  0
ENDTAB
  0
TABLE
  2
STYLE
 70
     1
  0
STYLE
  2
STANDARD
 70
     0
 40
0.000000
 41
1.000000
 50
0.000000
 71
     0
 42
0.200000
  3
txt
  0
ENDTAB
  0
TABLE
  2
VIEW
 70
     0
  0
ENDTAB
  0
ENDSEC
  0
SECTION
  2
BLOCKS
  0
ENDSEC
  0
SECTION
  2
ENTITIES
  0
LINE
  8
0
  6
CONTINUOUS
 62
     7
 10
16.3251953125
 20
12.50011253356934
 11
30.947998046875
 21
12.50011253356934
  0
LINE
  8
0
  6
CONTINUOUS
 62
     7
 10
14
 20
22.20010375976563
 11
14
 21
19.75230979919434
  0
LINE
  8
0
  6
CONTINUOUS
 62
     7
 10
8.6611328125
 20
11.00548267364502
 11
12.41874694824219
 21
17.51386070251465
  0
LINE
  8
0
  6
CONTINUOUS
 62
     7
 10
9.026528358459473
 20
9.640002250671387
 11
14.00046634674072
 21
6.768298625946045
  0
LINE
  8
0
  6
CONTINUOUS
 62
     7
 10
-9.025755882263184
 20
9.639863967895508
 11
-13.99969387054443
 21
6.768161296844482
  0
LINE
  8
0
  6
CONTINUOUS
 62
     7
 10
13.20016574859619
 20
23.00019645690918
 11
14.00014877319336
 21
22.2002124786377
  0
LINE
  8
0
  6
CONTINUOUS
 62
     7
 10
-14
 20
6.768402099609375
 11
-14
 21
1.650131225585938
  0
LINE
  8
0
  6
CONTINUOUS
 62
     7
 10
14
 20
6.768402099609375
 11
14
 21
1.650131225585938
  0
LINE
  8
0
  6
CONTINUOUS
 62
     7
 10
-13.9993839263916
 20
1.650317788124085
 11
-12.34935283660889
 21
0.000287060160189867
  0
LINE
  8
0
  6
CONTINUOUS
 62
     7
 10
14.00063610076904
 20
1.649577975273132
 11
12.35064888000488
 21
-0.0004095431067980826
  0
LINE
  8
0
  6
DASHED
 62
     7
 10
-5.5
 20
14.0001220703125
 11
5.5
 21
14.0001220703125
  0
LINE
  8
0
  6
DASHED
 62
     7
 10
-5.5
 20
23.00010681152344
 11
-5.5
 21
14.0001220703125
  0
LINE
  8
0
  6
DASHED
 62
     7
 10
5.5
 20
23.00010681152344
 11
5.5
 21
14.0001220703125
  0
LINE
  8
0
  6
DASHED
 62
     7
 10
-3.5
 20
14.0001220703125
 11
-3.5
 21
0.6000518798828125
  0
LINE
  8
0
  6
DASHED
 62
     7
 10
3.5
 20
14.0001220703125
 11
3.5
 21
0.6000823974609375
  0
LINE
  8
0
  6
CONTINUOUS
 62
     7
 10
-7.999314785003662
 20
0.5995972752571106
 11
-8.599323272705078
 21
-0.0004123054386582226
  0
LINE
  8
0
  6
CONTINUOUS
 62
     7
 10
-2.999905586242676
 20
0.600178599357605
 11
-2.399831533432007
 21
0.0001045578901539557
  0
LINE
  8
0
  6
CONTINUOUS
 62
     7
 10
3.000380754470825
 20
0.5997220873832703
 11
2.400393009185791
 21
-0.0002656599681358784
  0
LINE
  8
0
  6
CONTINUOUS
 62
     7
 10
8.000544548034668
 20
0.6003602743148804
 11
8.600445747375488
 21
0.0004586165014188737
  0
LINE
  8
0
  6
CONTINUOUS
 62
     7
 10
-7.999755859375
 20
0.6000518798828125
 11
-2.999755859375
 21
0.6000518798828125
  0
LINE
  8
0
  6
CONTINUOUS
 62
     7
 10
3.000244140625
 20
0.6000823974609375
 11
8.000244140625
 21
0.6000823974609375
  0
LINE
  8
0
  6
CONTINUOUS
 62
     7
 10
-2.39990234375
 20
0.0001220703125
 11
2.400146484375
 21
0.0001220703125
  0
LINE
  8
0
  6
CONTINUOUS
 62
     7
 10
12.368896484375
 20
23.00010681152344
 11
13.2001953125
 21
23.00010681152344
  0
LINE
  8
0
  6
CONTINUOUS
 62
     7
 10
29.050048828125
 20
39.15010833740234
 11
29.050048828125
 21
14.60014915466309
  0
LINE
  8
0
  6
CONTINUOUS
 62
     7
 10
-27.80013275146484
 20
41.15012359619141
 11
27.800048828125
 21
41.15012359619141
  0
LINE
  8
0
  6
CONTINUOUS
 62
     7
 10
27.05028915405273
 20
41.15031814575195
 11
29.05024147033691
 21
39.15035247802734
  0
LINE
  8
0
  6
CONTINUOUS
 62
     7
 10
27.0501594543457
 20
12.60006427764893
 11
29.0501594543457
 21
14.60006809234619
  0
LINE
  8
0
  6
CONTINUOUS
 62
     7
 10
-9.405029296875
 20
25.55013084411621
 11
9.405029296875
 21
25.55013084411621
  0
LINE
  8
0
  6
CONTINUOUS
 62
     7
 10
10.49853038787842
 20
13.09638023376465
 11
11.5752067565918
 21
12.60011386871338
  0
LINE
  8
0
  6
CONTINUOUS
 62
     7
 10
11.895263671875
 20
25.55013084411621
 11
14.3427734375
 21
25.55013084411621
  0
LINE
  8
0
  6
CONTINUOUS
 62
     7
 10
16.60009765625
 20
23.29278564453125
 11
14.34286403656006
 21
25.55010223388672
  0
LINE
  8
0
  6
CONTINUOUS
 62
     7
 10
16.60009765625
 20
19.41705894470215
 11
16.60009765625
 21
23.29278564453125
  0
LINE
  8
0
  6
CONTINUOUS
 62
     7
 10
16.60079574584961
 20
19.41669273376465
 11
14.40522384643555
 21
15.61385154724121
  0
LINE
  8
0
  6
CONTINUOUS
 62
     7
 10
14.77097415924072
 20
14.24815273284912
 11
17.62551689147949
 21
12.60008239746094
  0
LINE
  8
0
  6
CONTINUOUS
 62
     7
 10
11.5751953125
 20
12.60013389587402
 11
27.050048828125
 21
12.60013389587402
  0
LINE
  8
0
  6
CONTINUOUS
 62
     7
 10
16.32549285888672
 20
12.50009059906006
 11
16.15233039855957
 21
12.60006618499756
  0
LINE
  8
0
  6
CONTINUOUS
 62
     7
 10
24.8251953125
 20
12.50011253356934
 11
24.8251953125
 21
11.50011253356934
  0
LINE
  8
0
  6
CONTINUOUS
 62
     7
 10
15.3251953125
 20
11.50011253356934
 11
24.8251953125
 21
11.50011253356934
  0
LINE
  8
0
  6
CONTINUOUS
 62
     7
 10
14.3251953125
 20
12.60013389587402
 11
14.3251953125
 21
12.50011253356934
  0
LINE
  8
0
  6
CONTINUOUS
 62
     7
 10
-12.34918785095215
 20
0.0001220703125
 11
-8.599853515625
 21
0.0001220703125
  0
LINE
  8
0
  6
CONTINUOUS
 62
     7
 10
8.600341796875
 20
0
 11
12.350341796875
 21
0
  0
LINE
  8
0
  6
CENTER
 62
     7
 10
-5.672119140625
 20
34.00011444091797
 11
13.31005859375
 21
34.00011444091797
  0
LINE
  8
0
  6
CONTINUOUS
 62
     7
 10
1.780029296875
 20
37.50011444091797
 11
5.860107421875
 21
37.50011444091797
  0
LINE
  8
0
  6
CONTINUOUS
 62
     7
 10
1.780029296875
 20
30.50011253356934
 11
5.860107421875
 21
30.50011253356934
  0
LINE
  8
0
  6
CONTINUOUS
 62
     7
 10
1.130354523658752
 20
34.00014877319336
 11
1.780348658561707
 21
30.50014686584473
  0
LINE
  8
0
  6
CONTINUOUS
 62
     7
 10
1.130739808082581
 20
33.99992370605469
 11
1.780730843544006
 21
37.49990844726563
  0
LINE
  8
0
  6
CONTINUOUS
 62
     7
 10
3.440661668777466
 20
34.00009918212891
 11
4.090670108795166
 21
30.50010299682617
  0
LINE
  8
0
  6
CONTINUOUS
 62
     7
 10
3.440807342529297
 20
33.99989700317383
 11
4.090817928314209
 21
37.49990463256836
  0
LINE
  8
0
  6
CONTINUOUS
 62
     7
 10
5.95084810256958
 20
30.96992683410645
 11
5.860836029052734
 21
30.49992179870606
  0
LINE
  8
0
  6
CONTINUOUS
 62
     7
 10
5.951338768005371
 20
37.02032470703125
 11
5.861328125
 21
37.50033187866211
  0
LINE
  8
0
  6
CONTINUOUS
 62
     7
 10
7.766293048858643
 20
30.75421714782715
 11
10.52039813995361
 21
31.49991226196289
  0
LINE
  8
0
  6
CONTINUOUS
 62
     7
 10
7.750223636627197
 20
37.25001907348633
 11
10.52035331726074
 21
36.49998474121094
  0
LINE
  8
0
  6
CONTINUOUS
 62
     7
 10
0.00246935966424644
 20
29.38190460205078
 11
1.947793126106262
 21
30.49991989135742
  0
LINE
  8
0
  6
CONTINUOUS
 62
     7
 10
0.006916431710124016
 20
38.61507415771484
 11
1.938347697257996
 21
37.49996185302734
  0
LINE
  8
0
  6
CONTINUOUS
 62
     7
 10
29.300048828125
 20
39.65010833740234
 11
29.300048828125
 21
13.70013999938965
  0
LINE
  8
0
  6
CONTINUOUS
 62
     7
 10
27.150146484375
 20
12.70012474060059
 11
28.300048828125
 21
12.70012474060059
  0
LINE
  8
0
  6
CONTINUOUS
 62
     7
 10
27.80011367797852
 20
41.15014266967773
 11
29.30012130737305
 21
39.65012359619141
  0
LINE
  8
0
  6
CONTINUOUS
 62
     7
 10
28.30051803588867
 20
12.69958686828613
 11
29.3005313873291
 21
13.69961738586426
  0
LINE
  8
0
  6
CONTINUOUS
 62
     7
 10
-13.99960899353027
 20
22.19979858398438
 11
-13.19960403442383
 21
22.99980545043945
  0
LINE
  8
0
  6
CONTINUOUS
 62
     7
 10
-14
 20
19.75240516662598
 11
-14
 21
22.20010375976563
  0
LINE
  8
0
  6
CONTINUOUS
 62
     7
 10
-8.9482421875
 20
23.00010681152344
 11
8.948486328125
 21
23.00010681152344
  0
LINE
  8
0
  6
CONTINUOUS
 62
     7
 10
-13.199951171875
 20
23.00010681152344
 11
-12.36865234375
 21
23.00010681152344
  0
LINE
  8
0
  6
CONTINUOUS
 62
     7
 10
191.0999603271484
 20
33.99997329711914
 11
189.5999603271484
 21
30.49997520446777
  0
LINE
  8
0
  6
CONTINUOUS
 62
     7
 10
190.2001037597656
 20
33.99989318847656
 11
188.60009765625
 21
30.49989700317383
  0
LINE
  8
0
  6
CONTINUOUS
 62
     7
 10
184.3998565673828
 20
30.49974632263184
 11
183.9998321533203
 21
31.07977676391602
  0
LINE
  8
0
  6
CONTINUOUS
 62
     7
 10
184.3997955322266
 20
37.49994277954102
 11
183.9998016357422
 21
36.91993713378906
  0
LINE
  8
0
  6
CONTINUOUS
 62
     7
 10
194.999755859375
 20
12.70012474060059
 11
205.3499755859375
 21
12.70012474060059
  0
LINE
  8
0
  6
CONTINUOUS
 62
     7
 10
285
 20
12.50011253356934
 11
285
 21
11.50011253356934
  0
LINE
  8
0
  6
CONTINUOUS
 62
     7
 10
194.999755859375
 20
12.50011253356934
 11
194.999755859375
 21
11.50011253356934
  0
LINE
  8
0
  6
CONTINUOUS
 62
     7
 10
194.999755859375
 20
12.50011253356934
 11
285
 21
12.50011253356934
  0
LINE
  8
0
  6
CONTINUOUS
 62
     7
 10
194.999755859375
 20
11.50011253356934
 11
285
 21
11.50011253356934
  0
LINE
  8
0
  6
CONTINUOUS
 62
     7
 10
288.5
 20
23.0001220703125
 11
380
 21
23.0001220703125
  0
LINE
  8
0
  6
CONTINUOUS
 62
     7
 10
100
 20
0.0001220703125
 11
380
 21
0.0001220703125
  0
LINE
  8
0
  6
CONTINUOUS
 62
     7
 10
100
 20
23.0001220703125
 11
191.499755859375
 21
23.0001220703125
  0
LINE
  8
0
  6
CONTINUOUS
 62
     7
 10
188.499755859375
 20
30.00009727478027
 11
191.499755859375
 21
30.00009727478027
  0
LINE
  8
0
  6
CONTINUOUS
 62
     7
 10
191.0998382568359
 20
33.99994659423828
 11
189.599853515625
 21
37.49992370605469
  0
LINE
  8
0
  6
CONTINUOUS
 62
     7
 10
190.1998596191406
 20
34.00001525878906
 11
188.5998382568359
 21
37.50002670288086
  0
LINE
  8
0
  6
CONTINUOUS
 62
     7
 10
189.599853515625
 20
30.4600887298584
 11
189.599853515625
 21
30.50009727478027
  0
LINE
  8
0
  6
CONTINUOUS
 62
     7
 10
189.599853515625
 20
30.50009727478027
 11
184.39990234375
 21
30.50009727478027
  0
LINE
  8
0
  6
CONTINUOUS
 62
     7
 10
195.4999542236328
 20
41.14982986450195
 11
194.9999542236328
 21
40.64982986450195
  0
LINE
  8
0
  6
CONTINUOUS
 62
     7
 10
191.4998321533203
 20
38.11994171142578
 11
191.9998321533203
 21
38.61993026733398
  0
LINE
  8
0
  6
CONTINUOUS
 62
     7
 10
191.9998321533203
 20
29.38003540039063
 11
191.4998931884766
 21
29.87998199462891
  0
LINE
  8
0
  6
CONTINUOUS
 62
     7
 10
193.499755859375
 20
31.69009971618652
 11
191.499755859375
 21
31.69009971618652
  0
LINE
  8
0
  6
CONTINUOUS
 62
     7
 10
193.499755859375
 20
29.38010215759277
 11
191.999755859375
 21
29.38010215759277
  0
LINE
  8
0
  6
CONTINUOUS
 62
     7
 10
193.499755859375
 20
36.31008148193359
 11
191.499755859375
 21
36.31008148193359
  0
LINE
  8
0
  6
CONTINUOUS
 62
     7
 10
193.499755859375
 20
38.62007904052734
 11
191.999755859375
 21
38.62007904052734
  0
LINE
  8
0
  6
CONTINUOUS
 62
     7
 10
188.499755859375
 20
38.00008392333984
 11
191.499755859375
 21
38.00008392333984
  0
LINE
  8
0
  6
CONTINUOUS
 62
     7
 10
191.499755859375
 20
29.88010215759277
 11
191.499755859375
 21
38.12006378173828
  0
LINE
  8
0
  6
CENTER
 62
     7
 10
180.2998046875
 20
34.00008392333984
 11
196.228271484375
 21
34.00008392333984
  0
LINE
  8
0
  6
CONTINUOUS
 62
     7
 10
-27.150146484375
 20
12.70012474060059
 11
-28.300048828125
 21
12.70012474060059
  0
LINE
  8
0
  6
CONTINUOUS
 62
     7
 10
-28.29961776733398
 20
12.70027732849121
 11
-29.29951858520508
 21
13.70016288757324
  0
LINE
  8
0
  6
CONTINUOUS
 62
     7
 10
-27.0499210357666
 20
12.60007095336914
 11
-29.04987907409668
 21
14.60002994537354
  0
LINE
  8
0
  6
CONTINUOUS
 62
     7
 10
-29.300048828125
 20
39.65019989013672
 11
-29.300048828125
 21
13.70013999938965
  0
LINE
  8
0
  6
CONTINUOUS
 62
     7
 10
-29.050048828125
 20
39.15054702758789
 11
-29.050048828125
 21
14.60014915466309
  0
LINE
  8
0
  6
CONTINUOUS
 62
     7
 10
-3.998046875
 20
36.31063079833984
 11
-3.998046875
 21
31.67844200134277
  0
LINE
  8
0
  6
CONTINUOUS
 62
     7
 10
-0.002072235569357872
 20
29.38195419311523
 11
-3.99760913848877
 21
31.67825508117676
  0
LINE
  8
0
  6
CONTINUOUS
 62
     7
 10
-0.006407055072486401
 20
38.61492156982422
 11
-3.997984886169434
 21
36.31039047241211
  0
LINE
  8
0
  6
CONTINUOUS
 62
     7
 10
-11.5751953125
 20
12.60013389587402
 11
-27.050048828125
 21
12.60013389587402
  0
LINE
  8
0
  6
CONTINUOUS
 62
     7
 10
-14.77013683319092
 20
14.24765205383301
 11
-17.62468338012695
 21
12.59958457946777
  0
LINE
  8
0
  6
CONTINUOUS
 62
     7
 10
-10.49669361114502
 20
13.09647369384766
 11
-11.57456684112549
 21
12.59965419769287
  0
LINE
  8
0
  6
CONTINUOUS
 62
     7
 10
-8.659717559814453
 20
11.00631809234619
 11
-12.4173583984375
 21
17.51471519470215
  0
LINE
  8
0
  6
CONTINUOUS
 62
     7
 10
-16.59988021850586
 20
19.41714477539063
 11
-14.40433120727539
 21
15.61432456970215
  0
LINE
  8
0
  6
CONTINUOUS
 62
     7
 10
-16.60009765625
 20
19.41705894470215
 11
-16.60009765625
 21
23.29134559631348
  0
LINE
  8
0
  6
CONTINUOUS
 62
     7
 10
-16.60009765625
 20
23.29134559631348
 11
-14.34208011627197
 21
25.54944610595703
  0
LINE
  8
0
  6
CONTINUOUS
 62
     7
 10
-11.895263671875
 20
25.55013084411621
 11
-14.3427734375
 21
25.55013084411621
  0
LINE
  8
0
  6
CENTER
 62
     7
 10
0
 20
-0.9998779296875
 11
0
 21
43.00011444091797
  0
LINE
  8
0
  6
CONTINUOUS
 62
     7
 10
195.499755859375
 20
41.15012359619141
 11
205.3499755859375
 21
41.15012359619141
  0
LINE
  8
0
  6
CONTINUOUS
 62
     7
 10
194.999755859375
 20
41.15012359619141
 11
194.999755859375
 21
12.50011253356934
  0
LINE
  8
0
  6
CONTINUOUS
 62
     7
 10
205.3499755859375
 20
41.15012359619141
 11
205.3499755859375
 21
12.50011253356934
  0
LINE
  8
0
  6
CONTINUOUS
 62
     7
 10
-24.824951171875
 20
11.50011253356934
 11
-24.824951171875
 21
12.50011253356934
  0
LINE
  8
0
  6
CONTINUOUS
 62
     7
 10
285
 20
12.60013389587402
 11
288.5
 21
12.60013389587402
  0
LINE
  8
0
  6
CONTINUOUS
 62
     7
 10
286.5
 20
12.60013389587402
 11
286.5
 21
41.15012359619141
  0
LINE
  8
0
  6
CONTINUOUS
 62
     7
 10
288.5
 20
12.60013389587402
 11
288.5
 21
24.0001220703125
  0
LINE
  8
0
  6
CONTINUOUS
 62
     7
 10
285.000244140625
 20
40.65001678466797
 11
284.5003051757813
 21
41.14995956420898
  0
LINE
  8
0
  6
CONTINUOUS
 62
     7
 10
285
 20
41.15012359619141
 11
286.5
 21
41.15012359619141
  0
LINE
  8
0
  6
CONTINUOUS
 62
     7
 10
274.64990234375
 20
12.50011253356934
 11
274.64990234375
 21
41.15012359619141
  0
LINE
  8
0
  6
CONTINUOUS
 62
     7
 10
285
 20
12.50011253356934
 11
285
 21
41.15012359619141
  0
LINE
  8
0
  6
CONTINUOUS
 62
     7
 10
274.64990234375
 20
41.15012359619141
 11
284.5
 21
41.15012359619141
  0
LINE
  8
0
  6
CONTINUOUS
 62
     7
 10
274.64990234375
 20
12.70012474060059
 11
285
 21
12.70012474060059
  0
LINE
  8
0
  6
CONTINUOUS
 62
     7
 10
205.3499755859375
 20
12.50011253356934
 11
274.64990234375
 21
12.50011253356934
  0
LINE
  8
0
  6
CONTINUOUS
 62
     7
 10
-30.947998046875
 20
12.50011253356934
 11
-16.32525634765625
 21
12.50011253356934
  0
LINE
  8
0
  6
CONTINUOUS
 62
     7
 10
193.499755859375
 20
41.15012359619141
 11
193.499755859375
 21
12.60013389587402
  0
LINE
  8
0
  6
CONTINUOUS
 62
     7
 10
-16.32537651062012
 20
12.50003528594971
 11
-16.15226745605469
 21
12.59998226165772
  0
LINE
  8
0
  6
CONTINUOUS
 62
     7
 10
-24.824951171875
 20
11.50011253356934
 11
-15.324951171875
 21
11.50011253356934
  0
LINE
  8
0
  6
CONTINUOUS
 62
     7
 10
191.5
 20
12.60013389587402
 11
194.999755859375
 21
12.60013389587402
  0
LINE
  8
0
  6
CONTINUOUS
 62
     7
 10
193.499755859375
 20
41.15012359619141
 11
194.999755859375
 21
41.15012359619141
  0
LINE
  8
0
  6
CONTINUOUS
 62
     7
 10
189.599853515625
 20
37.50008392333984
 11
184.39990234375
 21
37.50008392333984
  0
LINE
  8
0
  6
CONTINUOUS
 62
     7
 10
-14.324951171875
 20
12.60013389587402
 11
-14.324951171875
 21
12.50011253356934
  0
LINE
  8
0
  6
CONTINUOUS
 62
     7
 10
-27.80011367797852
 20
41.15014266967773
 11
-29.30012130737305
 21
39.65012359619141
  0
LINE
  8
0
  6
CONTINUOUS
 62
     7
 10
-27.05028915405273
 20
41.15031814575195
 11
-29.05024147033691
 21
39.15035247802734
  0
LINE
  8
0
  6
CENTER
 62
     7
 10
-20.32500076293945
 20
12.50011253356934
 11
-20.32500076293945
 21
8.500114440917969
  0
LINE
  8
0
  6
CONTINUOUS
 62
     7
 10
-22.57505035400391
 20
11.50011253356934
 11
-22.50660133361816
 21
10.41773986816406
  0
LINE
  8
0
  6
CONTINUOUS
 62
     7
 10
-18.14321899414063
 20
10.41777610778809
 11
-18.07477188110352
 21
11.50011253356934
  0
LINE
  8
0
  6
CENTER
 62
     7
 10
20.32500076293945
 20
12.50011253356934
 11
20.32500076293945
 21
8.500114440917969
  0
LINE
  8
0
  6
CONTINUOUS
 62
     7
 10
100
 20
23.0001220703125
 11
100
 21
0.0001220703125
  0
LINE
  8
0
  6
CENTER
 62
     7
 10
120
 20
-0.9998626708984375
 11
120
 21
24.0001220703125
  0
LINE
  8
0
  6
DASHED
 62
     7
 10
123.5
 20
14.00013732910156
 11
123.5
 21
0.0001220703125
  0
LINE
  8
0
  6
DASHED
 62
     7
 10
116.5
 20
14.00013732910156
 11
116.5
 21
0.0001220703125
  0
LINE
  8
0
  6
DASHED
 62
     7
 10
125.5
 20
23.0001220703125
 11
125.5
 21
14.00013732910156
  0
LINE
  8
0
  6
DASHED
 62
     7
 10
114.5
 20
23.0001220703125
 11
114.5
 21
14.00013732910156
  0
LINE
  8
0
  6
DASHED
 62
     7
 10
114.5
 20
14.00013732910156
 11
125.5
 21
14.00013732910156
  0
LINE
  8
0
  6
CONTINUOUS
 62
     7
 10
100
 20
22.20036125183106
 11
191.499755859375
 21
22.20036125183106
  0
LINE
  8
0
  6
CONTINUOUS
 62
     7
 10
100
 20
19.75230979919434
 11
191.499755859375
 21
19.75230979919434
  0
LINE
  8
0
  6
CONTINUOUS
 62
     7
 10
100
 20
17.51218032836914
 11
191.499755859375
 21
17.51218032836914
  0
LINE
  8
0
  6
CONTINUOUS
 62
     7
 10
100
 20
6.76856803894043
 11
380
 21
6.76856803894043
  0
LINE
  8
0
  6
CONTINUOUS
 62
     7
 10
380
 20
23.0001220703125
 11
380
 21
0.0001220703125
  0
LINE
  8
0
  6
CONTINUOUS
 62
     7
 10
288.5
 20
22.20036125183106
 11
380
 21
22.20036125183106
  0
LINE
  8
0
  6
CONTINUOUS
 62
     7
 10
288.5
 20
19.75230979919434
 11
380
 21
19.75230979919434
  0
LINE
  8
0
  6
CONTINUOUS
 62
     7
 10
288.5
 20
17.51218032836914
 11
380
 21
17.51218032836914
  0
LINE
  8
0
  6
CENTER
 62
     7
 10
200
 20
-0.9998626708984375
 11
200
 21
12.50311279296875
  0
LINE
  8
0
  6
CENTER
 62
     7
 10
280
 20
-0.9998626708984375
 11
280
 21
12.50311279296875
  0
LINE
  8
0
  6
CENTER
 62
     7
 10
360
 20
-0.9998626708984375
 11
360
 21
24.0001220703125
  0
LINE
  8
0
  6
CENTER
 62
     7
 10
210.25
 20
12.50011253356934
 11
210.25
 21
8.500114440917969
  0
LINE
  8
0
  6
CONTINUOUS
 62
     7
 10
207.9999542236328
 20
11.50011348724365
 11
208.0684051513672
 21
10.41774082183838
  0
LINE
  8
0
  6
CONTINUOUS
 62
     7
 10
212.4317779541016
 20
10.4177770614624
 11
212.5002288818359
 21
11.50011253356934
  0
LINE
  8
0
  6
CENTER
 62
     7
 10
269.75
 20
12.50011253356934
 11
269.75
 21
8.500114440917969
  0
LINE
  8
0
  6
CONTINUOUS
 62
     7
 10
286.5
 20
26.00011444091797
 11
288.5
 21
24.0001220703125
  0
LINE
  8
0
  6
CONTINUOUS
 62
     7
 10
191.5
 20
12.60013389587402
 11
191.5
 21
24.0001220703125
  0
LINE
  8
0
  6
CONTINUOUS
 62
     7
 10
193.4999847412109
 20
26.00012016296387
 11
191.5
 21
24.0001277923584
  0
LINE
  8
0
  6
CONTINUOUS
 62
     7
 10
193.499755859375
 20
137.9501037597656
 11
194.999755859375
 21
137.9501037597656
  0
LINE
  8
0
  6
CONTINUOUS
 62
     7
 10
194.999755859375
 20
137.7001037597656
 11
205.3499755859375
 21
137.7001037597656
  0
LINE
  8
0
  6
CONTINUOUS
 62
     7
 10
100
 20
153.0001068115234
 11
191.5
 21
153.0001068115234
  0
LINE
  8
0
  6
CONTINUOUS
 62
     7
 10
191.5
 20
152.0001220703125
 11
193.499755859375
 21
150.0003662109375
  0
LINE
  8
0
  6
CENTER
 62
     7
 10
120
 20
173.5001068115234
 11
120
 21
160.5001068115234
  0
LINE
  8
0
  6
CONTINUOUS
 62
     7
 10
100
 20
158.0516357421875
 11
182.0232696533203
 21
158.0516357421875
  0
LINE
  8
0
  6
CONTINUOUS
 62
     7
 10
100
 20
154.6312103271484
 11
191.5
 21
154.6312103271484
  0
LINE
  8
0
  6
CONTINUOUS
 62
     7
 10
194.999755859375
 20
137.7001037597656
 11
194.999755859375
 21
196.3001098632813
  0
LINE
  8
0
  6
CONTINUOUS
 62
     7
 10
100
 20
181.0001068115234
 11
191.5
 21
181.0001068115234
  0
LINE
  8
0
  6
CONTINUOUS
 62
     7
 10
205.3499755859375
 20
122.0001068115234
 11
205.3499755859375
 21
212.0001068115234
  0
LINE
  8
0
  6
CONTINUOUS
 62
     7
 10
191.5
 20
152.0001068115234
 11
191.5
 21
163.0001068115234
  0
LINE
  8
0
  6
CONTINUOUS
 62
     7
 10
193.499755859375
 20
196.0501098632813
 11
194.999755859375
 21
196.0501098632813
  0
LINE
  8
0
  6
CONTINUOUS
 62
     7
 10
100
 20
179.3690185546875
 11
191.5
 21
179.3690185546875
  0
LINE
  8
0
  6
CONTINUOUS
 62
     7
 10
194.999755859375
 20
196.3001098632813
 11
205.3499755859375
 21
196.3001098632813
  0
LINE
  8
0
  6
CONTINUOUS
 62
     7
 10
191.5
 20
182.0001068115234
 11
193.499755859375
 21
183.9998779296875
  0
LINE
  8
0
  6
CONTINUOUS
 62
     7
 10
100
 20
153.0001068115234
 11
100
 21
181.0001068115234
  0
LINE
  8
0
  6
CONTINUOUS
 62
     7
 10
100
 20
175.9485931396484
 11
191.5
 21
175.9485931396484
  0
LINE
  8
0
  6
CENTER
 62
     7
 10
381
 20
167.0001068115234
 11
99
 21
167.0001068115234
  0
LINE
  8
0
  6
CONTINUOUS
 62
     7
 10
380
 20
153.0001068115234
 11
288.5
 21
153.0001068115234
  0
LINE
  8
0
  6
CONTINUOUS
 62
     7
 10
286.500244140625
 20
137.9501037597656
 11
285.000244140625
 21
137.9501037597656
  0
LINE
  8
0
  6
CONTINUOUS
 62
     7
 10
380
 20
154.6312103271484
 11
288.5
 21
154.6312103271484
  0
LINE
  8
0
  6
CONTINUOUS
 62
     7
 10
285.000244140625
 20
137.7001037597656
 11
274.6500244140625
 21
137.7001037597656
  0
LINE
  8
0
  6
CONTINUOUS
 62
     7
 10
288.5
 20
152.0001220703125
 11
286.500244140625
 21
150.0003509521484
  0
LINE
  8
0
  6
CONTINUOUS
 62
     7
 10
380
 20
158.0516357421875
 11
288.5
 21
158.0516357421875
  0
LINE
  8
0
  6
CENTER
 62
     7
 10
360
 20
173.5001068115234
 11
360
 21
160.5001068115234
  0
LINE
  8
0
  6
CONTINUOUS
 62
     7
 10
285.000244140625
 20
137.7001037597656
 11
285.000244140625
 21
196.3001098632813
  0
LINE
  8
0
  6
CONTINUOUS
 62
     7
 10
380
 20
181.0001068115234
 11
288.5
 21
181.0001068115234
  0
LINE
  8
0
  6
CONTINUOUS
 62
     7
 10
274.6500244140625
 20
122.0001068115234
 11
274.6500244140625
 21
212.0001068115234
  0
LINE
  8
0
  6
CONTINUOUS
 62
     7
 10
288.5
 20
152.0001068115234
 11
288.5
 21
182.0001068115234
  0
LINE
  8
0
  6
CONTINUOUS
 62
     7
 10
286.500244140625
 20
137.9501037597656
 11
286.500244140625
 21
196.0501098632813
  0
LINE
  8
0
  6
CONTINUOUS
 62
     7
 10
286.500244140625
 20
196.0501098632813
 11
285.000244140625
 21
196.0501098632813
  0
LINE
  8
0
  6
CONTINUOUS
 62
     7
 10
380
 20
179.3690185546875
 11
288.5
 21
179.3690185546875
  0
LINE
  8
0
  6
CONTINUOUS
 62
     7
 10
285.000244140625
 20
196.3001098632813
 11
274.6500244140625
 21
196.3001098632813
  0
LINE
  8
0
  6
CONTINUOUS
 62
     7
 10
288.5
 20
182.0001220703125
 11
286.500244140625
 21
183.9998779296875
  0
LINE
  8
0
  6
CONTINUOUS
 62
     7
 10
380
 20
153.0001068115234
 11
380
 21
181.0001068115234
  0
LINE
  8
0
  6
CONTINUOUS
 62
     7
 10
380
 20
175.9485931396484
 11
288.5
 21
175.9485931396484
  0
LINE
  8
0
  6
CENTER
 62
     7
 10
280
 20
173.5001068115234
 11
280
 21
160.5001068115234
  0
LINE
  8
0
  6
CENTER
 62
     7
 10
200
 20
173.5001068115234
 11
200
 21
160.5001068115234
  0
LINE
  8
0
  6
CONTINUOUS
 62
     7
 10
191.4997711181641
 20
163.0000915527344
 11
191.4997711181641
 21
171.0000915527344
  0
LINE
  8
0
  6
CONTINUOUS
 62
     7
 10
188.1998596191406
 20
171.0001068115234
 11
191.4997711181641
 21
171.0001068115234
  0
LINE
  8
0
  6
CONTINUOUS
 62
     7
 10
189.8198852539063
 20
163.0001068115234
 11
191.4997711181641
 21
163.0001068115234
  0
LINE
  8
0
  6
CONTINUOUS
 62
     7
 10
184.1998596191406
 20
167.0001068115234
 11
184.1998596191406
 21
165.3279876708984
  0
LINE
  8
0
  6
CONTINUOUS
 62
     7
 10
191.499755859375
 20
171.0001068115234
 11
193.499755859375
 21
171.0001068115234
  0
LINE
  8
0
  6
CONTINUOUS
 62
     7
 10
191.499755859375
 20
163.0001068115234
 11
193.499755859375
 21
163.0001068115234
  0
LINE
  8
0
  6
CENTER
 62
     7
 10
183.7516174316406
 20
155.4780120849609
 11
188.6169281005859
 21
167.2238922119141
  0
LINE
  8
0
  6
CONTINUOUS
 62
     7
 10
181.9825439453125
 20
157.4785614013672
 11
186.4171752929688
 21
155.6416778564453
  0
LINE
  8
0
  6
CONTINUOUS
 62
     7
 10
182.1843109130859
 20
160.3174591064453
 11
188.2819061279297
 21
157.7917633056641
  0
LINE
  8
0
  6
CONTINUOUS
 62
     7
 10
181.9825439453125
 20
157.4785766601563
 11
182.1843109130859
 21
160.3174591064453
  0
LINE
  8
0
  6
CONTINUOUS
 62
     7
 10
186.4171600341797
 20
155.6416778564453
 11
188.2819061279297
 21
157.791748046875
  0
LINE
  8
0
  6
CONTINUOUS
 62
     7
 10
182.9230194091797
 20
164.0382995605469
 11
183.3376922607422
 21
165.0393829345703
  0
LINE
  8
0
  6
CONTINUOUS
 62
     7
 10
190.3906097412109
 20
160.9451141357422
 11
190.8052673339844
 21
161.9461822509766
  0
LINE
  8
0
  6
CONTINUOUS
 62
     7
 10
184.1171112060547
 20
165.3621978759766
 11
183.3376770019531
 21
165.0393371582031
  0
LINE
  8
0
  6
CONTINUOUS
 62
     7
 10
184.5603179931641
 20
162.710693359375
 11
185.4328918457031
 21
164.8172607421875
  0
LINE
  8
0
  6
CONTINUOUS
 62
     7
 10
188.2940979003906
 20
161.1641235351563
 11
189.1666717529297
 21
163.2706909179688
  0
LINE
  8
0
  6
CONTINUOUS
 62
     7
 10
184.1171417236328
 20
165.3622894287109
 11
190.4824371337891
 21
162.7256927490234
  0
LINE
  8
0
  6
CONTINUOUS
 62
     7
 10
190.8052825927734
 20
161.9461822509766
 11
190.4824066162109
 21
162.7256317138672
  0
LINE
  8
0
  6
CONTINUOUS
 62
     7
 10
183.3145904541016
 20
161.7396087646484
 11
188.4882965087891
 21
159.5965728759766
  0
LINE
  8
0
  6
CONTINUOUS
 62
     7
 10
188.3769989013672
 20
158.0516357421875
 11
191.5
 21
158.0516357421875
  0
LINE
  8
0
  6
CONTINUOUS
 62
     7
 10
183.1528167724609
 20
163.2937164306641
 11
189.7015991210938
 21
160.5811157226563
  0
LINE
  8
0
  6
CONTINUOUS
 62
     7
 10
193.499755859375
 20
137.9501037597656
 11
193.499755859375
 21
196.0501098632813
  0
LINE
  8
0
  6
CONTINUOUS
 62
     7
 10
191.5
 20
171.0001068115234
 11
191.5
 21
182.0001068115234
  0
LINE
  8
0
  6
DASHED
 62
     7
 10
-29
 20
32.00011444091797
 11
-29
 21
12.50011444091797
  0
LINE
  8
0
  6
CENTER
 62
     7
 10
36
 20
23.87955474853516
 11
36
 21
43.00011444091797
  0
LINE
  8
0
  6
CONTINUOUS
 62
     7
 10
33.84651947021484
 20
14.7234697341919
 11
37.68133163452148
 21
29.03518486022949
  0
LINE
  8
0
  6
CONTINUOUS
 62
     7
 10
43.75015640258789
 20
32.00008773803711
 11
45.00015258789063
 21
33.25008392333984
  0
LINE
  8
0
  6
CONTINUOUS
 62
     7
 10
45.00008392333984
 20
40.70005035400391
 11
43.70029067993164
 21
41.99985504150391
  0
LINE
  8
0
  6
CONTINUOUS
 62
     7
 10
9
 20
41.35010528564453
 11
24
 21
41.35010528564453
  0
LINE
  8
0
  6
CONTINUOUS
 62
     7
 10
24.00041007995606
 20
41.34969329833984
 11
24.65041923522949
 21
41.99970245361328
  0
LINE
  8
0
  6
CONTINUOUS
 62
     7
 10
9.000568389892578
 20
41.3499641418457
 11
8.350612640380859
 21
41.99993896484375
  0
LINE
  8
0
  6
CONTINUOUS
 62
     7
 10
41.54443359375
 20
32.00011444091797
 11
43.75
 21
32.00011444091797
  0
LINE
  8
0
  6
CONTINUOUS
 62
     7
 10
24.650146484375
 20
42.00011444091797
 11
43.7001953125
 21
42.00011444091797
  0
LINE
  8
0
  6
DASHED
 62
     7
 10
-41.544189453125
 20
32.00011444091797
 11
-29
 21
32.00011444091797
  0
LINE
  8
0
  6
DASHED
 62
     7
 10
-31.5
 20
42.00011444091797
 11
-31.5
 21
32.00011444091797
  0
LINE
  8
0
  6
DASHED
 62
     7
 10
-40.5
 20
42.00011444091797
 11
-40.5
 21
32.00011444091797
  0
LINE
  8
0
  6
CENTER
 62
     7
 10
-36
 20
43.00011444091797
 11
-36
 21
23.87955474853516
  0
LINE
  8
0
  6
CONTINUOUS
 62
     7
 10
-37.67947769165039
 20
29.0356616973877
 11
-33.84466552734375
 21
14.7239351272583
  0
LINE
  8
0
  6
CONTINUOUS
 62
     7
 10
45
 20
33.25011444091797
 11
45
 21
40.70009613037109
  0
LINE
  8
0
  6
CONTINUOUS
 62
     7
 10
-44.99942779541016
 20
33.24979400634766
 11
-43.74956130981445
 21
31.99992752075195
  0
LINE
  8
0
  6
CONTINUOUS
 62
     7
 10
-43.6995849609375
 20
41.99971389770508
 11
-45
 21
40.69928741455078
  0
LINE
  8
0
  6
CONTINUOUS
 62
     7
 10
-24
 20
41.35010528564453
 11
-9
 21
41.35010528564453
  0
LINE
  8
0
  6
CONTINUOUS
 62
     7
 10
-24.64956474304199
 20
41.99986267089844
 11
-23.99959945678711
 21
41.34989929199219
  0
LINE
  8
0
  6
CONTINUOUS
 62
     7
 10
-8.349263191223145
 20
41.99943542480469
 11
-8.999260902404785
 21
41.34941482543945
  0
LINE
  8
0
  6
CONTINUOUS
 62
     7
 10
-8.349853515625
 20
42.00011444091797
 11
8.35009765625
 21
42.00011444091797
  0
LINE
  8
0
  6
CONTINUOUS
 62
     7
 10
-43.749755859375
 20
32.00011444091797
 11
-41.544189453125
 21
32.00011444091797
  0
LINE
  8
0
  6
CONTINUOUS
 62
     7
 10
-45
 20
40.69928741455078
 11
-45
 21
33.25011444091797
  0
LINE
  8
0
  6
CONTINUOUS
 62
     7
 10
-43.699951171875
 20
42.00011444091797
 11
-24.64990234375
 21
42.00011444091797
  0
LINE
  8
0
  6
CONTINUOUS
 62
     7
 10
206.6502685546875
 20
42.00011444091797
 11
273.35009765625
 21
42.00011444091797
  0
LINE
  8
0
  6
CONTINUOUS
 62
     7
 10
205.3502197265625
 20
32.00011444091797
 11
274.650146484375
 21
32.00011444091797
  0
LINE
  8
0
  6
CONTINUOUS
 62
     7
 10
205.3507080078125
 20
40.69956588745117
 11
206.6507110595703
 21
41.99956130981445
  0
LINE
  8
0
  6
CONTINUOUS
 62
     7
 10
273.3501586914063
 20
42.00003433227539
 11
274.6502685546875
 21
40.69993209838867
  0
LINE
  8
0
  6
CENTER
 62
     7
 10
220.0001220703125
 20
43.00011444091797
 11
220.0001220703125
 21
11.68701457977295
  0
LINE
  8
0
  6
CENTER
 62
     7
 10
260.0001220703125
 20
43.00011444091797
 11
260.0001220703125
 21
11.68701457977295
  0
LINE
  8
0
  6
DASHED
 62
     7
 10
215.5001220703125
 20
42.00011444091797
 11
215.5001220703125
 21
32.00011444091797
  0
LINE
  8
0
  6
DASHED
 62
     7
 10
224.5001220703125
 20
42.00011444091797
 11
224.5001220703125
 21
32.00011444091797
  0
LINE
  8
0
  6
CONTINUOUS
 62
     7
 10
223.1189270019531
 20
15.16777420043945
 11
227.0007629394531
 21
31.99997520446777
  0
LINE
  8
0
  6
CONTINUOUS
 62
     7
 10
213.0003814697266
 20
31.99989318847656
 11
216.8822479248047
 21
15.16757202148438
  0
LINE
  8
0
  6
CONTINUOUS
 62
     7
 10
253.0004272460938
 20
31.99973487854004
 11
256.8821716308594
 21
15.16789054870606
  0
LINE
  8
0
  6
CONTINUOUS
 62
     7
 10
263.1186218261719
 20
15.16781520843506
 11
267.0004577636719
 21
32.00001525878906
  0
LINE
  8
0
  6
CONTINUOUS
 62
     7
 10
274.6500244140625
 20
122.0001068115234
 11
205.3499755859375
 21
122.0001068115234
  0
LINE
  8
0
  6
CONTINUOUS
 62
     7
 10
274.6500244140625
 20
212.0001068115234
 11
205.3499755859375
 21
212.0001068115234
  0
LINE
  8
0
  6
CONTINUOUS
 62
     7
 10
274.6500244140625
 20
158.6496734619141
 11
205.3499755859375
 21
158.6496734619141
  0
LINE
  8
0
  6
CONTINUOUS
 62
     7
 10
274.6500244140625
 20
142.3492736816406
 11
205.3499755859375
 21
142.3492736816406
  0
LINE
  8
0
  6
CONTINUOUS
 62
     7
 10
274.6500244140625
 20
191.6509399414063
 11
205.3499755859375
 21
191.6509399414063
  0
LINE
  8
0
  6
CONTINUOUS
 62
     7
 10
274.6500244140625
 20
175.3505401611328
 11
205.3499755859375
 21
175.3505401611328
  0
LINE
  8
0
  6
CENTER
 62
     7
 10
220.0001220703125
 20
136.5001068115234
 11
220.0001220703125
 21
125.5001068115234
  0
LINE
  8
0
  6
CENTER
 62
     7
 10
214.5001220703125
 20
131.0001068115234
 11
225.5001220703125
 21
131.0001068115234
  0
LINE
  8
0
  6
CENTER
 62
     7
 10
214.5001220703125
 20
203.0001068115234
 11
225.5001220703125
 21
203.0001068115234
  0
LINE
  8
0
  6
CENTER
 62
     7
 10
220.0001220703125
 20
197.5001068115234
 11
220.0001220703125
 21
208.5001068115234
  0
LINE
  8
0
  6
CENTER
 62
     7
 10
265.4998779296875
 20
203.0001068115234
 11
254.4998779296875
 21
203.0001068115234
  0
LINE
  8
0
  6
CENTER
 62
     7
 10
265.4998779296875
 20
131.0001068115234
 11
254.4998779296875
 21
131.0001068115234
  0
LINE
  8
0
  6
CENTER
 62
     7
 10
259.9998779296875
 20
136.5001068115234
 11
259.9998779296875
 21
125.5001068115234
  0
LINE
  8
0
  6
CENTER
 62
     7
 10
259.9998779296875
 20
197.5001068115234
 11
259.9998779296875
 21
208.5001068115234
  0
ARC
  8
0
  6
CONTINUOUS
 62
     7
 10
188.499755859375
 20
34.00016021728516
 40
3.999999999999998
 50
89.99998201391055
 51
118.4958044387709
  0
ARC
  8
0
  6
CONTINUOUS
 62
     7
 10
0
 20
34.00011444091797
 40
4
 50
240.0000239814524
 51
241.0449882829511
  0
ARC
  8
0
  6
CONTINUOUS
 62
     7
 10
-10.650146484375
 20
26.35011863708496
 40
1.479999542236329
 50
212.7198113043147
 51
327.2801631961615
  0
ARC
  8
0
  6
CONTINUOUS
 62
     7
 10
-15.2705078125
 20
15.11424827575684
 40
1
 50
300.0000119907262
 51
29.99999400463687
  0
ARC
  8
0
  6
CONTINUOUS
 62
     7
 10
-15.324951171875
 20
12.50011253356934
 40
0.9999999999999996
 50
270.0000179860894
 51
0
  0
ARC
  8
0
  6
CONTINUOUS
 62
     7
 10
-14.896484375
 20
17.44010925292969
 40
2.479999542236329
 50
1.719276434855397
 51
68.80853464219157
  0
ARC
  8
0
  6
CONTINUOUS
 62
     7
 10
-9.52587890625
 20
10.50614929199219
 40
1
 50
300.0000666322396
 51
29.99997351406931
  0
ARC
  8
0
  6
CONTINUOUS
 62
     7
 10
0
 20
34.00011444091797
 40
3.998106002807617
 50
61.09406820109392
 51
298.9059349866296
  0
ARC
  8
0
  6
CONTINUOUS
 62
     7
 10
-10.658447265625
 20
24.79609680175781
 40
2.479999542236328
 50
226.4018823251441
 51
313.5981741376021
  0
ARC
  8
0
  6
CONTINUOUS
 62
     7
 10
6.6201171875
 20
29.92011070251465
 40
1.246148109436035
 50
80.76452806729958
 51
142.1250351177266
  0
ARC
  8
0
  6
CONTINUOUS
 62
     7
 10
6.6201171875
 20
38.08011627197266
 40
1.254199028015138
 50
217.8749648822736
 51
279.2353626496737
  0
ARC
  8
0
  6
CONTINUOUS
 62
     7
 10
7.610107421875
 20
36.29010772705078
 40
0.9701611399650598
 50
81.70288677623263
 51
144.668542923126
  0
ARC
  8
0
  6
CONTINUOUS
 62
     7
 10
0
 20
34.00011444091797
 40
4
 50
240.0000239814524
 51
241.0449882829511
  0
ARC
  8
0
  6
CONTINUOUS
 62
     7
 10
7.610107421875
 20
31.71010398864746
 40
0.9683421850204466
 50
215.3314570768741
 51
278.2972225067941
  0
ARC
  8
0
  6
CONTINUOUS
 62
     7
 10
10.650146484375
 20
26.35011863708496
 40
1.479999542236329
 50
212.7198113043147
 51
327.2801905169181
  0
ARC
  8
0
  6
CONTINUOUS
 62
     7
 10
9.526123046875
 20
10.50614929199219
 40
1.000000000000001
 50
150.0000246646978
 51
239.9999520370951
  0
ARC
  8
0
  6
CONTINUOUS
 62
     7
 10
10.65869140625
 20
24.79609680175781
 40
2.479999542236328
 50
226.4018276836307
 51
313.5981502319399
  0
ARC
  8
0
  6
CONTINUOUS
 62
     7
 10
15.2705078125
 20
15.11424827575684
 40
0.9999999999999994
 50
149.9999700231845
 51
239.9999520370951
  0
ARC
  8
0
  6
CONTINUOUS
 62
     7
 10
15.3251953125
 20
12.50011253356934
 40
0.9999999999999999
 50
180.0000359721787
 51
270.0000179860894
  0
ARC
  8
0
  6
CONTINUOUS
 62
     7
 10
14.896728515625
 20
17.44010925292969
 40
2.479999542236328
 50
111.1975150841802
 51
178.280723451459
  0
ARC
  8
0
  6
CONTINUOUS
 62
     7
 10
188.499755859375
 20
34.00016021728516
 40
3.982465744018556
 50
241.5040862782025
 51
269.9999087030627
  0
ARC
  8
0
  6
CONTINUOUS
 62
     7
 10
-20.32500076293945
 20
15.50011444091797
 40
5.999999999999999
 50
254.557342763284
 51
285.4426932088946
  0
ARC
  8
0
  6
CONTINUOUS
 62
     7
 10
-18.94023513793945
 20
10.48766326904297
 40
0.7999999523162841
 50
285.4426932088946
 51
355.0000044143218
  0
ARC
  8
0
  6
CONTINUOUS
 62
     7
 10
-21.70927810668945
 20
10.48766326904297
 40
0.7999999523162841
 50
185.0000076521947
 51
254.5573427632839
  0
ARC
  8
0
  6
CONTINUOUS
 62
     7
 10
-10.70599269866943
 20
13.55055904388428
 40
0.4999999999999999
 50
294.7461826698283
 51
30.00010670275813
  0
ARC
  8
0
  6
CONTINUOUS
 62
     7
 10
10.70782947540283
 20
13.55046463012695
 40
0.4999999999999996
 50
149.9999973439412
 51
245.2538701504524
  0
ARC
  8
0
  6
CONTINUOUS
 62
     7
 10
210.25
 20
15.50011444091797
 40
5.999999999999998
 50
254.557342763284
 51
285.4426932088946
  0
ARC
  8
0
  6
CONTINUOUS
 62
     7
 10
211.634765625
 20
10.48766326904297
 40
0.7999999523162812
 50
285.4426932088939
 51
355.0000044143219
  0
ARC
  8
0
  6
CONTINUOUS
 62
     7
 10
208.86572265625
 20
10.48766326904297
 40
0.7999999523162841
 50
185.0000076521947
 51
254.5573427632844
  0
CIRCLE
  8
0
  6
CONTINUOUS
 62
     7
 10
120
 20
167.0001068115234
 40
3.5
  0
CIRCLE
  8
0
  6
CONTINUOUS
 62
     7
 10
120
 20
167.0001068115234
 40
5.5
  0
ARC
  8
0
  6
CONTINUOUS
 62
     7
 10
185.2331085205078
 20
159.0545806884766
 40
3.299999237060546
 50
131.5803705110077
 51
157.4999548639651
  0
ARC
  8
0
  6
CONTINUOUS
 62
     7
 10
185.2331085205078
 20
159.0545806884766
 40
3.299999237060545
 50
337.5000181569009
 51
3.419602296415186
  0
ARC
  8
0
  6
CONTINUOUS
 62
     7
 10
177.3167572021484
 20
161.9006805419922
 40
6.00000000000001
 50
2.43365082934552
 51
20.87173987704925
  0
ARC
  8
0
  6
CONTINUOUS
 62
     7
 10
192.8432922363281
 20
155.4693756103516
 40
6.000000000000011
 50
114.1278165022775
 51
132.5663219780772
  0
ARC
  8
0
  6
CONTINUOUS
 62
     7
 10
182.5120544433594
 20
162.1214752197266
 40
0.7999999523162822
 50
311.5798327472963
 51
2.433049772698627
  0
ARC
  8
0
  6
CONTINUOUS
 62
     7
 10
189.3257904052734
 20
159.2991333007813
 40
0.7999999523162747
 50
132.5669776762372
 51
183.4201402735692
  0
ARC
  8
0
  6
CONTINUOUS
 62
     7
 10
188.1998596191406
 20
167.0001068115234
 40
3.999999999999998
 50
89.99998201391055
 51
180.0000186693345
  0
ARC
  8
0
  6
CONTINUOUS
 62
     7
 10
30.947998046875
 20
15.50011444091797
 40
3.000000000000001
 50
269.9998540615493
 51
344.999941525979
  0
ARC
  8
0
  6
CONTINUOUS
 62
     7
 10
41.54443359375
 20
28.00011444091797
 40
3.999999999999998
 50
90.00009129693737
 51
164.9999943462595
  0
ARC
  8
0
  6
CONTINUOUS
 62
     7
 10
-30.947998046875
 20
15.50011444091797
 40
3
 50
195.0000602952538
 51
270.0001819106294
  0
ARC
  8
0
  6
CONTINUOUS
 62
     7
 10
-41.544189453125
 20
28.00011444091797
 40
4.000000000000003
 50
14.99996968156174
 51
89.99987273088394
  0
ARC
  8
0
  6
CONTINUOUS
 62
     7
 10
220.0001220703125
 20
15.88701438903809
 40
3.199999809265135
 50
192.9864658864207
 51
347.013471048015
  0
ARC
  8
0
  6
CONTINUOUS
 62
     7
 10
260.0001220703125
 20
15.88701438903809
 40
3.199999809265129
 50
192.9865751694475
 51
347.0135359348121
  0
CIRCLE
  8
0
  6
CONTINUOUS
 62
     7
 10
220.0001220703125
 20
131.0001068115234
 40
4.5
  0
POLYLINE
  8
0
  6
CONTINUOUS
 62
     7
 66
     1
 10
0
 20
0
  0
VERTEX
  8
0
  6
CONTINUOUS
 62
     7
 10
6.820068359375
 20
36.85009002685547
 42
0.1885850134129772
  0
VERTEX
  8
0
  6
CONTINUOUS
 62
     7
 10
6.460341604432127
 20
36.69040179809988
 42
0.07574433456337644
  0
VERTEX
  8
0
  6
CONTINUOUS
 62
     7
 10
6.216114481033111
 20
36.3725628713679
 42
0.03933452731464562
  0
VERTEX
  8
0
  6
CONTINUOUS
 62
     7
 10
6.046259075493949
 20
36.00722907433657
 42
0.02576987480433747
  0
VERTEX
  8
0
  6
CONTINUOUS
 62
     7
 10
5.924108731007764
 20
35.62307968007927
 42
0.01950391708287334
  0
VERTEX
  8
0
  6
CONTINUOUS
 62
     7
 10
5.836619937879489
 20
35.22886997410763
 42
0.01621334186955527
  0
VERTEX
  8
0
  6
CONTINUOUS
 62
     7
 10
5.777259580334277
 20
34.82928148426185
 42
0.0144652429991132
  0
VERTEX
  8
0
  6
CONTINUOUS
 62
     7
 10
5.742389548278083
 20
34.4267594460613
 42
0.01368988064069978
  0
VERTEX
  8
0
  6
CONTINUOUS
 62
     7
 10
5.730136802448818
 20
34.02261801949565
 42
0.01360475734935701
  0
VERTEX
  8
0
  6
CONTINUOUS
 62
     7
 10
5.739854797585542
 20
33.61977538858751
 42
0.01431403034856306
  0
VERTEX
  8
0
  6
CONTINUOUS
 62
     7
 10
5.772004647666633
 20
33.2175264777601
 42
0.0159806047741752
  0
VERTEX
  8
0
  6
CONTINUOUS
 62
     7
 10
5.82851369453929
 20
32.81671067704283
 42
0.01902541142528306
  0
VERTEX
  8
0
  6
CONTINUOUS
 62
     7
 10
5.912571308453802
 20
32.42155893534133
 42
0.02487821878732808
  0
VERTEX
  8
0
  6
CONTINUOUS
 62
     7
 10
6.030580626445566
 20
32.0351634836707
 42
0.0372941866298632
  0
VERTEX
  8
0
  6
CONTINUOUS
 62
     7
 10
6.194646678006634
 20
31.66597872646375
 42
0.06998044225723837
  0
VERTEX
  8
0
  6
CONTINUOUS
 62
     7
 10
6.43022091081366
 20
31.33864291899036
 42
0.1738239206409494
  0
VERTEX
  8
0
  6
CONTINUOUS
 62
     7
 10
6.779979894493045
 20
31.15203500645326
 42
0
  0
SEQEND
  8
0
  0
POLYLINE
  8
0
  6
CONTINUOUS
 62
     7
 66
     1
 10
0
 20
0
 70
     1
  0
VERTEX
  8
0
  6
CONTINUOUS
 62
     7
 10
184.199951171875
 20
36.50016021728516
 42
0.110378006786076
  0
VERTEX
  8
0
  6
CONTINUOUS
 62
     7
 10
183.2877965624275
 20
36.29514387202124
 42
0.1025056162235901
  0
VERTEX
  8
0
  6
CONTINUOUS
 62
     7
 10
182.5404639934097
 20
35.73113788547121
 42
0.09328938207692479
  0
VERTEX
  8
0
  6
CONTINUOUS
 62
     7
 10
182.0628575603589
 20
34.92424923803345
 42
0.08782010768853815
  0
VERTEX
  8
0
  6
CONTINUOUS
 62
     7
 10
181.8999633789063
 20
34.00016021728516
 42
0.08777080598963069
  0
VERTEX
  8
0
  6
CONTINUOUS
 62
     7
 10
182.0626815553477
 20
33.07654281689211
 42
0.09326002963924149
  0
VERTEX
  8
0
  6
CONTINUOUS
 62
     7
 10
182.5399667165725
 20
32.26973240196589
 42
0.1026320026005296
  0
VERTEX
  8
0
  6
CONTINUOUS
 62
     7
 10
183.2881640380589
 20
31.70499283908189
 42
0.1103345010886159
  0
VERTEX
  8
0
  6
CONTINUOUS
 62
     7
 10
184.199951171875
 20
31.50015830993652
 42
0.1103783857086744
  0
VERTEX
  8
0
  6
CONTINUOUS
 62
     7
 10
185.1121085721182
 20
31.70516219393427
 42
0.1025080195818531
  0
VERTEX
  8
0
  6
CONTINUOUS
 62
     7
 10
185.8594451167386
 20
32.26916240048303
 42
0.0932912985573327
  0
VERTEX
  8
0
  6
CONTINUOUS
 62
     7
 10
186.3370501377114
 20
33.076051553589
 42
0.08782196575435075
  0
VERTEX
  8
0
  6
CONTINUOUS
 62
     7
 10
186.4999389648438
 20
34.00016021728516
 42
0.08777000646963296
  0
VERTEX
  8
0
  6
CONTINUOUS
 62
     7
 10
186.3372105576125
 20
34.92377588551896
 42
0.09325833346238385
  0
VERTEX
  8
0
  6
CONTINUOUS
 62
     7
 10
185.859920533902
 20
35.73058364924874
 42
0.1026306647121749
  0
VERTEX
  8
0
  6
CONTINUOUS
 62
     7
 10
185.1117232539856
 20
36.29532379286149
 42
0.1103334959109805
  0
SEQEND
  8
0
  0
POLYLINE
  8
0
  6
CONTINUOUS
 62
     7
 66
     1
 10
0
 20
0
  0
VERTEX
  8
0
  6
CONTINUOUS
 62
     7
 10
185.2998046875
 20
37.25016021728516
 42
0.01434915456355406
  0
VERTEX
  8
0
  6
CONTINUOUS
 62
     7
 10
185.1409237140166
 20
37.24559843682923
 42
0.01426048855283217
  0
VERTEX
  8
0
  6
CONTINUOUS
 62
     7
 10
184.9833127605938
 20
37.23202235537294
 42
0.0141755982587739
  0
VERTEX
  8
0
  6
CONTINUOUS
 62
     7
 10
184.8272138182874
 20
37.20957901110712
 42
0.0141507826109194
  0
VERTEX
  8
0
  6
CONTINUOUS
 62
     7
 10
184.6722517954279
 20
37.17825512604244
 42
0.01410148858042861
  0
VERTEX
  8
0
  6
CONTINUOUS
 62
     7
 10
184.5189899569722
 20
37.13814698810466
 42
0.01402948063648869
  0
VERTEX
  8
0
  6
CONTINUOUS
 62
     7
 10
184.3679732832855
 20
37.0894024233918
 42
0.01393689798795944
  0
VERTEX
  8
0
  6
CONTINUOUS
 62
     7
 10
184.2197229907536
 20
37.03221658281667
 42
0.01382617761411625
  0
VERTEX
  8
0
  6
CONTINUOUS
 62
     7
 10
184.074731912289
 20
36.96682695184612
 42
0.01369996941920317
  0
VERTEX
  8
0
  6
CONTINUOUS
 62
     7
 10
183.9334608550418
 20
36.89350780086816
 42
0.01356104969892922
  0
VERTEX
  8
0
  6
CONTINUOUS
 62
     7
 10
183.796335999249
 20
36.81256431039327
 42
0.01332231792580633
  0
VERTEX
  8
0
  6
CONTINUOUS
 62
     7
 10
183.6646258250352
 20
36.72494555361375
 42
0.01328775229002223
  0
VERTEX
  8
0
  6
CONTINUOUS
 62
     7
 10
183.5366047485815
 20
36.62958203616988
 42
0.01315481056694431
  0
VERTEX
  8
0
  6
CONTINUOUS
 62
     7
 10
183.4135523791274
 20
36.52737640606701
 42
0.0129382675983512
  0
VERTEX
  8
0
  6
CONTINUOUS
 62
     7
 10
183.2965081188835
 20
36.41936191593053
 42
0.01278028496652123
  0
VERTEX
  8
0
  6
CONTINUOUS
 62
     7
 10
183.1851716947305
 20
36.30547280860488
 42
0.01262528398200907
  0
VERTEX
  8
0
  6
CONTINUOUS
 62
     7
 10
183.0797622282776
 20
36.18607564759094
 42
0
  0
SEQEND
  8
0
  0
POLYLINE
  8
0
  6
CONTINUOUS
 62
     7
 66
     1
 10
0
 20
0
  0
VERTEX
  8
0
  6
CONTINUOUS
 62
     7
 10
183.075736344791
 20
31.81903951000707
 42
0.06283235567160843
  0
VERTEX
  8
0
  6
CONTINUOUS
 62
     7
 10
183.6400353784622
 20
31.29286725327362
 42
0.06649756882840975
  0
VERTEX
  8
0
  6
CONTINUOUS
 62
     7
 10
184.3200366287327
 20
30.92836379194798
 42
0.06915613952692519
  0
VERTEX
  8
0
  6
CONTINUOUS
 62
     7
 10
185.0723921966261
 20
30.75950835279926
 42
0.06974940151457923
  0
VERTEX
  8
0
  6
CONTINUOUS
 62
     7
 10
185.841147753242
 20
30.80350499624854
 42
0.06816351172758314
  0
VERTEX
  8
0
  6
CONTINUOUS
 62
     7
 10
186.5689930013113
 20
31.05532238002203
 42
0.06499650552998124
  0
VERTEX
  8
0
  6
CONTINUOUS
 62
     7
 10
187.2055608702117
 20
31.49015100865249
 42
0.06129176911130344
  0
VERTEX
  8
0
  6
CONTINUOUS
 62
     7
 10
187.7136193576396
 20
32.07025139477625
 42
0.05808041875837253
  0
VERTEX
  8
0
  6
CONTINUOUS
 62
     7
 10
188.0706152266935
 20
32.75424620685451
 42
0.05590591710906159
  0
VERTEX
  8
0
  6
CONTINUOUS
 62
     7
 10
188.2642704669318
 20
33.50139125150532
 42
0.05496375807101361
  0
VERTEX
  8
0
  6
CONTINUOUS
 62
     7
 10
188.2892807439868
 20
34.27211420333955
 42
0.05547303687413662
  0
VERTEX
  8
0
  6
CONTINUOUS
 62
     7
 10
188.1451987726744
 20
35.0300032211484
 42
0.05727946545579506
  0
VERTEX
  8
0
  6
CONTINUOUS
 62
     7
 10
187.8357888682182
 20
35.73644508929262
 42
0.06026748443617695
  0
VERTEX
  8
0
  6
CONTINUOUS
 62
     7
 10
187.3705517459397
 20
36.3517559309876
 42
0.06395207220994359
  0
VERTEX
  8
0
  6
CONTINUOUS
 62
     7
 10
186.7683477762311
 20
36.83413808033452
 42
0.06744529803508328
  0
VERTEX
  8
0
  6
CONTINUOUS
 62
     7
 10
186.0616919623575
 20
37.14360409487318
 42
0.06944265343874492
  0
VERTEX
  8
0
  6
CONTINUOUS
 62
     7
 10
185.2998046875
 20
37.25016021728516
 42
0
  0
SEQEND
  8
0
  0
POLYLINE
  8
0
  6
CONTINUOUS
 62
     7
 66
     1
 10
0
 20
0
 70
     1
  0
VERTEX
  8
0
  6
CONTINUOUS
 62
     7
 10
10.52001953125
 20
36.50011444091797
 42
0.2551605458411817
  0
VERTEX
  8
0
  6
CONTINUOUS
 62
     7
 10
9.990202648013524
 20
36.07523260719091
 42
0.0631927099715551
  0
VERTEX
  8
0
  6
CONTINUOUS
 62
     7
 10
9.736102513620278
 20
35.41234613354816
 42
0.03518703121395376
  0
VERTEX
  8
0
  6
CONTINUOUS
 62
     7
 10
9.609370402740671
 20
34.71229507034489
 42
0.02798586519611495
  0
VERTEX
  8
0
  6
CONTINUOUS
 62
     7
 10
9.57000732421875
 20
34.00011444091797
 42
0.02790008261251557
  0
VERTEX
  8
0
  6
CONTINUOUS
 62
     7
 10
9.609141743172867
 20
33.28996523589238
 42
0.03516088754994585
  0
VERTEX
  8
0
  6
CONTINUOUS
 62
     7
 10
9.735638473590203
 20
32.58967349736009
 42
0.06315663997228688
  0
VERTEX
  8
0
  6
CONTINUOUS
 62
     7
 10
9.989675589919795
 20
31.92593344172591
 42
0.2552811767072822
  0
VERTEX
  8
0
  6
CONTINUOUS
 62
     7
 10
10.52001953125
 20
31.50011253356934
 42
0.2551559444955034
  0
VERTEX
  8
0
  6
CONTINUOUS
 62
     7
 10
11.04983483391354
 20
31.92499815130622
 42
0.063192450986458
  0
VERTEX
  8
0
  6
CONTINUOUS
 62
     7
 10
11.30393557786136
 20
32.58788442669642
 42
0.03518714058030256
  0
VERTEX
  8
0
  6
CONTINUOUS
 62
     7
 10
11.43066842761213
 20
33.2879353638462
 42
0.02798605966943308
  0
VERTEX
  8
0
  6
CONTINUOUS
 62
     7
 10
11.47003173828125
 20
34.00011444091797
 42
0.02789901718567319
  0
VERTEX
  8
0
  6
CONTINUOUS
 62
     7
 10
11.43089014443651
 20
34.71026328849363
 42
0.03515959239329906
  0
VERTEX
  8
0
  6
CONTINUOUS
 62
     7
 10
11.30438958320091
 20
35.41055438765186
 42
0.06315472475888068
  0
VERTEX
  8
0
  6
CONTINUOUS
 62
     7
 10
11.05035296657138
 20
36.07429479712714
 42
0.2552827505116858
  0
SEQEND
  8
0
  0
TEXT
  8
0
  6
CONTINUOUS
 62
     7
 10
-1.285500049591065
 20
-11.79987788200378
 40
3.599999904632568
 41
1.007125066575079
  1
SR30TBM
  0
ENDSEC
  0
EOF
